0
SECTION
2
ENTITIES
0
CIRCLE
8
0
10
120.903732210531
20
52.42275538054
30
0.0
40
14.8
0
CIRCLE
8
1
10
188.480976829991
20
120.903732210531
30
0.0
40
14.8
0
CIRCLE
8
2
10
120.0
20
188.480976829991
30
0.0
40
14.8
0
CIRCLE
8
3
10
52.42275538054
20
120.0
30
0.0
40
14.8
0
CIRCLE
8
4
10
120.0
20
120.0
30
0.0
40
68.480976829991
0
CIRCLE
8
5
10
120.0
20
120.0
30
0.0
40
99.3
0
CIRCLE
8
6
10
168.875229204031
20
72.667538180943
30
0.0
40
14.8
0
CIRCLE
8
7
10
168.236194029588
20
168.875229204031
30
0.0
40
14.8
0
CIRCLE
8
8
10
72.0285030065
20
168.236194029588
30
0.0
40
14.8
0
CIRCLE
8
9
10
72.667538180943
20
72.0285030065
30
0.0
40
14.8
0
CIRCLE
8
10
10
9.914448613738
20
9.914448613738
30
0.0
40
10.0
0
CIRCLE
8
11
10
94.017665277089
20
182.726904870168
30
0.0
40
10.0
0
CIRCLE
8
12
10
182.726904870168
20
145.982334722911
30
0.0
40
10.0
0
CIRCLE
8
13
10
327.649149237593
20
245.453809740337
30
0.0
40
10.0
0
CIRCLE
8
14
10
124.606022929727
20
-297.206175641281
30
0.0
40
10.0
0
CIRCLE
8
15
10
31.290760406923
20
364.393719384851
30
0.0
40
10.0
0
CIRCLE
8
16
10
-171.752365900947
20
-178.266265996765
30
0.0
40
10.0
0
CIRCLE
8
17
10
292.812456256431
20
243.545932574237
30
0.0
40
10.0
0
ENDSEC
0
EOF
