  0
SECTION
  2
HEADER
  9
$ACADVER
  1
AC1014
  9
$HANDSEED
  5
FFFF
  9
$INSUNITS
 70
     0
  9
$MEASUREMENT
 70
     1
  0
ENDSEC
  0
SECTION
  2
TABLES
  0
TABLE
  2
VPORT
  5
8
330
0
100
AcDbSymbolTable
 70
     4
  0
VPORT
  5
2E
330
8
100
AcDbSymbolTableRecord
100
AcDbViewportTableRecord
  2
*ACTIVE
 70
     0
 10
0.0
 20
0.0
 11
1.0
 21
1.0
 12
210.0
 22
148.5
 13
0.0
 23
0.0
 14
10.0
 24
10.0
 15
10.0
 25
10.0
 16
0.0
 26
0.0
 36
1.0
 17
0.0
 27
0.0
 37
0.0
 40
341.0
 41
1.24
 42
50.0
 43
0.0
 44
0.0
 50
0.0
 51
0.0
 71
     0
 72
   100
 73
     1
 74
     3
 75
     0
 76
     0
 77
     0
 78
     0
  0
ENDTAB
  0
TABLE
  2
LTYPE
  5
5
330
0
100
AcDbSymbolTable
 70
     1
  0
LTYPE
  5
14
330
5
100
AcDbSymbolTableRecord
100
AcDbLinetypeTableRecord
  2
BYBLOCK
 70
     0
  3

 72
    65
 73
     0
 40
0.0
  0
LTYPE
  5
15
330
5
100
AcDbSymbolTableRecord
100
AcDbLinetypeTableRecord
  2
BYLAYER
 70
     0
  3

 72
    65
 73
     0
 40
0.0
  0
LTYPE
  5
16
330
5
100
AcDbSymbolTableRecord
100
AcDbLinetypeTableRecord
  2
CONTINUOUS
 70
     0
  3
Solid line
 72
    65
 73
     0
 40
0.0
  0
ENDTAB
  0
TABLE
  2
LAYER
  5
2
100
AcDbSymbolTable
 70
2
  0
LAYER
  5
50
100
AcDbSymbolTableRecord
100
AcDbLayerTableRecord
  2
0
 70
0
  6
CONTINUOUS
  0
LAYER
  5
51
100
AcDbSymbolTableRecord
100
AcDbLayerTableRecord
  2
1
 70
0
  6
CONTINUOUS
  0
ENDTAB
  0
TABLE
  2
STYLE
  5
3
330
0
100
AcDbSymbolTable
 70
     1
  0
STYLE
  5
11
330
3
100
AcDbSymbolTableRecord
100
AcDbTextStyleTableRecord
  2
STANDARD
 70
     0
 40
0.0
 41
1.0
 50
0.0
 71
     0
 42
2.5
  3
txt
  4

  0
ENDTAB
  0
TABLE
  2
VIEW
  5
6
330
0
100
AcDbSymbolTable
 70
     0
  0
ENDTAB
  0
TABLE
  2
UCS
  5
7
330
0
100
AcDbSymbolTable
 70
     0
  0
ENDTAB
  0
TABLE
  2
APPID
  5
9
330
0
100
AcDbSymbolTable
 70
     2
  0
APPID
  5
12
330
9
100
AcDbSymbolTableRecord
100
AcDbRegAppTableRecord
  2
ACAD
 70
     0
  0
ENDTAB
  0
TABLE
  2
DIMSTYLE
  5
A
330
0
100
AcDbSymbolTable
 70
     1
  0
DIMSTYLE
105
27
330
A
100
AcDbSymbolTableRecord
100
AcDbDimStyleTableRecord
  2
ISO-25
 70
     0
  3

  4

  5

  6

  7

 40
1.0
 41
2.5
 42
0.625
 43
3.75
 44
1.25
 45
0.0
 46
0.0
 47
0.0
 48
0.0
140
2.5
141
2.5
142
0.0
143
0.03937007874016
144
1.0
145
0.0
146
1.0
147
0.625
 71
     0
 72
     0
 73
     0
 74
     0
 75
     0
 76
     0
 77
     1
 78
     8
170
     0
171
     3
172
     1
173
     0
174
     0
175
     0
176
     0
177
     0
178
     0
270
     2
271
     2
272
     2
273
     2
274
     3
340
11
275
     0
280
     0
281
     0
282
     0
283
     0
284
     8
285
     0
286
     0
287
     3
288
     0
  0
ENDTAB
  0
TABLE
  2
BLOCK_RECORD
  5
1
330
0
100
AcDbSymbolTable
 70
     1
  0
BLOCK_RECORD
  5
1F
330
1
100
AcDbSymbolTableRecord
100
AcDbBlockTableRecord
  2
*MODEL_SPACE
  0
BLOCK_RECORD
  5
1B
330
1
100
AcDbSymbolTableRecord
100
AcDbBlockTableRecord
  2
*PAPER_SPACE
  0
ENDTAB
  0
ENDSEC
  0
SECTION
  2
BLOCKS
  0
BLOCK
  5
20
330
1F
100
AcDbEntity
  8
0
100
AcDbBlockBegin
  2
*MODEL_SPACE
 70
     0
 10
0.0
 20
0.0
 30
0.0
  3
*MODEL_SPACE
  1

  0
ENDBLK
  5
21
330
1F
100
AcDbEntity
  8
0
100
AcDbBlockEnd
  0
BLOCK
  5
1C
330
1B
100
AcDbEntity
 67
     1
  8
0
100
AcDbBlockBegin
  2
*PAPER_SPACE
  1

  0
ENDBLK
  5
1D
330
1B
100
AcDbEntity
 67
     1
  8
0
100
AcDbBlockEnd
  0
ENDSEC
  0
SECTION
  2
ENTITIES
  0
SPLINE
  5
100
100
AcDbEntity
  8
1
 62
7
100
AcDbSpline
 70
8
 71
3
 72
8
 73
4
 74
0
 40
0
 40
0
 40
0
 40
0
 40
1
 40
1
 40
1
 40
1
 10
1144.385000
 20
537.817590
 30
0.0
 10
1143.127900
 20
538.324820
 30
0.0
 10
1143.384600
 20
540.778980
 30
0.0
 10
1144.858800
 20
542.348230
 30
0.0
  0
SPLINE
  5
101
100
AcDbEntity
  8
1
 62
7
100
AcDbSpline
 70
8
 71
3
 72
8
 73
4
 74
0
 40
0
 40
0
 40
0
 40
0
 40
1
 40
1
 40
1
 40
1
 10
1141.003800
 20
545.468150
 30
0.0
 10
1141.205700
 20
547.577700
 30
0.0
 10
1141.352700
 20
547.698500
 30
0.0
 10
1143.505400
 20
547.523870
 30
0.0
  0
SPLINE
  5
102
100
AcDbEntity
  8
1
 62
7
100
AcDbSpline
 70
8
 71
3
 72
8
 73
4
 74
0
 40
0
 40
0
 40
0
 40
0
 40
1
 40
1
 40
1
 40
1
 10
1143.505400
 20
547.523870
 30
0.0
 10
1145.732200
 20
547.343230
 30
0.0
 10
1145.761500
 20
547.372530
 30
0.0
 10
1144.618500
 20
548.635560
 30
0.0
  0
SPLINE
  5
103
100
AcDbEntity
  8
1
 62
7
100
AcDbSpline
 70
8
 71
3
 72
8
 73
4
 74
0
 40
0
 40
0
 40
0
 40
0
 40
1
 40
1
 40
1
 40
1
 10
1144.618500
 20
548.635560
 30
0.0
 10
1142.916400
 20
550.516290
 30
0.0
 10
1143.456200
 20
552.992960
 30
0.0
 10
1145.622900
 20
553.244480
 30
0.0
  0
SPLINE
  5
104
100
AcDbEntity
  8
1
 62
7
100
AcDbSpline
 70
8
 71
3
 72
8
 73
4
 74
0
 40
0
 40
0
 40
0
 40
0
 40
1
 40
1
 40
1
 40
1
 10
1145.622900
 20
553.244480
 30
0.0
 10
1147.039200
 20
553.408890
 30
0.0
 10
1147.526600
 20
553.046010
 30
0.0
 10
1148.256700
 20
551.283510
 30
0.0
  0
LWPOLYLINE
  5
105
100
AcDbEntity
  8
1
 62
7
100
AcDbPolyline
 90
5
 70
0
 10
1144.858800
 20
542.348230
 30
0.0
 10
1146.166000
 20
543.739650
 30
0.0
 10
1143.477700
 20
543.483280
 30
0.0
 10
1140.789400
 20
543.226910
 30
0.0
 10
1141.003800
 20
545.468150
 30
0.0
  0
SPLINE
  5
106
100
AcDbEntity
  8
1
 62
7
100
AcDbSpline
 70
8
 71
3
 72
8
 73
4
 74
0
 40
0
 40
0
 40
0
 40
0
 40
1
 40
1
 40
1
 40
1
 10
1150.020600
 20
551.248440
 30
0.0
 10
1150.674500
 20
552.850970
 30
0.0
 10
1151.304800
 20
553.376070
 30
0.0
 10
1152.574500
 20
553.376070
 30
0.0
  0
SPLINE
  5
107
100
AcDbEntity
  8
1
 62
7
100
AcDbSpline
 70
8
 71
3
 72
8
 73
4
 74
0
 40
0
 40
0
 40
0
 40
0
 40
1
 40
1
 40
1
 40
1
 10
1152.574500
 20
553.376070
 30
0.0
 10
1154.779200
 20
553.376070
 30
0.0
 10
1155.394400
 20
551.640480
 30
0.0
 10
1154.031400
 20
549.265600
 30
0.0
  0
LWPOLYLINE
  5
108
100
AcDbEntity
  8
1
 62
7
100
AcDbPolyline
 90
3
 70
0
 10
1148.256700
 20
551.283510
 30
0.0
 10
1149.152500
 20
549.120800
 30
0.0
 10
1150.020600
 20
551.248440
 30
0.0
  0
SPLINE
  5
109
100
AcDbEntity
  8
1
 62
7
100
AcDbSpline
 70
8
 71
3
 72
8
 73
4
 74
0
 40
0
 40
0
 40
0
 40
0
 40
1
 40
1
 40
1
 40
1
 10
1155.083700
 20
547.544550
 30
0.0
 10
1157.058700
 20
547.697080
 30
0.0
 10
1157.234400
 20
547.541550
 30
0.0
 10
1157.432800
 20
545.468150
 30
0.0
  0
LWPOLYLINE
  5
10a
100
AcDbEntity
  8
1
 62
7
100
AcDbPolyline
 90
3
 70
0
 10
1154.031400
 20
549.265600
 30
0.0
 10
1152.949100
 20
547.379690
 30
0.0
 10
1155.083700
 20
547.544550
 30
0.0
  0
SPLINE
  5
10b
100
AcDbEntity
  8
1
 62
7
100
AcDbSpline
 70
8
 71
3
 72
8
 73
4
 74
0
 40
0
 40
0
 40
0
 40
0
 40
1
 40
1
 40
1
 40
1
 10
1153.577800
 20
542.348230
 30
0.0
 10
1155.070000
 20
540.759830
 30
0.0
 10
1155.243300
 20
539.334390
 30
0.0
 10
1154.085000
 20
538.176070
 30
0.0
  0
SPLINE
  5
10c
100
AcDbEntity
  8
1
 62
7
100
AcDbSpline
 70
8
 71
3
 72
8
 73
4
 74
0
 40
0
 40
0
 40
0
 40
0
 40
1
 40
1
 40
1
 40
1
 10
1154.085000
 20
538.176070
 30
0.0
 10
1152.636800
 20
536.727860
 30
0.0
 10
1150.925200
 20
537.286970
 30
0.0
 10
1150.020600
 20
539.503700
 30
0.0
  0
LWPOLYLINE
  5
10d
100
AcDbEntity
  8
1
 62
7
100
AcDbPolyline
 90
5
 70
0
 10
1157.432800
 20
545.468150
 30
0.0
 10
1157.647300
 20
543.226910
 30
0.0
 10
1154.958900
 20
543.483280
 30
0.0
 10
1152.270600
 20
543.739650
 30
0.0
 10
1153.577800
 20
542.348230
 30
0.0
  0
SPLINE
  5
10e
100
AcDbEntity
  8
1
 62
7
100
AcDbSpline
 70
8
 71
3
 72
8
 73
4
 74
0
 40
0
 40
0
 40
0
 40
0
 40
1
 40
1
 40
1
 40
1
 10
1148.271200
 20
539.503700
 30
0.0
 10
1147.436800
 20
537.489210
 30
0.0
 10
1146.358400
 20
537.021320
 30
0.0
 10
1144.385000
 20
537.817590
 30
0.0
  0
LWPOLYLINE
  5
10f
100
AcDbEntity
  8
1
 62
7
100
AcDbPolyline
 90
3
 70
0
 10
1150.020600
 20
539.503700
 30
0.0
 10
1149.152500
 20
541.631340
 30
0.0
 10
1148.271200
 20
539.503700
 30
0.0
  0
SPLINE
  5
110
100
AcDbEntity
  8
1
 62
7
100
AcDbSpline
 70
8
 71
3
 72
8
 73
4
 74
0
 40
0
 40
0
 40
0
 40
0
 40
1
 40
1
 40
1
 40
1
 10
1149.551700
 20
545.748750
 30
0.0
 10
1149.551700
 20
546.320390
 30
0.0
 10
1149.251700
 20
546.602680
 30
0.0
 10
1148.885000
 20
546.376070
 30
0.0
  0
SPLINE
  5
111
100
AcDbEntity
  8
1
 62
7
100
AcDbSpline
 70
8
 71
3
 72
8
 73
4
 74
0
 40
0
 40
0
 40
0
 40
0
 40
1
 40
1
 40
1
 40
1
 10
1148.885000
 20
546.376070
 30
0.0
 10
1148.518300
 20
546.149460
 30
0.0
 10
1148.218300
 20
545.681750
 30
0.0
 10
1148.218300
 20
545.336730
 30
0.0
  0
SPLINE
  5
112
100
AcDbEntity
  8
1
 62
7
100
AcDbSpline
 70
8
 71
3
 72
8
 73
4
 74
0
 40
0
 40
0
 40
0
 40
0
 40
1
 40
1
 40
1
 40
1
 10
1148.218300
 20
545.336730
 30
0.0
 10
1148.218300
 20
544.991700
 30
0.0
 10
1148.518300
 20
544.709400
 30
0.0
 10
1148.885000
 20
544.709400
 30
0.0
  0
SPLINE
  5
113
100
AcDbEntity
  8
1
 62
7
100
AcDbSpline
 70
8
 71
3
 72
8
 73
4
 74
0
 40
0
 40
0
 40
0
 40
0
 40
1
 40
1
 40
1
 40
1
 10
1148.885000
 20
544.709400
 30
0.0
 10
1149.251700
 20
544.709400
 30
0.0
 10
1149.551700
 20
545.177110
 30
0.0
 10
1149.551700
 20
545.748750
 30
0.0
  0
LWPOLYLINE
  5
114
100
AcDbEntity
  8
1
 62
7
100
AcDbPolyline
 90
1
 70
1
 10
1144.385000
 20
537.817590
 30
0.0
  0
SPLINE
  5
115
100
AcDbEntity
  8
1
 62
7
100
AcDbSpline
 70
8
 71
3
 72
8
 73
4
 74
0
 40
0
 40
0
 40
0
 40
0
 40
1
 40
1
 40
1
 40
1
 10
619.905830
 20
600.675620
 30
0.0
 10
619.355560
 20
601.565980
 30
0.0
 10
619.306770
 20
613.107240
 30
0.0
 10
619.849530
 20
613.985500
 30
0.0
  0
SPLINE
  5
116
100
AcDbEntity
  8
1
 62
7
100
AcDbSpline
 70
8
 71
3
 72
8
 73
4
 74
0
 40
0
 40
0
 40
0
 40
0
 40
1
 40
1
 40
1
 40
1
 10
619.849530
 20
613.985500
 30
0.0
 10
620.509150
 20
615.052780
 30
0.0
 10
649.013270
 20
614.981040
 30
0.0
 10
650.084910
 20
613.909400
 30
0.0
  0
SPLINE
  5
117
100
AcDbEntity
  8
1
 62
7
100
AcDbSpline
 70
8
 71
3
 72
8
 73
4
 74
0
 40
0
 40
0
 40
0
 40
0
 40
1
 40
1
 40
1
 40
1
 10
650.084910
 20
613.909400
 30
0.0
 10
650.920190
 20
613.074110
 30
0.0
 10
651.229510
 20
603.049790
 30
0.0
 10
650.480250
 20
601.097250
 30
0.0
  0
SPLINE
  5
118
100
AcDbEntity
  8
1
 62
7
100
AcDbSpline
 70
8
 71
3
 72
8
 73
4
 74
0
 40
0
 40
0
 40
0
 40
0
 40
1
 40
1
 40
1
 40
1
 10
650.480250
 20
601.097250
 30
0.0
 10
650.127970
 20
600.179220
 30
0.0
 10
648.148390
 20
600.042730
 30
0.0
 10
635.186260
 20
600.042730
 30
0.0
  0
SPLINE
  5
119
100
AcDbEntity
  8
1
 62
7
100
AcDbSpline
 70
8
 71
3
 72
8
 73
4
 74
0
 40
0
 40
0
 40
0
 40
0
 40
1
 40
1
 40
1
 40
1
 10
635.186260
 20
600.042730
 30
0.0
 10
626.509040
 20
600.042730
 30
0.0
 10
620.133740
 20
600.306780
 30
0.0
 10
619.905790
 20
600.675610
 30
0.0
  0
LWPOLYLINE
  5
11a
100
AcDbEntity
  8
1
 62
7
100
AcDbPolyline
 90
1
 70
1
 10
1149.551700
 20
545.748750
 30
0.0
  0
LWPOLYLINE
  5
11b
100
AcDbEntity
  8
1
 62
7
100
AcDbPolyline
 90
1
 70
1
 10
619.905790
 20
600.675610
 30
0.0
  0
SPLINE
  5
11c
100
AcDbEntity
  8
1
 62
7
100
AcDbSpline
 70
8
 71
3
 72
8
 73
4
 74
0
 40
0
 40
0
 40
0
 40
0
 40
1
 40
1
 40
1
 40
1
 10
2099.051700
 20
565.146790
 30
0.0
 10
2098.461900
 20
565.387690
 30
0.0
 10
2098.218300
 20
567.469840
 30
0.0
 10
2098.218300
 20
572.270520
 30
0.0
  0
SPLINE
  5
11d
100
AcDbEntity
  8
1
 62
7
100
AcDbSpline
 70
8
 71
3
 72
8
 73
4
 74
0
 40
0
 40
0
 40
0
 40
0
 40
1
 40
1
 40
1
 40
1
 10
2098.218300
 20
572.270520
 30
0.0
 10
2098.218300
 20
579.004050
 30
0.0
 10
2098.237300
 20
579.083190
 30
0.0
 10
2100.784700
 20
583.048300
 30
0.0
  0
SPLINE
  5
11e
100
AcDbEntity
  8
1
 62
7
100
AcDbSpline
 70
8
 71
3
 72
8
 73
4
 74
0
 40
0
 40
0
 40
0
 40
0
 40
1
 40
1
 40
1
 40
1
 10
2100.784700
 20
583.048300
 30
0.0
 10
2115.376600
 20
605.759710
 30
0.0
 10
2132.885000
 20
633.593120
 30
0.0
 10
2132.885000
 20
634.078730
 30
0.0
  0
SPLINE
  5
11f
100
AcDbEntity
  8
1
 62
7
100
AcDbSpline
 70
8
 71
3
 72
8
 73
4
 74
0
 40
0
 40
0
 40
0
 40
0
 40
1
 40
1
 40
1
 40
1
 10
2132.885000
 20
634.078730
 30
0.0
 10
2132.885000
 20
634.424820
 30
0.0
 10
2125.487300
 20
634.763570
 30
0.0
 10
2115.718300
 20
634.864820
 30
0.0
  0
LWPOLYLINE
  5
120
100
AcDbEntity
  8
1
 62
7
100
AcDbPolyline
 90
8
 70
1
 10
648.884950
 20
607.042740
 30
0.0
 10
648.884950
 20
612.042740
 30
0.0
 10
635.218280
 20
612.042740
 30
0.0
 10
621.551610
 20
612.042740
 30
0.0
 10
621.551610
 20
607.042740
 30
0.0
 10
621.551610
 20
602.042740
 30
0.0
 10
635.218280
 20
602.042740
 30
0.0
 10
648.884950
 20
602.042740
 30
0.0
  0
SPLINE
  5
121
100
AcDbEntity
  8
1
 62
7
100
AcDbSpline
 70
8
 71
3
 72
8
 73
4
 74
0
 40
0
 40
0
 40
0
 40
0
 40
1
 40
1
 40
1
 40
1
 10
2123.843500
 20
649.217540
 30
0.0
 10
2137.754100
 20
649.313640
 30
0.0
 10
2149.390400
 20
649.137340
 30
0.0
 10
2149.702000
 20
648.825740
 30
0.0
  0
SPLINE
  5
122
100
AcDbEntity
  8
1
 62
7
100
AcDbSpline
 70
8
 71
3
 72
8
 73
4
 74
0
 40
0
 40
0
 40
0
 40
0
 40
1
 40
1
 40
1
 40
1
 10
2149.702000
 20
648.825740
 30
0.0
 10
2150.013600
 20
648.514110
 30
0.0
 10
2150.286300
 20
645.367360
 30
0.0
 10
2150.307900
 20
641.832970
 30
0.0
  0
LWPOLYLINE
  5
123
100
AcDbEntity
  8
1
 62
7
100
AcDbPolyline
 90
5
 70
0
 10
2115.718300
 20
634.864820
 30
0.0
 10
2098.551700
 20
635.042740
 30
0.0
 10
2098.551700
 20
642.042740
 30
0.0
 10
2098.551700
 20
649.042740
 30
0.0
 10
2123.843500
 20
649.217540
 30
0.0
  0
SPLINE
  5
124
100
AcDbEntity
  8
1
 62
7
100
AcDbSpline
 70
8
 71
3
 72
8
 73
4
 74
0
 40
0
 40
0
 40
0
 40
0
 40
1
 40
1
 40
1
 40
1
 10
2144.782400
 20
626.624900
 30
0.0
 10
2141.722300
 20
621.794850
 30
0.0
 10
2138.318300
 20
616.385470
 30
0.0
 10
2137.218300
 20
614.604050
 30
0.0
  0
SPLINE
  5
125
100
AcDbEntity
  8
1
 62
7
100
AcDbSpline
 70
8
 71
3
 72
8
 73
4
 74
0
 40
0
 40
0
 40
0
 40
0
 40
1
 40
1
 40
1
 40
1
 10
2137.218300
 20
614.604050
 30
0.0
 10
2136.118300
 20
612.822640
 30
0.0
 10
2133.135100
 20
608.142580
 30
0.0
 10
2130.589000
 20
604.203920
 30
0.0
  0
SPLINE
  5
126
100
AcDbEntity
  8
1
 62
7
100
AcDbSpline
 70
8
 71
3
 72
8
 73
4
 74
0
 40
0
 40
0
 40
0
 40
0
 40
1
 40
1
 40
1
 40
1
 10
2130.589000
 20
604.203920
 30
0.0
 10
2121.881100
 20
590.733700
 30
0.0
 10
2115.551700
 20
580.525010
 30
0.0
 10
2115.551700
 20
579.950430
 30
0.0
  0
SPLINE
  5
127
100
AcDbEntity
  8
1
 62
7
100
AcDbSpline
 70
8
 71
3
 72
8
 73
4
 74
0
 40
0
 40
0
 40
0
 40
0
 40
1
 40
1
 40
1
 40
1
 10
2115.551700
 20
579.950430
 30
0.0
 10
2115.551700
 20
579.634530
 30
0.0
 10
2123.191100
 20
579.376070
 30
0.0
 10
2132.528200
 20
579.376070
 30
0.0
  0
SPLINE
  5
128
100
AcDbEntity
  8
1
 62
7
100
AcDbSpline
 70
8
 71
3
 72
8
 73
4
 74
0
 40
0
 40
0
 40
0
 40
0
 40
1
 40
1
 40
1
 40
1
 10
2132.528200
 20
579.376070
 30
0.0
 10
2148.041800
 20
579.376070
 30
0.0
 10
2149.552300
 20
579.275540
 30
0.0
 10
2150.056200
 20
578.209400
 30
0.0
  0
SPLINE
  5
129
100
AcDbEntity
  8
1
 62
7
100
AcDbSpline
 70
8
 71
3
 72
8
 73
4
 74
0
 40
0
 40
0
 40
0
 40
0
 40
1
 40
1
 40
1
 40
1
 10
2150.056200
 20
578.209400
 30
0.0
 10
2150.359500
 20
577.567740
 30
0.0
 10
2150.445100
 20
574.342740
 30
0.0
 10
2150.246300
 20
571.042740
 30
0.0
  0
LWPOLYLINE
  5
12a
100
AcDbEntity
  8
1
 62
7
100
AcDbPolyline
 90
3
 70
0
 10
2150.307900
 20
641.832970
 30
0.0
 10
2150.346900
 20
635.406800
 30
0.0
 10
2144.782400
 20
626.624900
 30
0.0
  0
SPLINE
  5
12b
100
AcDbEntity
  8
1
 62
7
100
AcDbSpline
 70
8
 71
3
 72
8
 73
4
 74
0
 40
0
 40
0
 40
0
 40
0
 40
1
 40
1
 40
1
 40
1
 10
2124.885000
 20
564.924570
 30
0.0
 10
2111.135000
 20
564.859570
 30
0.0
 10
2099.510000
 20
564.959570
 30
0.0
 10
2099.051700
 20
565.146790
 30
0.0
  0
LWPOLYLINE
  5
12c
100
AcDbEntity
  8
1
 62
7
100
AcDbPolyline
 90
3
 70
0
 10
2150.246300
 20
571.042740
 30
0.0
 10
2149.885000
 20
565.042740
 30
0.0
 10
2124.885000
 20
564.924570
 30
0.0
  0
LWPOLYLINE
  5
12d
100
AcDbEntity
  8
1
 62
7
100
AcDbPolyline
 90
1
 70
1
 10
2099.051700
 20
565.146790
 30
0.0
  0
SPLINE
  5
12e
100
AcDbEntity
  8
1
 62
7
100
AcDbSpline
 70
8
 71
3
 72
8
 73
4
 74
0
 40
0
 40
0
 40
0
 40
0
 40
1
 40
1
 40
1
 40
1
 10
2131.685000
 20
577.376070
 30
0.0
 10
2114.353500
 20
577.376070
 30
0.0
 10
2113.524700
 20
577.511860
 30
0.0
 10
2113.576800
 20
580.342740
 30
0.0
  0
SPLINE
  5
12f
100
AcDbEntity
  8
1
 62
7
100
AcDbSpline
 70
8
 71
3
 72
8
 73
4
 74
0
 40
0
 40
0
 40
0
 40
0
 40
1
 40
1
 40
1
 40
1
 10
2113.576800
 20
580.342740
 30
0.0
 10
2113.590800
 20
581.094400
 30
0.0
 10
2115.531600
 20
584.709400
 30
0.0
 10
2117.890000
 20
588.376070
 30
0.0
  0
SPLINE
  5
130
100
AcDbEntity
  8
1
 62
7
100
AcDbSpline
 70
8
 71
3
 72
8
 73
4
 74
0
 40
0
 40
0
 40
0
 40
0
 40
1
 40
1
 40
1
 40
1
 10
2117.890000
 20
588.376070
 30
0.0
 10
2120.248400
 20
592.042740
 30
0.0
 10
2122.989300
 20
596.392740
 30
0.0
 10
2123.980900
 20
598.042740
 30
0.0
  0
SPLINE
  5
131
100
AcDbEntity
  8
1
 62
7
100
AcDbSpline
 70
8
 71
3
 72
8
 73
4
 74
0
 40
0
 40
0
 40
0
 40
0
 40
1
 40
1
 40
1
 40
1
 10
2123.980900
 20
598.042740
 30
0.0
 10
2124.972500
 20
599.692740
 30
0.0
 10
2127.341500
 20
603.442740
 30
0.0
 10
2129.245400
 20
606.376070
 30
0.0
  0
SPLINE
  5
132
100
AcDbEntity
  8
1
 62
7
100
AcDbSpline
 70
8
 71
3
 72
8
 73
4
 74
0
 40
0
 40
0
 40
0
 40
0
 40
1
 40
1
 40
1
 40
1
 10
2129.245400
 20
606.376070
 30
0.0
 10
2131.149300
 20
609.309400
 30
0.0
 10
2136.197100
 20
617.207180
 30
0.0
 10
2140.462700
 20
623.926670
 30
0.0
  0
LWPOLYLINE
  5
133
100
AcDbEntity
  8
1
 62
7
100
AcDbPolyline
 90
3
 70
0
 10
2148.218300
 20
572.376070
 30
0.0
 10
2148.218300
 20
577.376070
 30
0.0
 10
2131.685000
 20
577.376070
 30
0.0
  0
SPLINE
  5
134
100
AcDbEntity
  8
1
 62
7
100
AcDbSpline
 70
8
 71
3
 72
8
 73
4
 74
0
 40
0
 40
0
 40
0
 40
0
 40
1
 40
1
 40
1
 40
1
 10
2115.841600
 20
637.376070
 30
0.0
 10
2124.434400
 20
637.376070
 30
0.0
 10
2132.234400
 20
637.083500
 30
0.0
 10
2133.174900
 20
636.725900
 30
0.0
  0
SPLINE
  5
135
100
AcDbEntity
  8
1
 62
7
100
AcDbSpline
 70
8
 71
3
 72
8
 73
4
 74
0
 40
0
 40
0
 40
0
 40
0
 40
1
 40
1
 40
1
 40
1
 10
2133.174900
 20
636.725900
 30
0.0
 10
2135.465400
 20
635.855060
 30
0.0
 10
2135.405900
 20
633.643190
 30
0.0
 10
2132.982500
 20
629.572070
 30
0.0
  0
SPLINE
  5
136
100
AcDbEntity
  8
1
 62
7
100
AcDbSpline
 70
8
 71
3
 72
8
 73
4
 74
0
 40
0
 40
0
 40
0
 40
0
 40
1
 40
1
 40
1
 40
1
 10
2132.982500
 20
629.572070
 30
0.0
 10
2131.936100
 20
627.814270
 30
0.0
 10
2124.136100
 20
615.494570
 30
0.0
 10
2115.649200
 20
602.194950
 30
0.0
  0
LWPOLYLINE
  5
137
100
AcDbEntity
  8
1
 62
7
100
AcDbPolyline
 90
9
 70
0
 10
2140.462700
 20
623.926670
 30
0.0
 10
2148.218300
 20
636.143950
 30
0.0
 10
2148.218300
 20
641.760010
 30
0.0
 10
2148.218300
 20
647.376070
 30
0.0
 10
2124.218300
 20
647.376070
 30
0.0
 10
2100.218300
 20
647.376070
 30
0.0
 10
2100.218300
 20
642.376070
 30
0.0
 10
2100.218300
 20
637.376070
 30
0.0
 10
2115.841600
 20
637.376070
 30
0.0
  0
SPLINE
  5
138
100
AcDbEntity
  8
1
 62
7
100
AcDbSpline
 70
8
 71
3
 72
8
 73
4
 74
0
 40
0
 40
0
 40
0
 40
0
 40
1
 40
1
 40
1
 40
1
 10
2060.718300
 20
565.429470
 30
0.0
 10
2059.656100
 20
566.048140
 30
0.0
 10
2059.551700
 20
567.610920
 30
0.0
 10
2059.551700
 20
582.879980
 30
0.0
  0
LWPOLYLINE
  5
139
100
AcDbEntity
  8
1
 62
7
100
AcDbPolyline
 90
7
 70
0
 10
2115.649200
 20
602.194950
 30
0.0
 10
2100.218300
 20
578.013840
 30
0.0
 10
2100.218300
 20
572.694950
 30
0.0
 10
2100.218300
 20
567.376070
 30
0.0
 10
2124.218300
 20
567.376070
 30
0.0
 10
2148.218300
 20
567.376070
 30
0.0
 10
2148.218300
 20
572.376070
 30
0.0
  0
SPLINE
  5
13a
100
AcDbEntity
  8
1
 62
7
100
AcDbSpline
 70
8
 71
3
 72
8
 73
4
 74
0
 40
0
 40
0
 40
0
 40
0
 40
1
 40
1
 40
1
 40
1
 10
2056.528600
 20
607.346860
 30
0.0
 10
2054.865800
 20
611.579590
 30
0.0
 10
2052.933000
 20
616.392740
 30
0.0
 10
2052.233400
 20
618.042740
 30
0.0
  0
SPLINE
  5
13b
100
AcDbEntity
  8
1
 62
7
100
AcDbSpline
 70
8
 71
3
 72
8
 73
4
 74
0
 40
0
 40
0
 40
0
 40
0
 40
1
 40
1
 40
1
 40
1
 10
2052.233400
 20
618.042740
 30
0.0
 10
2047.649600
 20
628.852820
 30
0.0
 10
2040.885000
 20
646.661310
 30
0.0
 10
2040.885000
 20
647.918230
 30
0.0
  0
SPLINE
  5
13c
100
AcDbEntity
  8
1
 62
7
100
AcDbSpline
 70
8
 71
3
 72
8
 73
4
 74
0
 40
0
 40
0
 40
0
 40
0
 40
1
 40
1
 40
1
 40
1
 10
2040.885000
 20
647.918230
 30
0.0
 10
2040.885000
 20
649.397750
 30
0.0
 10
2040.994500
 20
649.416980
 30
0.0
 10
2048.362400
 20
649.231240
 30
0.0
  0
LWPOLYLINE
  5
13d
100
AcDbEntity
  8
1
 62
7
100
AcDbPolyline
 90
3
 70
0
 10
2059.551700
 20
582.879980
 30
0.0
 10
2059.551700
 20
599.650980
 30
0.0
 10
2056.528600
 20
607.346860
 30
0.0
  0
SPLINE
  5
13e
100
AcDbEntity
  8
1
 62
7
100
AcDbSpline
 70
8
 71
3
 72
8
 73
4
 74
0
 40
0
 40
0
 40
0
 40
0
 40
1
 40
1
 40
1
 40
1
 10
2060.946200
 20
634.376070
 30
0.0
 10
2063.987900
 20
625.639360
 30
0.0
 10
2066.395000
 20
619.709400
 30
0.0
 10
2066.899600
 20
619.709400
 30
0.0
  0
SPLINE
  5
13f
100
AcDbEntity
  8
1
 62
7
100
AcDbSpline
 70
8
 71
3
 72
8
 73
4
 74
0
 40
0
 40
0
 40
0
 40
0
 40
1
 40
1
 40
1
 40
1
 10
2066.899600
 20
619.709400
 30
0.0
 10
2067.404600
 20
619.709400
 30
0.0
 10
2069.802900
 20
625.631960
 30
0.0
 10
2072.838800
 20
634.376070
 30
0.0
  0
LWPOLYLINE
  5
140
100
AcDbEntity
  8
1
 62
7
100
AcDbPolyline
 90
3
 70
0
 10
2048.362400
 20
649.231240
 30
0.0
 10
2055.839900
 20
649.042740
 30
0.0
 10
2060.946200
 20
634.376070
 30
0.0
  0
SPLINE
  5
141
100
AcDbEntity
  8
1
 62
7
100
AcDbSpline
 70
8
 71
3
 72
8
 73
4
 74
0
 40
0
 40
0
 40
0
 40
0
 40
1
 40
1
 40
1
 40
1
 10
2085.408000
 20
649.231240
 30
0.0
 10
2092.762700
 20
649.416650
 30
0.0
 10
2092.885000
 20
649.395320
 30
0.0
 10
2092.885000
 20
647.927120
 30
0.0
  0
SPLINE
  5
142
100
AcDbEntity
  8
1
 62
7
100
AcDbSpline
 70
8
 71
3
 72
8
 73
4
 74
0
 40
0
 40
0
 40
0
 40
0
 40
1
 40
1
 40
1
 40
1
 10
2092.885000
 20
647.927120
 30
0.0
 10
2092.885000
 20
646.601840
 30
0.0
 10
2089.111600
 20
636.362680
 30
0.0
 10
2085.557100
 20
628.042740
 30
0.0
  0
SPLINE
  5
143
100
AcDbEntity
  8
1
 62
7
100
AcDbSpline
 70
8
 71
3
 72
8
 73
4
 74
0
 40
0
 40
0
 40
0
 40
0
 40
1
 40
1
 40
1
 40
1
 10
2085.557100
 20
628.042740
 30
0.0
 10
2084.852200
 20
626.392740
 30
0.0
 10
2082.012600
 20
619.332380
 30
0.0
 10
2079.246900
 20
612.353050
 30
0.0
  0
LWPOLYLINE
  5
144
100
AcDbEntity
  8
1
 62
7
100
AcDbPolyline
 90
3
 70
0
 10
2072.838800
 20
634.376070
 30
0.0
 10
2077.931100
 20
649.042740
 30
0.0
 10
2085.408000
 20
649.231240
 30
0.0
  0
SPLINE
  5
145
100
AcDbEntity
  8
1
 62
7
100
AcDbSpline
 70
8
 71
3
 72
8
 73
4
 74
0
 40
0
 40
0
 40
0
 40
0
 40
1
 40
1
 40
1
 40
1
 10
2074.218300
 20
582.876500
 30
0.0
 10
2074.218300
 20
566.962140
 30
0.0
 10
2074.151300
 20
566.053780
 30
0.0
 10
2072.928800
 20
565.399530
 30
0.0
  0
SPLINE
  5
146
100
AcDbEntity
  8
1
 62
7
100
AcDbSpline
 70
8
 71
3
 72
8
 73
4
 74
0
 40
0
 40
0
 40
0
 40
0
 40
1
 40
1
 40
1
 40
1
 10
2072.928800
 20
565.399530
 30
0.0
 10
2071.276500
 20
564.515250
 30
0.0
 10
2062.250000
 20
564.537380
 30
0.0
 10
2060.718300
 20
565.429430
 30
0.0
  0
LWPOLYLINE
  5
147
100
AcDbEntity
  8
1
 62
7
100
AcDbPolyline
 90
3
 70
0
 10
2079.246900
 20
612.353050
 30
0.0
 10
2074.218300
 20
599.663360
 30
0.0
 10
2074.218300
 20
582.876500
 30
0.0
  0
LWPOLYLINE
  5
148
100
AcDbEntity
  8
1
 62
7
100
AcDbPolyline
 90
1
 70
1
 10
2060.718300
 20
565.429430
 30
0.0
  0
SPLINE
  5
149
100
AcDbEntity
  8
1
 62
7
100
AcDbSpline
 70
8
 71
3
 72
8
 73
4
 74
0
 40
0
 40
0
 40
0
 40
0
 40
1
 40
1
 40
1
 40
1
 10
2078.901900
 20
617.430860
 30
0.0
 10
2082.577800
 20
626.750720
 30
0.0
 10
2086.058200
 20
635.425040
 30
0.0
 10
2086.636100
 20
636.707110
 30
0.0
  0
SPLINE
  5
14a
100
AcDbEntity
  8
1
 62
7
100
AcDbSpline
 70
8
 71
3
 72
8
 73
4
 74
0
 40
0
 40
0
 40
0
 40
0
 40
1
 40
1
 40
1
 40
1
 10
2086.636100
 20
636.707110
 30
0.0
 10
2087.214000
 20
637.989180
 30
0.0
 10
2088.393000
 20
640.914180
 30
0.0
 10
2089.256100
 20
643.207110
 30
0.0
  0
LWPOLYLINE
  5
14b
100
AcDbEntity
  8
1
 62
7
100
AcDbPolyline
 90
3
 70
0
 10
2072.218300
 20
583.930860
 30
0.0
 10
2072.218300
 20
600.485640
 30
0.0
 10
2078.901900
 20
617.430860
 30
0.0
  0
SPLINE
  5
14c
100
AcDbEntity
  8
1
 62
7
100
AcDbSpline
 70
8
 71
3
 72
8
 73
4
 74
0
 40
0
 40
0
 40
0
 40
0
 40
1
 40
1
 40
1
 40
1
 10
2085.188500
 20
647.376070
 30
0.0
 10
2082.088200
 20
647.376070
 30
0.0
 10
2079.551700
 20
647.268870
 30
0.0
 10
2079.551700
 20
647.137840
 30
0.0
  0
SPLINE
  5
14d
100
AcDbEntity
  8
1
 62
7
100
AcDbSpline
 70
8
 71
3
 72
8
 73
4
 74
0
 40
0
 40
0
 40
0
 40
0
 40
1
 40
1
 40
1
 40
1
 10
2079.551700
 20
647.137840
 30
0.0
 10
2079.551700
 20
646.211830
 30
0.0
 10
2069.907900
 20
619.398570
 30
0.0
 10
2069.147200
 20
618.209400
 30
0.0
  0
SPLINE
  5
14e
100
AcDbEntity
  8
1
 62
7
100
AcDbSpline
 70
8
 71
3
 72
8
 73
4
 74
0
 40
0
 40
0
 40
0
 40
0
 40
1
 40
1
 40
1
 40
1
 10
2069.147200
 20
618.209400
 30
0.0
 10
2068.619400
 20
617.384400
 30
0.0
 10
2067.601400
 20
616.709400
 30
0.0
 10
2066.885000
 20
616.709400
 30
0.0
  0
SPLINE
  5
14f
100
AcDbEntity
  8
1
 62
7
100
AcDbSpline
 70
8
 71
3
 72
8
 73
4
 74
0
 40
0
 40
0
 40
0
 40
0
 40
1
 40
1
 40
1
 40
1
 10
2066.885000
 20
616.709400
 30
0.0
 10
2064.951300
 20
616.709400
 30
0.0
 10
2064.147300
 20
618.397420
 30
0.0
 10
2058.866500
 20
633.542740
 30
0.0
  0
LWPOLYLINE
  5
150
100
AcDbEntity
  8
1
 62
7
100
AcDbPolyline
 90
3
 70
0
 10
2089.256100
 20
643.207110
 30
0.0
 10
2090.825200
 20
647.376070
 30
0.0
 10
2085.188500
 20
647.376070
 30
0.0
  0
SPLINE
  5
151
100
AcDbEntity
  8
1
 62
7
100
AcDbSpline
 70
8
 71
3
 72
8
 73
4
 74
0
 40
0
 40
0
 40
0
 40
0
 40
1
 40
1
 40
1
 40
1
 10
2044.158100
 20
644.209400
 30
0.0
 10
2044.847700
 20
642.467740
 30
0.0
 10
2049.043300
 20
631.916000
 30
0.0
 10
2053.481700
 20
620.761100
 30
0.0
  0
LWPOLYLINE
  5
152
100
AcDbEntity
  8
1
 62
7
100
AcDbPolyline
 90
5
 70
0
 10
2058.866500
 20
633.542740
 30
0.0
 10
2054.043200
 20
647.376070
 30
0.0
 10
2048.473800
 20
647.376070
 30
0.0
 10
2042.904500
 20
647.376070
 30
0.0
 10
2044.158100
 20
644.209400
 30
0.0
  0
SPLINE
  5
153
100
AcDbEntity
  8
1
 62
7
100
AcDbSpline
 70
8
 71
3
 72
8
 73
4
 74
0
 40
0
 40
0
 40
0
 40
0
 40
1
 40
1
 40
1
 40
1
 10
1986.662800
 20
565.153850
 30
0.0
 10
1985.831900
 20
565.984720
 30
0.0
 10
1986.215100
 20
567.534360
 30
0.0
 10
1988.551700
 20
572.792160
 30
0.0
  0
SPLINE
  5
154
100
AcDbEntity
  8
1
 62
7
100
AcDbSpline
 70
8
 71
3
 72
8
 73
4
 74
0
 40
0
 40
0
 40
0
 40
0
 40
1
 40
1
 40
1
 40
1
 10
1988.551700
 20
572.792160
 30
0.0
 10
1989.835000
 20
575.679980
 30
0.0
 10
1991.905300
 20
580.367740
 30
0.0
 10
1993.152300
 20
583.209400
 30
0.0
  0
SPLINE
  5
155
100
AcDbEntity
  8
1
 62
7
100
AcDbSpline
 70
8
 71
3
 72
8
 73
4
 74
0
 40
0
 40
0
 40
0
 40
0
 40
1
 40
1
 40
1
 40
1
 10
1993.152300
 20
583.209400
 30
0.0
 10
1994.399200
 20
586.051070
 30
0.0
 10
1997.263200
 20
592.560900
 30
0.0
 10
1999.516600
 20
597.675680
 30
0.0
  0
LWPOLYLINE
  5
156
100
AcDbEntity
  8
1
 62
7
100
AcDbPolyline
 90
7
 70
0
 10
2053.481700
 20
620.761100
 30
0.0
 10
2061.551700
 20
600.479460
 30
0.0
 10
2061.551700
 20
583.927770
 30
0.0
 10
2061.551700
 20
567.376070
 30
0.0
 10
2066.885000
 20
567.376070
 30
0.0
 10
2072.218300
 20
567.376070
 30
0.0
 10
2072.218300
 20
583.930860
 30
0.0
  0
SPLINE
  5
157
100
AcDbEntity
  8
1
 62
7
100
AcDbSpline
 70
8
 71
3
 72
8
 73
4
 74
0
 40
0
 40
0
 40
0
 40
0
 40
1
 40
1
 40
1
 40
1
 10
2000.651700
 20
614.009010
 30
0.0
 10
1999.022600
 20
617.877560
 30
0.0
 10
1995.108700
 20
626.786770
 30
0.0
 10
1991.954000
 20
633.807260
 30
0.0
  0
SPLINE
  5
158
100
AcDbEntity
  8
1
 62
7
100
AcDbSpline
 70
8
 71
3
 72
8
 73
4
 74
0
 40
0
 40
0
 40
0
 40
0
 40
1
 40
1
 40
1
 40
1
 10
1991.954000
 20
633.807260
 30
0.0
 10
1988.799400
 20
640.827750
 30
0.0
 10
1986.218300
 20
647.202750
 30
0.0
 10
1986.218300
 20
647.973930
 30
0.0
  0
SPLINE
  5
159
100
AcDbEntity
  8
1
 62
7
100
AcDbSpline
 70
8
 71
3
 72
8
 73
4
 74
0
 40
0
 40
0
 40
0
 40
0
 40
1
 40
1
 40
1
 40
1
 10
1986.218300
 20
647.973930
 30
0.0
 10
1986.218300
 20
649.308930
 30
0.0
 10
1986.549600
 20
649.376070
 30
0.0
 10
1993.136700
 20
649.376070
 30
0.0
  0
SPLINE
  5
15a
100
AcDbEntity
  8
1
 62
7
100
AcDbSpline
 70
8
 71
3
 72
8
 73
4
 74
0
 40
0
 40
0
 40
0
 40
0
 40
1
 40
1
 40
1
 40
1
 10
1993.136700
 20
649.376070
 30
0.0
 10
1997.895000
 20
649.376070
 30
0.0
 10
2000.249400
 20
649.115880
 30
0.0
 10
2000.677500
 20
648.542740
 30
0.0
  0
SPLINE
  5
15b
100
AcDbEntity
  8
1
 62
7
100
AcDbSpline
 70
8
 71
3
 72
8
 73
4
 74
0
 40
0
 40
0
 40
0
 40
0
 40
1
 40
1
 40
1
 40
1
 10
2000.677500
 20
648.542740
 30
0.0
 10
2001.019900
 20
648.084400
 30
0.0
 10
2002.299100
 20
645.459400
 30
0.0
 10
2003.520200
 20
642.709400
 30
0.0
  0
SPLINE
  5
15c
100
AcDbEntity
  8
1
 62
7
100
AcDbSpline
 70
8
 71
3
 72
8
 73
4
 74
0
 40
0
 40
0
 40
0
 40
0
 40
1
 40
1
 40
1
 40
1
 10
2003.520200
 20
642.709400
 30
0.0
 10
2004.741300
 20
639.959400
 30
0.0
 10
2006.423200
 20
636.209400
 30
0.0
 10
2007.257700
 20
634.376070
 30
0.0
  0
SPLINE
  5
15d
100
AcDbEntity
  8
1
 62
7
100
AcDbSpline
 70
8
 71
3
 72
8
 73
4
 74
0
 40
0
 40
0
 40
0
 40
0
 40
1
 40
1
 40
1
 40
1
 10
2007.257700
 20
634.376070
 30
0.0
 10
2008.092200
 20
632.542740
 30
0.0
 10
2009.249800
 20
629.881030
 30
0.0
 10
2009.830100
 20
628.461160
 30
0.0
  0
SPLINE
  5
15e
100
AcDbEntity
  8
1
 62
7
100
AcDbSpline
 70
8
 71
3
 72
8
 73
4
 74
0
 40
0
 40
0
 40
0
 40
0
 40
1
 40
1
 40
1
 40
1
 10
2009.830100
 20
628.461160
 30
0.0
 10
2011.194700
 20
625.122110
 30
0.0
 10
2012.099400
 20
625.810190
 30
0.0
 10
2014.818600
 20
632.255240
 30
0.0
  0
SPLINE
  5
15f
100
AcDbEntity
  8
1
 62
7
100
AcDbSpline
 70
8
 71
3
 72
8
 73
4
 74
0
 40
0
 40
0
 40
0
 40
0
 40
1
 40
1
 40
1
 40
1
 10
2014.818600
 20
632.255240
 30
0.0
 10
2015.929500
 20
634.888360
 30
0.0
 10
2018.013500
 20
639.742740
 30
0.0
 10
2019.449700
 20
643.042740
 30
0.0
  0
LWPOLYLINE
  5
160
100
AcDbEntity
  8
1
 62
7
100
AcDbPolyline
 90
3
 70
0
 10
1999.516600
 20
597.675680
 30
0.0
 10
2003.613700
 20
606.975290
 30
0.0
 10
2000.651700
 20
614.009010
 30
0.0
  0
SPLINE
  5
161
100
AcDbEntity
  8
1
 62
7
100
AcDbSpline
 70
8
 71
3
 72
8
 73
4
 74
0
 40
0
 40
0
 40
0
 40
0
 40
1
 40
1
 40
1
 40
1
 10
2028.915100
 20
649.233930
 30
0.0
 10
2032.883400
 20
649.344620
 30
0.0
 10
2036.051000
 20
649.143430
 30
0.0
 10
2036.438400
 20
648.756040
 30
0.0
  0
SPLINE
  5
162
100
AcDbEntity
  8
1
 62
7
100
AcDbSpline
 70
8
 71
3
 72
8
 73
4
 74
0
 40
0
 40
0
 40
0
 40
0
 40
1
 40
1
 40
1
 40
1
 10
2036.438400
 20
648.756040
 30
0.0
 10
2037.233200
 20
647.961250
 30
0.0
 10
2037.875900
 20
649.546280
 30
0.0
 10
2024.616900
 20
619.604370
 30
0.0
  0
SPLINE
  5
163
100
AcDbEntity
  8
1
 62
7
100
AcDbSpline
 70
8
 71
3
 72
8
 73
4
 74
0
 40
0
 40
0
 40
0
 40
0
 40
1
 40
1
 40
1
 40
1
 10
2024.616900
 20
619.604370
 30
0.0
 10
2021.831000
 20
613.313260
 30
0.0
 10
2019.551700
 20
607.718760
 30
0.0
 10
2019.551700
 20
607.172130
 30
0.0
  0
SPLINE
  5
164
100
AcDbEntity
  8
1
 62
7
100
AcDbSpline
 70
8
 71
3
 72
8
 73
4
 74
0
 40
0
 40
0
 40
0
 40
0
 40
1
 40
1
 40
1
 40
1
 10
2019.551700
 20
607.172130
 30
0.0
 10
2019.551700
 20
606.625500
 30
0.0
 10
2023.451700
 20
597.382810
 30
0.0
 10
2028.218300
 20
586.632810
 30
0.0
  0
SPLINE
  5
165
100
AcDbEntity
  8
1
 62
7
100
AcDbSpline
 70
8
 71
3
 72
8
 73
4
 74
0
 40
0
 40
0
 40
0
 40
0
 40
1
 40
1
 40
1
 40
1
 10
2028.218300
 20
586.632810
 30
0.0
 10
2032.985000
 20
575.882810
 30
0.0
 10
2036.885000
 20
566.734420
 30
0.0
 10
2036.885000
 20
566.303040
 30
0.0
  0
SPLINE
  5
166
100
AcDbEntity
  8
1
 62
7
100
AcDbSpline
 70
8
 71
3
 72
8
 73
4
 74
0
 40
0
 40
0
 40
0
 40
0
 40
1
 40
1
 40
1
 40
1
 10
2036.885000
 20
566.303040
 30
0.0
 10
2036.885000
 20
565.051940
 30
0.0
 10
2035.171300
 20
564.709400
 30
0.0
 10
2028.912100
 20
564.709400
 30
0.0
  0
SPLINE
  5
167
100
AcDbEntity
  8
1
 62
7
100
AcDbSpline
 70
8
 71
3
 72
8
 73
4
 74
0
 40
0
 40
0
 40
0
 40
0
 40
1
 40
1
 40
1
 40
1
 10
2028.912100
 20
564.709400
 30
0.0
 10
2025.033900
 20
564.709400
 30
0.0
 10
2022.814400
 20
564.991590
 30
0.0
 10
2022.357500
 20
565.542740
 30
0.0
  0
SPLINE
  5
168
100
AcDbEntity
  8
1
 62
7
100
AcDbSpline
 70
8
 71
3
 72
8
 73
4
 74
0
 40
0
 40
0
 40
0
 40
0
 40
1
 40
1
 40
1
 40
1
 10
2022.357500
 20
565.542740
 30
0.0
 10
2021.977600
 20
566.001070
 30
0.0
 10
2019.673600
 20
570.876070
 30
0.0
 10
2017.237600
 20
576.376070
 30
0.0
  0
SPLINE
  5
169
100
AcDbEntity
  8
1
 62
7
100
AcDbSpline
 70
8
 71
3
 72
8
 73
4
 74
0
 40
0
 40
0
 40
0
 40
0
 40
1
 40
1
 40
1
 40
1
 10
2017.237600
 20
576.376070
 30
0.0
 10
2014.801500
 20
581.876070
 30
0.0
 10
2012.390600
 20
586.800440
 30
0.0
 10
2011.879900
 20
587.319100
 30
0.0
  0
SPLINE
  5
16a
100
AcDbEntity
  8
1
 62
7
100
AcDbSpline
 70
8
 71
3
 72
8
 73
4
 74
0
 40
0
 40
0
 40
0
 40
0
 40
1
 40
1
 40
1
 40
1
 10
2011.879900
 20
587.319100
 30
0.0
 10
2011.083200
 20
588.128150
 30
0.0
 10
2010.607000
 20
587.512480
 30
0.0
 10
2008.527700
 20
582.985770
 30
0.0
  0
SPLINE
  5
16b
100
AcDbEntity
  8
1
 62
7
100
AcDbSpline
 70
8
 71
3
 72
8
 73
4
 74
0
 40
0
 40
0
 40
0
 40
0
 40
1
 40
1
 40
1
 40
1
 10
2008.527700
 20
582.985770
 30
0.0
 10
2007.194700
 20
580.083770
 30
0.0
 10
2005.528300
 20
576.269580
 30
0.0
 10
2004.824600
 20
574.509800
 30
0.0
  0
SPLINE
  5
16c
100
AcDbEntity
  8
1
 62
7
100
AcDbSpline
 70
8
 71
3
 72
8
 73
4
 74
0
 40
0
 40
0
 40
0
 40
0
 40
1
 40
1
 40
1
 40
1
 10
2004.824600
 20
574.509800
 30
0.0
 10
2002.992100
 20
569.927030
 30
0.0
 10
2000.825900
 20
565.788450
 30
0.0
 10
1999.962100
 20
565.219610
 30
0.0
  0
SPLINE
  5
16d
100
AcDbEntity
  8
1
 62
7
100
AcDbSpline
 70
8
 71
3
 72
8
 73
4
 74
0
 40
0
 40
0
 40
0
 40
0
 40
1
 40
1
 40
1
 40
1
 10
1999.962100
 20
565.219610
 30
0.0
 10
1999.032000
 20
564.607140
 30
0.0
 10
1987.267700
 20
564.548970
 30
0.0
 10
1986.662800
 20
565.153810
 30
0.0
  0
LWPOLYLINE
  5
16e
100
AcDbEntity
  8
1
 62
7
100
AcDbPolyline
 90
3
 70
0
 10
2019.449700
 20
643.042740
 30
0.0
 10
2022.060900
 20
649.042740
 30
0.0
 10
2028.915100
 20
649.233930
 30
0.0
  0
SPLINE
  5
16f
100
AcDbEntity
  8
1
 62
7
100
AcDbSpline
 70
8
 71
3
 72
8
 73
4
 74
0
 40
0
 40
0
 40
0
 40
0
 40
1
 40
1
 40
1
 40
1
 10
2002.540600
 20
574.876070
 30
0.0
 10
2008.294000
 20
588.215140
 30
0.0
 10
2008.918800
 20
589.359150
 30
0.0
 10
2010.694100
 20
589.804720
 30
0.0
  0
SPLINE
  5
170
100
AcDbEntity
  8
1
 62
7
100
AcDbSpline
 70
8
 71
3
 72
8
 73
4
 74
0
 40
0
 40
0
 40
0
 40
0
 40
1
 40
1
 40
1
 40
1
 10
2010.694100
 20
589.804720
 30
0.0
 10
2012.888700
 20
590.355530
 30
0.0
 10
2014.113100
 20
588.942110
 30
0.0
 10
2016.840400
 20
582.709400
 30
0.0
  0
SPLINE
  5
171
100
AcDbEntity
  8
1
 62
7
100
AcDbSpline
 70
8
 71
3
 72
8
 73
4
 74
0
 40
0
 40
0
 40
0
 40
0
 40
1
 40
1
 40
1
 40
1
 10
2016.840400
 20
582.709400
 30
0.0
 10
2018.043800
 20
579.959400
 30
0.0
 10
2020.093400
 20
575.384400
 30
0.0
 10
2021.395200
 20
572.542740
 30
0.0
  0
LWPOLYLINE
  5
172
100
AcDbEntity
  8
1
 62
7
100
AcDbPolyline
 90
1
 70
1
 10
1986.662800
 20
565.153810
 30
0.0
  0
SPLINE
  5
173
100
AcDbEntity
  8
1
 62
7
100
AcDbSpline
 70
8
 71
3
 72
8
 73
4
 74
0
 40
0
 40
0
 40
0
 40
0
 40
1
 40
1
 40
1
 40
1
 10
2029.061500
 20
567.376070
 30
0.0
 10
2033.045600
 20
567.376070
 30
0.0
 10
2034.273000
 20
567.582910
 30
0.0
 10
2034.006600
 20
568.209400
 30
0.0
  0
SPLINE
  5
174
100
AcDbEntity
  8
1
 62
7
100
AcDbSpline
 70
8
 71
3
 72
8
 73
4
 74
0
 40
0
 40
0
 40
0
 40
0
 40
1
 40
1
 40
1
 40
1
 10
2034.006600
 20
568.209400
 30
0.0
 10
2033.811700
 20
568.667740
 30
0.0
 10
2032.102200
 20
572.492740
 30
0.0
 10
2030.207700
 20
576.709400
 30
0.0
  0
SPLINE
  5
175
100
AcDbEntity
  8
1
 62
7
100
AcDbSpline
 70
8
 71
3
 72
8
 73
4
 74
0
 40
0
 40
0
 40
0
 40
0
 40
1
 40
1
 40
1
 40
1
 10
2030.207700
 20
576.709400
 30
0.0
 10
2028.313200
 20
580.926070
 30
0.0
 10
2025.919200
 20
586.326070
 30
0.0
 10
2024.887700
 20
588.709400
 30
0.0
  0
SPLINE
  5
176
100
AcDbEntity
  8
1
 62
7
100
AcDbSpline
 70
8
 71
3
 72
8
 73
4
 74
0
 40
0
 40
0
 40
0
 40
0
 40
1
 40
1
 40
1
 40
1
 10
2024.887700
 20
588.709400
 30
0.0
 10
2023.856100
 20
591.092740
 30
0.0
 10
2021.783500
 20
595.871550
 30
0.0
 10
2020.281900
 20
599.328990
 30
0.0
  0
SPLINE
  5
177
100
AcDbEntity
  8
1
 62
7
100
AcDbSpline
 70
8
 71
3
 72
8
 73
4
 74
0
 40
0
 40
0
 40
0
 40
0
 40
1
 40
1
 40
1
 40
1
 10
2020.281900
 20
599.328990
 30
0.0
 10
2018.780300
 20
602.786430
 30
0.0
 10
2017.551700
 20
606.280010
 30
0.0
 10
2017.551700
 20
607.092510
 30
0.0
  0
SPLINE
  5
178
100
AcDbEntity
  8
1
 62
7
100
AcDbSpline
 70
8
 71
3
 72
8
 73
4
 74
0
 40
0
 40
0
 40
0
 40
0
 40
1
 40
1
 40
1
 40
1
 10
2017.551700
 20
607.092510
 30
0.0
 10
2017.551700
 20
607.905020
 30
0.0
 10
2018.484400
 20
610.776200
 30
0.0
 10
2019.624300
 20
613.472930
 30
0.0
  0
SPLINE
  5
179
100
AcDbEntity
  8
1
 62
7
100
AcDbSpline
 70
8
 71
3
 72
8
 73
4
 74
0
 40
0
 40
0
 40
0
 40
0
 40
1
 40
1
 40
1
 40
1
 10
2019.624300
 20
613.472930
 30
0.0
 10
2021.696000
 20
618.373630
 30
0.0
 10
2030.553200
 20
638.558470
 30
0.0
 10
2032.949400
 20
643.839490
 30
0.0
  0
SPLINE
  5
17a
100
AcDbEntity
  8
1
 62
7
100
AcDbSpline
 70
8
 71
3
 72
8
 73
4
 74
0
 40
0
 40
0
 40
0
 40
0
 40
1
 40
1
 40
1
 40
1
 10
2032.949400
 20
643.839490
 30
0.0
 10
2033.647300
 20
645.377710
 30
0.0
 10
2034.218300
 20
646.802710
 30
0.0
 10
2034.218300
 20
647.006160
 30
0.0
  0
SPLINE
  5
17b
100
AcDbEntity
  8
1
 62
7
100
AcDbSpline
 70
8
 71
3
 72
8
 73
4
 74
0
 40
0
 40
0
 40
0
 40
0
 40
1
 40
1
 40
1
 40
1
 10
2034.218300
 20
647.006160
 30
0.0
 10
2034.218300
 20
647.801460
 30
0.0
 10
2024.373500
 20
647.365250
 30
0.0
 10
2023.759200
 20
646.542740
 30
0.0
  0
SPLINE
  5
17c
100
AcDbEntity
  8
1
 62
7
100
AcDbSpline
 70
8
 71
3
 72
8
 73
4
 74
0
 40
0
 40
0
 40
0
 40
0
 40
1
 40
1
 40
1
 40
1
 10
2023.759200
 20
646.542740
 30
0.0
 10
2023.416800
 20
646.084400
 30
0.0
 10
2022.147800
 20
643.459400
 30
0.0
 10
2020.939200
 20
640.709400
 30
0.0
  0
SPLINE
  5
17d
100
AcDbEntity
  8
1
 62
7
100
AcDbSpline
 70
8
 71
3
 72
8
 73
4
 74
0
 40
0
 40
0
 40
0
 40
0
 40
1
 40
1
 40
1
 40
1
 10
2020.939200
 20
640.709400
 30
0.0
 10
2013.629000
 20
624.076940
 30
0.0
 10
2012.885900
 20
623.015160
 30
0.0
 10
2009.917000
 20
624.960440
 30
0.0
  0
SPLINE
  5
17e
100
AcDbEntity
  8
1
 62
7
100
AcDbSpline
 70
8
 71
3
 72
8
 73
4
 74
0
 40
0
 40
0
 40
0
 40
0
 40
1
 40
1
 40
1
 40
1
 10
2009.917000
 20
624.960440
 30
0.0
 10
2009.046200
 20
625.531060
 30
0.0
 10
2007.483900
 20
628.097400
 30
0.0
 10
2006.337200
 20
630.841150
 30
0.0
  0
SPLINE
  5
17f
100
AcDbEntity
  8
1
 62
7
100
AcDbSpline
 70
8
 71
3
 72
8
 73
4
 74
0
 40
0
 40
0
 40
0
 40
0
 40
1
 40
1
 40
1
 40
1
 10
2006.337200
 20
630.841150
 30
0.0
 10
2005.218200
 20
633.518690
 30
0.0
 10
2003.086200
 20
638.334400
 30
0.0
 10
2001.599400
 20
641.542740
 30
0.0
  0
LWPOLYLINE
  5
180
100
AcDbEntity
  8
1
 62
7
100
AcDbPolyline
 90
3
 70
0
 10
2021.395200
 20
572.542740
 30
0.0
 10
2023.761900
 20
567.376070
 30
0.0
 10
2029.061500
 20
567.376070
 30
0.0
  0
SPLINE
  5
181
100
AcDbEntity
  8
1
 62
7
100
AcDbSpline
 70
8
 71
3
 72
8
 73
4
 74
0
 40
0
 40
0
 40
0
 40
0
 40
1
 40
1
 40
1
 40
1
 10
1990.323300
 20
642.876070
 30
0.0
 10
1991.450400
 20
640.401070
 30
0.0
 10
1993.210400
 20
636.426070
 30
0.0
 10
1994.234500
 20
634.042740
 30
0.0
  0
SPLINE
  5
182
100
AcDbEntity
  8
1
 62
7
100
AcDbSpline
 70
8
 71
3
 72
8
 73
4
 74
0
 40
0
 40
0
 40
0
 40
0
 40
1
 40
1
 40
1
 40
1
 10
1994.234500
 20
634.042740
 30
0.0
 10
1995.258600
 20
631.659400
 30
0.0
 10
1997.644400
 20
626.259400
 30
0.0
 10
1999.536200
 20
622.042740
 30
0.0
  0
SPLINE
  5
183
100
AcDbEntity
  8
1
 62
7
100
AcDbSpline
 70
8
 71
3
 72
8
 73
4
 74
0
 40
0
 40
0
 40
0
 40
0
 40
1
 40
1
 40
1
 40
1
 10
1999.536200
 20
622.042740
 30
0.0
 10
2006.631800
 20
606.226990
 30
0.0
 10
2006.488000
 20
607.741960
 30
0.0
 10
2001.874200
 20
597.421450
 30
0.0
  0
SPLINE
  5
184
100
AcDbEntity
  8
1
 62
7
100
AcDbSpline
 70
8
 71
3
 72
8
 73
4
 74
0
 40
0
 40
0
 40
0
 40
0
 40
1
 40
1
 40
1
 40
1
 10
2001.874200
 20
597.421450
 30
0.0
 10
1994.111300
 20
580.056730
 30
0.0
 10
1988.885000
 20
568.126730
 30
0.0
 10
1988.885000
 20
567.771030
 30
0.0
  0
SPLINE
  5
185
100
AcDbEntity
  8
1
 62
7
100
AcDbSpline
 70
8
 71
3
 72
8
 73
4
 74
0
 40
0
 40
0
 40
0
 40
0
 40
1
 40
1
 40
1
 40
1
 10
1988.885000
 20
567.771030
 30
0.0
 10
1988.885000
 20
567.553800
 30
0.0
 10
1991.229700
 20
567.376070
 30
0.0
 10
1994.095400
 20
567.376070
 30
0.0
  0
LWPOLYLINE
  5
186
100
AcDbEntity
  8
1
 62
7
100
AcDbPolyline
 90
5
 70
0
 10
2001.599400
 20
641.542740
 30
0.0
 10
1998.896200
 20
647.376070
 30
0.0
 10
1993.585100
 20
647.376070
 30
0.0
 10
1988.274100
 20
647.376070
 30
0.0
 10
1990.323300
 20
642.876070
 30
0.0
  0
SPLINE
  5
187
100
AcDbEntity
  8
1
 62
7
100
AcDbSpline
 70
8
 71
3
 72
8
 73
4
 74
0
 40
0
 40
0
 40
0
 40
0
 40
1
 40
1
 40
1
 40
1
 10
1931.118500
 20
565.537610
 30
0.0
 10
1930.837000
 20
565.993130
 30
0.0
 10
1930.245100
 20
572.218130
 30
0.0
 10
1929.803300
 20
579.370950
 30
0.0
  0
SPLINE
  5
188
100
AcDbEntity
  8
1
 62
7
100
AcDbSpline
 70
8
 71
3
 72
8
 73
4
 74
0
 40
0
 40
0
 40
0
 40
0
 40
1
 40
1
 40
1
 40
1
 10
1929.803300
 20
579.370950
 30
0.0
 10
1929.361400
 20
586.523770
 30
0.0
 10
1928.687800
 20
597.026070
 30
0.0
 10
1928.306300
 20
602.709400
 30
0.0
  0
SPLINE
  5
189
100
AcDbEntity
  8
1
 62
7
100
AcDbSpline
 70
8
 71
3
 72
8
 73
4
 74
0
 40
0
 40
0
 40
0
 40
0
 40
1
 40
1
 40
1
 40
1
 10
1928.306300
 20
602.709400
 30
0.0
 10
1927.924800
 20
608.392740
 30
0.0
 10
1927.436300
 20
616.342740
 30
0.0
 10
1927.220600
 20
620.376070
 30
0.0
  0
SPLINE
  5
18a
100
AcDbEntity
  8
1
 62
7
100
AcDbSpline
 70
8
 71
3
 72
8
 73
4
 74
0
 40
0
 40
0
 40
0
 40
0
 40
1
 40
1
 40
1
 40
1
 10
1927.220600
 20
620.376070
 30
0.0
 10
1927.005000
 20
624.409400
 30
0.0
 10
1926.555300
 20
632.335730
 30
0.0
 10
1926.221300
 20
637.990130
 30
0.0
  0
SPLINE
  5
18b
100
AcDbEntity
  8
1
 62
7
100
AcDbSpline
 70
8
 71
3
 72
8
 73
4
 74
0
 40
0
 40
0
 40
0
 40
0
 40
1
 40
1
 40
1
 40
1
 10
1926.221300
 20
637.990130
 30
0.0
 10
1925.887200
 20
643.644530
 30
0.0
 10
1925.767600
 20
648.519530
 30
0.0
 10
1925.955500
 20
648.823460
 30
0.0
  0
SPLINE
  5
18c
100
AcDbEntity
  8
1
 62
7
100
AcDbSpline
 70
8
 71
3
 72
8
 73
4
 74
0
 40
0
 40
0
 40
0
 40
0
 40
1
 40
1
 40
1
 40
1
 10
1925.955500
 20
648.823460
 30
0.0
 10
1926.439700
 20
649.606870
 30
0.0
 10
1939.388400
 20
649.512930
 30
0.0
 10
1939.876900
 20
648.722470
 30
0.0
  0
SPLINE
  5
18d
100
AcDbEntity
  8
1
 62
7
100
AcDbSpline
 70
8
 71
3
 72
8
 73
4
 74
0
 40
0
 40
0
 40
0
 40
0
 40
1
 40
1
 40
1
 40
1
 10
1939.876900
 20
648.722470
 30
0.0
 10
1940.099100
 20
648.362980
 30
0.0
 10
1940.700100
 20
635.729730
 30
0.0
 10
1941.212400
 20
620.648570
 30
0.0
  0
SPLINE
  5
18e
100
AcDbEntity
  8
1
 62
7
100
AcDbSpline
 70
8
 71
3
 72
8
 73
4
 74
0
 40
0
 40
0
 40
0
 40
0
 40
1
 40
1
 40
1
 40
1
 10
1941.212400
 20
620.648570
 30
0.0
 10
1941.724700
 20
605.567420
 30
0.0
 10
1942.246500
 20
593.125720
 30
0.0
 10
1942.371800
 20
593.000350
 30
0.0
  0
SPLINE
  5
18f
100
AcDbEntity
  8
1
 62
7
100
AcDbSpline
 70
8
 71
3
 72
8
 73
4
 74
0
 40
0
 40
0
 40
0
 40
0
 40
1
 40
1
 40
1
 40
1
 10
1942.371800
 20
593.000350
 30
0.0
 10
1942.497200
 20
592.874980
 30
0.0
 10
1943.257400
 20
594.483230
 30
0.0
 10
1944.061200
 20
596.574240
 30
0.0
  0
SPLINE
  5
190
100
AcDbEntity
  8
1
 62
7
100
AcDbSpline
 70
8
 71
3
 72
8
 73
4
 74
0
 40
0
 40
0
 40
0
 40
0
 40
1
 40
1
 40
1
 40
1
 10
1944.061200
 20
596.574240
 30
0.0
 10
1944.865000
 20
598.665250
 30
0.0
 10
1946.504100
 20
602.922810
 30
0.0
 10
1947.703800
 20
606.035480
 30
0.0
  0
SPLINE
  5
191
100
AcDbEntity
  8
1
 62
7
100
AcDbSpline
 70
8
 71
3
 72
8
 73
4
 74
0
 40
0
 40
0
 40
0
 40
0
 40
1
 40
1
 40
1
 40
1
 10
1947.703800
 20
606.035480
 30
0.0
 10
1949.031400
 20
609.480000
 30
0.0
 10
1950.302000
 20
611.774470
 30
0.0
 10
1950.950500
 20
611.898220
 30
0.0
  0
SPLINE
  5
192
100
AcDbEntity
  8
1
 62
7
100
AcDbSpline
 70
8
 71
3
 72
8
 73
4
 74
0
 40
0
 40
0
 40
0
 40
0
 40
1
 40
1
 40
1
 40
1
 10
1950.950500
 20
611.898220
 30
0.0
 10
1951.759900
 20
612.052670
 30
0.0
 10
1952.880100
 20
609.851330
 30
0.0
 10
1955.611300
 20
602.738810
 30
0.0
  0
SPLINE
  5
193
100
AcDbEntity
  8
1
 62
7
100
AcDbSpline
 70
8
 71
3
 72
8
 73
4
 74
0
 40
0
 40
0
 40
0
 40
0
 40
1
 40
1
 40
1
 40
1
 10
1955.611300
 20
602.738810
 30
0.0
 10
1957.588800
 20
597.589300
 30
0.0
 10
1959.376800
 20
593.376070
 30
0.0
 10
1959.584800
 20
593.376070
 30
0.0
  0
SPLINE
  5
194
100
AcDbEntity
  8
1
 62
7
100
AcDbSpline
 70
8
 71
3
 72
8
 73
4
 74
0
 40
0
 40
0
 40
0
 40
0
 40
1
 40
1
 40
1
 40
1
 10
1959.584800
 20
593.376070
 30
0.0
 10
1959.792800
 20
593.376070
 30
0.0
 10
1960.339700
 20
605.735910
 30
0.0
 10
1960.800100
 20
620.842390
 30
0.0
  0
SPLINE
  5
195
100
AcDbEntity
  8
1
 62
7
100
AcDbSpline
 70
8
 71
3
 72
8
 73
4
 74
0
 40
0
 40
0
 40
0
 40
0
 40
1
 40
1
 40
1
 40
1
 10
1960.800100
 20
620.842390
 30
0.0
 10
1961.260600
 20
635.948860
 30
0.0
 10
1961.785800
 20
648.548860
 30
0.0
 10
1961.967200
 20
648.842390
 30
0.0
  0
SPLINE
  5
196
100
AcDbEntity
  8
1
 62
7
100
AcDbSpline
 70
8
 71
3
 72
8
 73
4
 74
0
 40
0
 40
0
 40
0
 40
0
 40
1
 40
1
 40
1
 40
1
 10
1961.967200
 20
648.842390
 30
0.0
 10
1962.148600
 20
649.135910
 30
0.0
 10
1965.429300
 20
649.376070
 30
0.0
 10
1969.257700
 20
649.376070
 30
0.0
  0
LWPOLYLINE
  5
197
100
AcDbEntity
  8
1
 62
7
100
AcDbPolyline
 90
3
 70
0
 10
1994.095400
 20
567.376070
 30
0.0
 10
1999.305800
 20
567.376070
 30
0.0
 10
2002.540600
 20
574.876070
 30
0.0
  0
SPLINE
  5
198
100
AcDbEntity
  8
1
 62
7
100
AcDbSpline
 70
8
 71
3
 72
8
 73
4
 74
0
 40
0
 40
0
 40
0
 40
0
 40
1
 40
1
 40
1
 40
1
 10
1976.208300
 20
647.542740
 30
0.0
 10
1976.198300
 20
644.741150
 30
0.0
 10
1973.706500
 20
601.808410
 30
0.0
 10
1972.461800
 20
583.042740
 30
0.0
  0
SPLINE
  5
199
100
AcDbEntity
  8
1
 62
7
100
AcDbSpline
 70
8
 71
3
 72
8
 73
4
 74
0
 40
0
 40
0
 40
0
 40
0
 40
1
 40
1
 40
1
 40
1
 10
1972.461800
 20
583.042740
 30
0.0
 10
1971.853800
 20
573.876070
 30
0.0
 10
1971.062500
 20
566.001070
 30
0.0
 10
1970.703300
 20
565.542740
 30
0.0
  0
SPLINE
  5
19a
100
AcDbEntity
  8
1
 62
7
100
AcDbSpline
 70
8
 71
3
 72
8
 73
4
 74
0
 40
0
 40
0
 40
0
 40
0
 40
1
 40
1
 40
1
 40
1
 10
1970.703300
 20
565.542740
 30
0.0
 10
1970.288900
 20
565.013960
 30
0.0
 10
1968.299300
 20
564.709400
 30
0.0
 10
1965.259300
 20
564.709400
 30
0.0
  0
SPLINE
  5
19b
100
AcDbEntity
  8
1
 62
7
100
AcDbSpline
 70
8
 71
3
 72
8
 73
4
 74
0
 40
0
 40
0
 40
0
 40
0
 40
1
 40
1
 40
1
 40
1
 10
1965.259300
 20
564.709400
 30
0.0
 10
1962.439300
 20
564.709400
 30
0.0
 10
1960.030100
 20
565.052220
 30
0.0
 10
1959.402900
 20
565.542740
 30
0.0
  0
SPLINE
  5
19c
100
AcDbEntity
  8
1
 62
7
100
AcDbSpline
 70
8
 71
3
 72
8
 73
4
 74
0
 40
0
 40
0
 40
0
 40
0
 40
1
 40
1
 40
1
 40
1
 10
1959.402900
 20
565.542740
 30
0.0
 10
1958.816900
 20
566.001070
 30
0.0
 10
1957.590700
 20
568.476070
 30
0.0
 10
1956.678100
 20
571.042740
 30
0.0
  0
SPLINE
  5
19d
100
AcDbEntity
  8
1
 62
7
100
AcDbSpline
 70
8
 71
3
 72
8
 73
4
 74
0
 40
0
 40
0
 40
0
 40
0
 40
1
 40
1
 40
1
 40
1
 10
1956.678100
 20
571.042740
 30
0.0
 10
1952.828500
 20
581.868990
 30
0.0
 10
1951.406500
 20
584.858330
 30
0.0
 10
1950.548700
 20
583.927460
 30
0.0
  0
SPLINE
  5
19e
100
AcDbEntity
  8
1
 62
7
100
AcDbSpline
 70
8
 71
3
 72
8
 73
4
 74
0
 40
0
 40
0
 40
0
 40
0
 40
1
 40
1
 40
1
 40
1
 10
1950.548700
 20
583.927460
 30
0.0
 10
1950.100400
 20
583.440860
 30
0.0
 10
1948.466500
 20
579.592740
 30
0.0
 10
1946.918000
 20
575.376070
 30
0.0
  0
SPLINE
  5
19f
100
AcDbEntity
  8
1
 62
7
100
AcDbSpline
 70
8
 71
3
 72
8
 73
4
 74
0
 40
0
 40
0
 40
0
 40
0
 40
1
 40
1
 40
1
 40
1
 10
1946.918000
 20
575.376070
 30
0.0
 10
1942.857400
 20
564.318900
 30
0.0
 10
1943.224000
 20
564.709400
 30
0.0
 10
1936.904200
 20
564.709400
 30
0.0
  0
SPLINE
  5
1a0
100
AcDbEntity
  8
1
 62
7
100
AcDbSpline
 70
8
 71
3
 72
8
 73
4
 74
0
 40
0
 40
0
 40
0
 40
0
 40
1
 40
1
 40
1
 40
1
 10
1936.904200
 20
564.709400
 30
0.0
 10
1933.417800
 20
564.709400
 30
0.0
 10
1931.451800
 20
564.990610
 30
0.0
 10
1931.113700
 20
565.537610
 30
0.0
  0
LWPOLYLINE
  5
1a1
100
AcDbEntity
  8
1
 62
7
100
AcDbPolyline
 90
3
 70
0
 10
1969.257700
 20
649.376070
 30
0.0
 10
1976.218300
 20
649.376070
 30
0.0
 10
1976.208300
 20
647.542740
 30
0.0
  0
SPLINE
  5
1a2
100
AcDbEntity
  8
1
 62
7
100
AcDbSpline
 70
8
 71
3
 72
8
 73
4
 74
0
 40
0
 40
0
 40
0
 40
0
 40
1
 40
1
 40
1
 40
1
 10
1944.190200
 20
574.542740
 30
0.0
 10
1948.564500
 20
585.985610
 30
0.0
 10
1948.597300
 20
586.042740
 30
0.0
 10
1950.792600
 20
586.042740
 30
0.0
  0
SPLINE
  5
1a3
100
AcDbEntity
  8
1
 62
7
100
AcDbSpline
 70
8
 71
3
 72
8
 73
4
 74
0
 40
0
 40
0
 40
0
 40
0
 40
1
 40
1
 40
1
 40
1
 10
1950.792600
 20
586.042740
 30
0.0
 10
1951.853600
 20
586.042740
 30
0.0
 10
1953.030500
 20
585.667740
 30
0.0
 10
1953.407800
 20
585.209400
 30
0.0
  0
SPLINE
  5
1a4
100
AcDbEntity
  8
1
 62
7
100
AcDbSpline
 70
8
 71
3
 72
8
 73
4
 74
0
 40
0
 40
0
 40
0
 40
0
 40
1
 40
1
 40
1
 40
1
 10
1953.407800
 20
585.209400
 30
0.0
 10
1953.785100
 20
584.751070
 30
0.0
 10
1955.514800
 20
580.551070
 30
0.0
 10
1957.251600
 20
575.876070
 30
0.0
  0
LWPOLYLINE
  5
1a5
100
AcDbEntity
  8
1
 62
7
100
AcDbPolyline
 90
2
 70
0
 10
1931.113700
 20
565.537610
 30
0.0
 10
1931.118500
 20
565.537610
 30
0.0
  0
SPLINE
  5
1a6
100
AcDbEntity
  8
1
 62
7
100
AcDbSpline
 70
8
 71
3
 72
8
 73
4
 74
0
 40
0
 40
0
 40
0
 40
0
 40
1
 40
1
 40
1
 40
1
 10
1969.825300
 20
572.209400
 30
0.0
 10
1970.038400
 20
574.867740
 30
0.0
 10
1970.820300
 20
588.592740
 30
0.0
 10
1971.562900
 20
602.709400
 30
0.0
  0
SPLINE
  5
1a7
100
AcDbEntity
  8
1
 62
7
100
AcDbSpline
 70
8
 71
3
 72
8
 73
4
 74
0
 40
0
 40
0
 40
0
 40
0
 40
1
 40
1
 40
1
 40
1
 10
1971.562900
 20
602.709400
 30
0.0
 10
1972.305600
 20
616.826070
 30
0.0
 10
1973.205800
 20
631.676070
 30
0.0
 10
1973.563500
 20
635.709400
 30
0.0
  0
SPLINE
  5
1a8
100
AcDbEntity
  8
1
 62
7
100
AcDbSpline
 70
8
 71
3
 72
8
 73
4
 74
0
 40
0
 40
0
 40
0
 40
0
 40
1
 40
1
 40
1
 40
1
 10
1973.563500
 20
635.709400
 30
0.0
 10
1973.921100
 20
639.742740
 30
0.0
 10
1974.214800
 20
644.030360
 30
0.0
 10
1974.216100
 20
645.237450
 30
0.0
  0
LWPOLYLINE
  5
1a9
100
AcDbEntity
  8
1
 62
7
100
AcDbPolyline
 90
5
 70
0
 10
1957.251600
 20
575.876070
 30
0.0
 10
1960.409300
 20
567.376070
 30
0.0
 10
1964.923600
 20
567.376070
 30
0.0
 10
1969.437900
 20
567.376070
 30
0.0
 10
1969.825300
 20
572.209400
 30
0.0
  0
SPLINE
  5
1aa
100
AcDbEntity
  8
1
 62
7
100
AcDbSpline
 70
8
 71
3
 72
8
 73
4
 74
0
 40
0
 40
0
 40
0
 40
0
 40
1
 40
1
 40
1
 40
1
 10
1963.432900
 20
634.376070
 30
0.0
 10
1962.581400
 20
610.400460
 30
0.0
 10
1961.469000
 20
591.041580
 30
0.0
 10
1960.910200
 20
590.476510
 30
0.0
  0
SPLINE
  5
1ab
100
AcDbEntity
  8
1
 62
7
100
AcDbSpline
 70
8
 71
3
 72
8
 73
4
 74
0
 40
0
 40
0
 40
0
 40
0
 40
1
 40
1
 40
1
 40
1
 10
1960.910200
 20
590.476510
 30
0.0
 10
1959.782500
 20
589.336060
 30
0.0
 10
1957.624200
 20
590.796430
 30
0.0
 10
1956.824100
 20
593.241260
 30
0.0
  0
SPLINE
  5
1ac
100
AcDbEntity
  8
1
 62
7
100
AcDbSpline
 70
8
 71
3
 72
8
 73
4
 74
0
 40
0
 40
0
 40
0
 40
0
 40
1
 40
1
 40
1
 40
1
 10
1956.824100
 20
593.241260
 30
0.0
 10
1956.379900
 20
594.598740
 30
0.0
 10
1954.876800
 20
598.549270
 30
0.0
 10
1953.484000
 20
602.020210
 30
0.0
  0
SPLINE
  5
1ad
100
AcDbEntity
  8
1
 62
7
100
AcDbSpline
 70
8
 71
3
 72
8
 73
4
 74
0
 40
0
 40
0
 40
0
 40
0
 40
1
 40
1
 40
1
 40
1
 10
1953.484000
 20
602.020210
 30
0.0
 10
1951.537900
 20
606.869760
 30
0.0
 10
1950.842300
 20
608.027490
 30
0.0
 10
1950.479600
 20
607.020200
 30
0.0
  0
SPLINE
  5
1ae
100
AcDbEntity
  8
1
 62
7
100
AcDbSpline
 70
8
 71
3
 72
8
 73
4
 74
0
 40
0
 40
0
 40
0
 40
0
 40
1
 40
1
 40
1
 40
1
 10
1950.479600
 20
607.020200
 30
0.0
 10
1950.220100
 20
606.299260
 30
0.0
 10
1948.894300
 20
602.859400
 30
0.0
 10
1947.533400
 20
599.376070
 30
0.0
  0
SPLINE
  5
1af
100
AcDbEntity
  8
1
 62
7
100
AcDbSpline
 70
8
 71
3
 72
8
 73
4
 74
0
 40
0
 40
0
 40
0
 40
0
 40
1
 40
1
 40
1
 40
1
 10
1947.533400
 20
599.376070
 30
0.0
 10
1946.172600
 20
595.892740
 30
0.0
 10
1944.876300
 20
592.510930
 30
0.0
 10
1944.652800
 20
591.860950
 30
0.0
  0
SPLINE
  5
1b0
100
AcDbEntity
  8
1
 62
7
100
AcDbSpline
 70
8
 71
3
 72
8
 73
4
 74
0
 40
0
 40
0
 40
0
 40
0
 40
1
 40
1
 40
1
 40
1
 10
1944.652800
 20
591.860950
 30
0.0
 10
1944.429300
 20
591.210970
 30
0.0
 10
1943.766300
 20
590.494940
 30
0.0
 10
1943.179600
 20
590.269790
 30
0.0
  0
SPLINE
  5
1b1
100
AcDbEntity
  8
1
 62
7
100
AcDbSpline
 70
8
 71
3
 72
8
 73
4
 74
0
 40
0
 40
0
 40
0
 40
0
 40
1
 40
1
 40
1
 40
1
 10
1943.179600
 20
590.269790
 30
0.0
 10
1940.725200
 20
589.327980
 30
0.0
 10
1940.410300
 20
591.165940
 30
0.0
 10
1939.619600
 20
611.042740
 30
0.0
  0
SPLINE
  5
1b2
100
AcDbEntity
  8
1
 62
7
100
AcDbSpline
 70
8
 71
3
 72
8
 73
4
 74
0
 40
0
 40
0
 40
0
 40
0
 40
1
 40
1
 40
1
 40
1
 10
1939.619600
 20
611.042740
 30
0.0
 10
1939.196600
 20
621.676070
 30
0.0
 10
1938.662300
 20
634.212870
 30
0.0
 10
1938.432200
 20
638.902290
 30
0.0
  0
LWPOLYLINE
  5
1b3
100
AcDbEntity
  8
1
 62
7
100
AcDbPolyline
 90
5
 70
0
 10
1974.216100
 20
645.237450
 30
0.0
 10
1974.216100
 20
647.432160
 30
0.0
 10
1969.049500
 20
647.237450
 30
0.0
 10
1963.882800
 20
647.042740
 30
0.0
 10
1963.432900
 20
634.376070
 30
0.0
  0
SPLINE
  5
1b4
100
AcDbEntity
  8
1
 62
7
100
AcDbSpline
 70
8
 71
3
 72
8
 73
4
 74
0
 40
0
 40
0
 40
0
 40
0
 40
1
 40
1
 40
1
 40
1
 10
1928.046200
 20
645.042740
 30
0.0
 10
1928.332400
 20
641.539140
 30
0.0
 10
1932.216100
 20
570.736490
 30
0.0
 10
1932.216100
 20
569.021630
 30
0.0
  0
SPLINE
  5
1b5
100
AcDbEntity
  8
1
 62
7
100
AcDbSpline
 70
8
 71
3
 72
8
 73
4
 74
0
 40
0
 40
0
 40
0
 40
0
 40
1
 40
1
 40
1
 40
1
 10
1932.216100
 20
569.021630
 30
0.0
 10
1932.216100
 20
567.430430
 30
0.0
 10
1932.368600
 20
567.376070
 30
0.0
 10
1936.832200
 20
567.376070
 30
0.0
  0
LWPOLYLINE
  5
1b6
100
AcDbEntity
  8
1
 62
7
100
AcDbPolyline
 90
5
 70
0
 10
1938.432200
 20
638.902290
 30
0.0
 10
1938.014000
 20
647.428520
 30
0.0
 10
1932.948400
 20
647.235630
 30
0.0
 10
1927.882800
 20
647.042740
 30
0.0
 10
1928.046200
 20
645.042740
 30
0.0
  0
SPLINE
  5
1b7
100
AcDbEntity
  8
1
 62
7
100
AcDbSpline
 70
8
 71
3
 72
8
 73
4
 74
0
 40
0
 40
0
 40
0
 40
0
 40
1
 40
1
 40
1
 40
1
 10
1884.328100
 20
565.294120
 30
0.0
 10
1883.838500
 20
565.604490
 30
0.0
 10
1882.737600
 20
569.274900
 30
0.0
 10
1881.881700
 20
573.450580
 30
0.0
  0
SPLINE
  5
1b8
100
AcDbEntity
  8
1
 62
7
100
AcDbSpline
 70
8
 71
3
 72
8
 73
4
 74
0
 40
0
 40
0
 40
0
 40
0
 40
1
 40
1
 40
1
 40
1
 10
1881.881700
 20
573.450580
 30
0.0
 10
1879.777200
 20
583.718330
 30
0.0
 10
1875.316000
 20
605.032900
 30
0.0
 10
1872.129800
 20
620.042740
 30
0.0
  0
SPLINE
  5
1b9
100
AcDbEntity
  8
1
 62
7
100
AcDbSpline
 70
8
 71
3
 72
8
 73
4
 74
0
 40
0
 40
0
 40
0
 40
0
 40
1
 40
1
 40
1
 40
1
 10
1872.129800
 20
620.042740
 30
0.0
 10
1867.955900
 20
639.705550
 30
0.0
 10
1866.885000
 20
645.291200
 30
0.0
 10
1866.885000
 20
647.399710
 30
0.0
  0
LWPOLYLINE
  5
1ba
100
AcDbEntity
  8
1
 62
7
100
AcDbPolyline
 90
3
 70
0
 10
1936.832200
 20
567.376070
 30
0.0
 10
1941.448400
 20
567.376070
 30
0.0
 10
1944.190200
 20
574.542740
 30
0.0
  0
SPLINE
  5
1bb
100
AcDbEntity
  8
1
 62
7
100
AcDbSpline
 70
8
 71
3
 72
8
 73
4
 74
0
 40
0
 40
0
 40
0
 40
0
 40
1
 40
1
 40
1
 40
1
 10
1873.512300
 20
649.376070
 30
0.0
 10
1877.723600
 20
649.376070
 30
0.0
 10
1880.309500
 20
649.101160
 30
0.0
 10
1880.605700
 20
648.621990
 30
0.0
  0
SPLINE
  5
1bc
100
AcDbEntity
  8
1
 62
7
100
AcDbSpline
 70
8
 71
3
 72
8
 73
4
 74
0
 40
0
 40
0
 40
0
 40
0
 40
1
 40
1
 40
1
 40
1
 10
1880.605700
 20
648.621990
 30
0.0
 10
1880.862000
 20
648.207250
 30
0.0
 10
1881.788800
 20
644.382250
 30
0.0
 10
1882.665300
 20
640.121990
 30
0.0
  0
SPLINE
  5
1bd
100
AcDbEntity
  8
1
 62
7
100
AcDbSpline
 70
8
 71
3
 72
8
 73
4
 74
0
 40
0
 40
0
 40
0
 40
0
 40
1
 40
1
 40
1
 40
1
 10
1882.665300
 20
640.121990
 30
0.0
 10
1884.571400
 20
630.856950
 30
0.0
 10
1891.523500
 20
596.234400
 30
0.0
 10
1891.618300
 20
595.534750
 30
0.0
  0
SPLINE
  5
1be
100
AcDbEntity
  8
1
 62
7
100
AcDbSpline
 70
8
 71
3
 72
8
 73
4
 74
0
 40
0
 40
0
 40
0
 40
0
 40
1
 40
1
 40
1
 40
1
 10
1891.618300
 20
595.534750
 30
0.0
 10
1891.709300
 20
594.865450
 30
0.0
 10
1893.719200
 20
604.215900
 30
0.0
 10
1896.170700
 20
616.709400
 30
0.0
  0
SPLINE
  5
1bf
100
AcDbEntity
  8
1
 62
7
100
AcDbSpline
 70
8
 71
3
 72
8
 73
4
 74
0
 40
0
 40
0
 40
0
 40
0
 40
1
 40
1
 40
1
 40
1
 10
1896.170700
 20
616.709400
 30
0.0
 10
1897.285800
 20
622.392740
 30
0.0
 10
1899.197000
 20
631.992740
 30
0.0
 10
1900.417600
 20
638.042740
 30
0.0
  0
LWPOLYLINE
  5
1c0
100
AcDbEntity
  8
1
 62
7
100
AcDbPolyline
 90
3
 70
0
 10
1866.885000
 20
647.399710
 30
0.0
 10
1866.885000
 20
649.376070
 30
0.0
 10
1873.512300
 20
649.376070
 30
0.0
  0
SPLINE
  5
1c1
100
AcDbEntity
  8
1
 62
7
100
AcDbSpline
 70
8
 71
3
 72
8
 73
4
 74
0
 40
0
 40
0
 40
0
 40
0
 40
1
 40
1
 40
1
 40
1
 10
1916.885000
 20
647.756500
 30
0.0
 10
1916.885000
 20
646.840920
 30
0.0
 10
1915.976300
 20
641.805770
 30
0.0
 10
1914.865800
 20
636.567280
 30
0.0
  0
SPLINE
  5
1c2
100
AcDbEntity
  8
1
 62
7
100
AcDbSpline
 70
8
 71
3
 72
8
 73
4
 74
0
 40
0
 40
0
 40
0
 40
0
 40
1
 40
1
 40
1
 40
1
 10
1914.865800
 20
636.567280
 30
0.0
 10
1913.755200
 20
631.328780
 30
0.0
 10
1911.967600
 20
622.842740
 30
0.0
 10
1910.893300
 20
617.709400
 30
0.0
  0
SPLINE
  5
1c3
100
AcDbEntity
  8
1
 62
7
100
AcDbSpline
 70
8
 71
3
 72
8
 73
4
 74
0
 40
0
 40
0
 40
0
 40
0
 40
1
 40
1
 40
1
 40
1
 10
1910.893300
 20
617.709400
 30
0.0
 10
1909.819100
 20
612.576070
 30
0.0
 10
1907.715200
 20
602.526070
 30
0.0
 10
1906.218100
 20
595.376070
 30
0.0
  0
SPLINE
  5
1c4
100
AcDbEntity
  8
1
 62
7
100
AcDbSpline
 70
8
 71
3
 72
8
 73
4
 74
0
 40
0
 40
0
 40
0
 40
0
 40
1
 40
1
 40
1
 40
1
 10
1906.218100
 20
595.376070
 30
0.0
 10
1904.721000
 20
588.226070
 30
0.0
 10
1902.725300
 20
578.626070
 30
0.0
 10
1901.783300
 20
574.042740
 30
0.0
  0
SPLINE
  5
1c5
100
AcDbEntity
  8
1
 62
7
100
AcDbSpline
 70
8
 71
3
 72
8
 73
4
 74
0
 40
0
 40
0
 40
0
 40
0
 40
1
 40
1
 40
1
 40
1
 10
1901.783300
 20
574.042740
 30
0.0
 10
1900.841300
 20
569.459400
 30
0.0
 10
1899.728800
 20
565.489000
 30
0.0
 10
1899.311100
 20
565.219610
 30
0.0
  0
SPLINE
  5
1c6
100
AcDbEntity
  8
1
 62
7
100
AcDbSpline
 70
8
 71
3
 72
8
 73
4
 74
0
 40
0
 40
0
 40
0
 40
0
 40
1
 40
1
 40
1
 40
1
 10
1899.311100
 20
565.219610
 30
0.0
 10
1898.255600
 20
564.538870
 30
0.0
 10
1885.418900
 20
564.602710
 30
0.0
 10
1884.328100
 20
565.294110
 30
0.0
  0
LWPOLYLINE
  5
1c7
100
AcDbEntity
  8
1
 62
7
100
AcDbPolyline
 90
5
 70
0
 10
1900.417600
 20
638.042740
 30
0.0
 10
1902.636900
 20
649.042740
 30
0.0
 10
1909.761000
 20
649.231960
 30
0.0
 10
1916.885000
 20
649.421180
 30
0.0
 10
1916.885000
 20
647.756500
 30
0.0
  0
SPLINE
  5
1c8
100
AcDbEntity
  8
1
 62
7
100
AcDbSpline
 70
8
 71
3
 72
8
 73
4
 74
0
 40
0
 40
0
 40
0
 40
0
 40
1
 40
1
 40
1
 40
1
 10
1899.461100
 20
573.542740
 30
0.0
 10
1900.235000
 20
576.934400
 30
0.0
 10
1901.786100
 20
584.209400
 30
0.0
 10
1902.907900
 20
589.709400
 30
0.0
  0
SPLINE
  5
1c9
100
AcDbEntity
  8
1
 62
7
100
AcDbSpline
 70
8
 71
3
 72
8
 73
4
 74
0
 40
0
 40
0
 40
0
 40
0
 40
1
 40
1
 40
1
 40
1
 10
1902.907900
 20
589.709400
 30
0.0
 10
1904.029800
 20
595.209400
 30
0.0
 10
1905.955700
 20
604.509400
 30
0.0
 10
1907.187700
 20
610.376070
 30
0.0
  0
SPLINE
  5
1ca
100
AcDbEntity
  8
1
 62
7
100
AcDbSpline
 70
8
 71
3
 72
8
 73
4
 74
0
 40
0
 40
0
 40
0
 40
0
 40
1
 40
1
 40
1
 40
1
 10
1907.187700
 20
610.376070
 30
0.0
 10
1908.419700
 20
616.242740
 30
0.0
 10
1910.480700
 20
626.142740
 30
0.0
 10
1911.767500
 20
632.376070
 30
0.0
  0
SPLINE
  5
1cb
100
AcDbEntity
  8
1
 62
7
100
AcDbSpline
 70
8
 71
3
 72
8
 73
4
 74
0
 40
0
 40
0
 40
0
 40
0
 40
1
 40
1
 40
1
 40
1
 10
1911.767500
 20
632.376070
 30
0.0
 10
1913.054400
 20
638.609400
 30
0.0
 10
1914.318200
 20
644.547670
 30
0.0
 10
1914.575800
 20
645.572210
 30
0.0
  0
LWPOLYLINE
  5
1cc
100
AcDbEntity
  8
1
 62
7
100
AcDbPolyline
 90
1
 70
1
 10
1884.328100
 20
565.294110
 30
0.0
  0
SPLINE
  5
1cd
100
AcDbEntity
  8
1
 62
7
100
AcDbSpline
 70
8
 71
3
 72
8
 73
4
 74
0
 40
0
 40
0
 40
0
 40
0
 40
1
 40
1
 40
1
 40
1
 10
1903.107600
 20
640.376070
 30
0.0
 10
1901.535000
 20
633.221200
 30
0.0
 10
1898.371900
 20
617.438140
 30
0.0
 10
1895.859400
 20
604.209600
 30
0.0
  0
SPLINE
  5
1ce
100
AcDbEntity
  8
1
 62
7
100
AcDbSpline
 70
8
 71
3
 72
8
 73
4
 74
0
 40
0
 40
0
 40
0
 40
0
 40
1
 40
1
 40
1
 40
1
 10
1895.859400
 20
604.209600
 30
0.0
 10
1893.767500
 20
593.195920
 30
0.0
 10
1893.791700
 20
593.257550
 30
0.0
 10
1891.661100
 20
593.503980
 30
0.0
  0
SPLINE
  5
1cf
100
AcDbEntity
  8
1
 62
7
100
AcDbSpline
 70
8
 71
3
 72
8
 73
4
 74
0
 40
0
 40
0
 40
0
 40
0
 40
1
 40
1
 40
1
 40
1
 10
1891.661100
 20
593.503980
 30
0.0
 10
1889.514000
 20
593.752310
 30
0.0
 10
1889.918400
 20
592.101570
 30
0.0
 10
1882.216000
 20
632.062120
 30
0.0
  0
SPLINE
  5
1d0
100
AcDbEntity
  8
1
 62
7
100
AcDbSpline
 70
8
 71
3
 72
8
 73
4
 74
0
 40
0
 40
0
 40
0
 40
0
 40
1
 40
1
 40
1
 40
1
 10
1882.216000
 20
632.062120
 30
0.0
 10
1881.189200
 20
637.389440
 30
0.0
 10
1880.008100
 20
643.014440
 30
0.0
 10
1879.591300
 20
644.562120
 30
0.0
  0
LWPOLYLINE
  5
1d1
100
AcDbEntity
  8
1
 62
7
100
AcDbPolyline
 90
5
 70
0
 10
1914.575800
 20
645.572210
 30
0.0
 10
1915.044300
 20
647.435020
 30
0.0
 10
1909.808600
 20
647.238880
 30
0.0
 10
1904.572800
 20
647.042740
 30
0.0
 10
1903.107600
 20
640.376070
 30
0.0
  0
SPLINE
  5
1d2
100
AcDbEntity
  8
1
 62
7
100
AcDbSpline
 70
8
 71
3
 72
8
 73
4
 74
0
 40
0
 40
0
 40
0
 40
0
 40
1
 40
1
 40
1
 40
1
 10
1873.859300
 20
647.376070
 30
0.0
 10
1871.123400
 20
647.376070
 30
0.0
 10
1868.885000
 20
647.228280
 30
0.0
 10
1868.885000
 20
647.047640
 30
0.0
  0
SPLINE
  5
1d3
100
AcDbEntity
  8
1
 62
7
100
AcDbSpline
 70
8
 71
3
 72
8
 73
4
 74
0
 40
0
 40
0
 40
0
 40
0
 40
1
 40
1
 40
1
 40
1
 10
1868.885000
 20
647.047640
 30
0.0
 10
1868.885000
 20
646.451940
 30
0.0
 10
1872.796000
 20
627.293350
 30
0.0
 10
1875.894800
 20
612.709400
 30
0.0
  0
SPLINE
  5
1d4
100
AcDbEntity
  8
1
 62
7
100
AcDbSpline
 70
8
 71
3
 72
8
 73
4
 74
0
 40
0
 40
0
 40
0
 40
0
 40
1
 40
1
 40
1
 40
1
 10
1875.894800
 20
612.709400
 30
0.0
 10
1877.569900
 20
604.826070
 30
0.0
 10
1879.814300
 20
593.971770
 30
0.0
 10
1880.882500
 20
588.588730
 30
0.0
  0
SPLINE
  5
1d5
100
AcDbEntity
  8
1
 62
7
100
AcDbSpline
 70
8
 71
3
 72
8
 73
4
 74
0
 40
0
 40
0
 40
0
 40
0
 40
1
 40
1
 40
1
 40
1
 10
1880.882500
 20
588.588730
 30
0.0
 10
1881.950700
 20
583.205690
 30
0.0
 10
1883.256900
 20
577.055690
 30
0.0
 10
1883.785200
 20
574.922060
 30
0.0
  0
SPLINE
  5
1d6
100
AcDbEntity
  8
1
 62
7
100
AcDbSpline
 70
8
 71
3
 72
8
 73
4
 74
0
 40
0
 40
0
 40
0
 40
0
 40
1
 40
1
 40
1
 40
1
 10
1883.785200
 20
574.922060
 30
0.0
 10
1884.313500
 20
572.788430
 30
0.0
 10
1884.932800
 20
570.217740
 30
0.0
 10
1885.161400
 20
569.209400
 30
0.0
  0
LWPOLYLINE
  5
1d7
100
AcDbEntity
  8
1
 62
7
100
AcDbPolyline
 90
3
 70
0
 10
1879.591300
 20
644.562120
 30
0.0
 10
1878.833600
 20
647.376070
 30
0.0
 10
1873.859300
 20
647.376070
 30
0.0
  0
SPLINE
  5
1d8
100
AcDbEntity
  8
1
 62
7
100
AcDbSpline
 70
8
 71
3
 72
8
 73
4
 74
0
 40
0
 40
0
 40
0
 40
0
 40
1
 40
1
 40
1
 40
1
 10
1824.447500
 20
565.360510
 30
0.0
 10
1820.190700
 20
566.269000
 30
0.0
 10
1816.642200
 20
568.356630
 30
0.0
 10
1813.728900
 20
571.666260
 30
0.0
  0
SPLINE
  5
1d9
100
AcDbEntity
  8
1
 62
7
100
AcDbSpline
 70
8
 71
3
 72
8
 73
4
 74
0
 40
0
 40
0
 40
0
 40
0
 40
1
 40
1
 40
1
 40
1
 10
1813.728900
 20
571.666260
 30
0.0
 10
1808.861300
 20
577.196140
 30
0.0
 10
1808.846600
 20
577.333630
 30
0.0
 10
1809.043800
 20
615.376070
 30
0.0
  0
LWPOLYLINE
  5
1da
100
AcDbEntity
  8
1
 62
7
100
AcDbPolyline
 90
5
 70
0
 10
1885.161400
 20
569.209400
 30
0.0
 10
1885.577100
 20
567.376070
 30
0.0
 10
1891.815500
 20
567.376070
 30
0.0
 10
1898.054000
 20
567.376070
 30
0.0
 10
1899.461100
 20
573.542740
 30
0.0
  0
SPLINE
  5
1db
100
AcDbEntity
  8
1
 62
7
100
AcDbSpline
 70
8
 71
3
 72
8
 73
4
 74
0
 40
0
 40
0
 40
0
 40
0
 40
1
 40
1
 40
1
 40
1
 10
1815.968000
 20
649.231800
 30
0.0
 10
1822.507300
 20
649.414970
 30
0.0
 10
1822.730500
 20
649.373400
 30
0.0
 10
1823.125600
 20
647.898470
 30
0.0
  0
SPLINE
  5
1dc
100
AcDbEntity
  8
1
 62
7
100
AcDbSpline
 70
8
 71
3
 72
8
 73
4
 74
0
 40
0
 40
0
 40
0
 40
0
 40
1
 40
1
 40
1
 40
1
 10
1823.125600
 20
647.898470
 30
0.0
 10
1823.349900
 20
647.061150
 30
0.0
 10
1823.537600
 20
631.922840
 30
0.0
 10
1823.542600
 20
614.257790
 30
0.0
  0
LWPOLYLINE
  5
1dd
100
AcDbEntity
  8
1
 62
7
100
AcDbPolyline
 90
3
 70
0
 10
1809.043800
 20
615.376070
 30
0.0
 10
1809.218300
 20
649.042740
 30
0.0
 10
1815.968000
 20
649.231800
 30
0.0
  0
SPLINE
  5
1de
100
AcDbEntity
  8
1
 62
7
100
AcDbSpline
 70
8
 71
3
 72
8
 73
4
 74
0
 40
0
 40
0
 40
0
 40
0
 40
1
 40
1
 40
1
 40
1
 10
1825.309100
 20
580.757790
 30
0.0
 10
1826.869200
 20
579.530670
 30
0.0
 10
1827.979800
 20
579.376070
 30
0.0
 10
1835.235300
 20
579.376070
 30
0.0
  0
SPLINE
  5
1df
100
AcDbEntity
  8
1
 62
7
100
AcDbSpline
 70
8
 71
3
 72
8
 73
4
 74
0
 40
0
 40
0
 40
0
 40
0
 40
1
 40
1
 40
1
 40
1
 10
1835.235300
 20
579.376070
 30
0.0
 10
1842.284700
 20
579.376070
 30
0.0
 10
1843.620600
 20
579.550760
 30
0.0
 10
1844.978700
 20
580.650130
 30
0.0
  0
LWPOLYLINE
  5
1e0
100
AcDbEntity
  8
1
 62
7
100
AcDbPolyline
 90
3
 70
0
 10
1823.542600
 20
614.257790
 30
0.0
 10
1823.552600
 20
582.139510
 30
0.0
 10
1825.309100
 20
580.757790
 30
0.0
  0
SPLINE
  5
1e1
100
AcDbEntity
  8
1
 62
7
100
AcDbSpline
 70
8
 71
3
 72
8
 73
4
 74
0
 40
0
 40
0
 40
0
 40
0
 40
1
 40
1
 40
1
 40
1
 10
1861.230600
 20
647.216370
 30
0.0
 10
1861.458200
 20
646.003300
 30
0.0
 10
1861.548700
 20
630.317980
 30
0.0
 10
1861.431800
 20
612.360100
 30
0.0
  0
LWPOLYLINE
  5
1e2
100
AcDbEntity
  8
1
 62
7
100
AcDbPolyline
 90
7
 70
0
 10
1844.978700
 20
580.650130
 30
0.0
 10
1846.552600
 20
581.924190
 30
0.0
 10
1846.885900
 20
615.483470
 30
0.0
 10
1847.219200
 20
649.042740
 30
0.0
 10
1854.018000
 20
649.232350
 30
0.0
 10
1860.816900
 20
649.421950
 30
0.0
 10
1861.230600
 20
647.216370
 30
0.0
  0
SPLINE
  5
1e3
100
AcDbEntity
  8
1
 62
7
100
AcDbSpline
 70
8
 71
3
 72
8
 73
4
 74
0
 40
0
 40
0
 40
0
 40
0
 40
1
 40
1
 40
1
 40
1
 10
1859.358300
 20
575.921670
 30
0.0
 10
1857.232800
 20
571.593410
 30
0.0
 10
1853.967200
 20
568.447290
 30
0.0
 10
1849.585500
 20
566.506420
 30
0.0
  0
SPLINE
  5
1e4
100
AcDbEntity
  8
1
 62
7
100
AcDbSpline
 70
8
 71
3
 72
8
 73
4
 74
0
 40
0
 40
0
 40
0
 40
0
 40
1
 40
1
 40
1
 40
1
 10
1849.585500
 20
566.506420
 30
0.0
 10
1847.089700
 20
565.400910
 30
0.0
 10
1844.837200
 20
565.127680
 30
0.0
 10
1836.885000
 20
564.965860
 30
0.0
  0
SPLINE
  5
1e5
100
AcDbEntity
  8
1
 62
7
100
AcDbSpline
 70
8
 71
3
 72
8
 73
4
 74
0
 40
0
 40
0
 40
0
 40
0
 40
1
 40
1
 40
1
 40
1
 10
1836.885000
 20
564.965860
 30
0.0
 10
1831.568300
 20
564.857670
 30
0.0
 10
1825.971500
 20
565.035260
 30
0.0
 10
1824.447500
 20
565.360510
 30
0.0
  0
LWPOLYLINE
  5
1e6
100
AcDbEntity
  8
1
 62
7
100
AcDbPolyline
 90
3
 70
0
 10
1861.431800
 20
612.360100
 30
0.0
 10
1861.218300
 20
579.709400
 30
0.0
 10
1859.358300
 20
575.921670
 30
0.0
  0
SPLINE
  5
1e7
100
AcDbEntity
  8
1
 62
7
100
AcDbSpline
 70
8
 71
3
 72
8
 73
4
 74
0
 40
0
 40
0
 40
0
 40
0
 40
1
 40
1
 40
1
 40
1
 10
1849.255400
 20
568.958540
 30
0.0
 10
1853.197400
 20
570.794130
 30
0.0
 10
1857.015400
 20
574.957350
 30
0.0
 10
1858.111300
 20
578.615030
 30
0.0
  0
SPLINE
  5
1e8
100
AcDbEntity
  8
1
 62
7
100
AcDbSpline
 70
8
 71
3
 72
8
 73
4
 74
0
 40
0
 40
0
 40
0
 40
0
 40
1
 40
1
 40
1
 40
1
 10
1858.111300
 20
578.615030
 30
0.0
 10
1858.653400
 20
580.424480
 30
0.0
 10
1858.885000
 20
591.110280
 30
0.0
 10
1858.885000
 20
614.315960
 30
0.0
  0
LWPOLYLINE
  5
1e9
100
AcDbEntity
  8
1
 62
7
100
AcDbPolyline
 90
1
 70
1
 10
1824.447500
 20
565.360510
 30
0.0
  0
SPLINE
  5
1ea
100
AcDbEntity
  8
1
 62
7
100
AcDbSpline
 70
8
 71
3
 72
8
 73
4
 74
0
 40
0
 40
0
 40
0
 40
0
 40
1
 40
1
 40
1
 40
1
 10
1848.885000
 20
614.376070
 30
0.0
 10
1848.536300
 20
580.206440
 30
0.0
 10
1848.482200
 20
579.611090
 30
0.0
 10
1845.580200
 20
578.058020
 30
0.0
  0
SPLINE
  5
1eb
100
AcDbEntity
  8
1
 62
7
100
AcDbSpline
 70
8
 71
3
 72
8
 73
4
 74
0
 40
0
 40
0
 40
0
 40
0
 40
1
 40
1
 40
1
 40
1
 10
1845.580200
 20
578.058020
 30
0.0
 10
1844.879400
 20
577.682950
 30
0.0
 10
1840.103000
 20
577.376070
 30
0.0
 10
1834.966000
 20
577.376070
 30
0.0
  0
SPLINE
  5
1ec
100
AcDbEntity
  8
1
 62
7
100
AcDbSpline
 70
8
 71
3
 72
8
 73
4
 74
0
 40
0
 40
0
 40
0
 40
0
 40
1
 40
1
 40
1
 40
1
 10
1834.966000
 20
577.376070
 30
0.0
 10
1826.054600
 20
577.376070
 30
0.0
 10
1825.540200
 20
577.449870
 30
0.0
 10
1823.755500
 20
578.984620
 30
0.0
  0
LWPOLYLINE
  5
1ed
100
AcDbEntity
  8
1
 62
7
100
AcDbPolyline
 90
5
 70
0
 10
1858.885000
 20
614.315960
 30
0.0
 10
1858.885000
 20
647.434480
 30
0.0
 10
1854.051700
 20
647.238610
 30
0.0
 10
1849.218300
 20
647.042740
 30
0.0
 10
1848.885000
 20
614.376070
 30
0.0
  0
SPLINE
  5
1ee
100
AcDbEntity
  8
1
 62
7
100
AcDbSpline
 70
8
 71
3
 72
8
 73
4
 74
0
 40
0
 40
0
 40
0
 40
0
 40
1
 40
1
 40
1
 40
1
 10
1811.228300
 20
613.376070
 30
0.0
 10
1811.238300
 20
575.463910
 30
0.0
 10
1810.984000
 20
577.454440
 30
0.0
 10
1816.412900
 20
572.163330
 30
0.0
  0
SPLINE
  5
1ef
100
AcDbEntity
  8
1
 62
7
100
AcDbSpline
 70
8
 71
3
 72
8
 73
4
 74
0
 40
0
 40
0
 40
0
 40
0
 40
1
 40
1
 40
1
 40
1
 10
1816.412900
 20
572.163330
 30
0.0
 10
1820.720600
 20
567.964970
 30
0.0
 10
1822.805500
 20
567.438330
 30
0.0
 10
1835.222900
 20
567.411850
 30
0.0
  0
SPLINE
  5
1f0
100
AcDbEntity
  8
1
 62
7
100
AcDbSpline
 70
8
 71
3
 72
8
 73
4
 74
0
 40
0
 40
0
 40
0
 40
0
 40
1
 40
1
 40
1
 40
1
 10
1835.222900
 20
567.411850
 30
0.0
 10
1845.052200
 20
567.390850
 30
0.0
 10
1846.154200
 20
567.512310
 30
0.0
 10
1849.260000
 20
568.958540
 30
0.0
  0
LWPOLYLINE
  5
1f1
100
AcDbEntity
  8
1
 62
7
100
AcDbPolyline
 90
7
 70
0
 10
1823.755500
 20
578.984620
 30
0.0
 10
1821.885000
 20
580.593170
 30
0.0
 10
1821.551700
 20
613.817950
 30
0.0
 10
1821.218300
 20
647.042740
 30
0.0
 10
1816.218300
 20
647.042740
 30
0.0
 10
1811.218300
 20
647.042740
 30
0.0
 10
1811.228300
 20
613.376070
 30
0.0
  0
SPLINE
  5
1f2
100
AcDbEntity
  8
1
 62
7
100
AcDbSpline
 70
8
 71
3
 72
8
 73
4
 74
0
 40
0
 40
0
 40
0
 40
0
 40
1
 40
1
 40
1
 40
1
 10
1771.707300
 20
565.487140
 30
0.0
 10
1771.076700
 20
566.117660
 30
0.0
 10
1770.885000
 20
574.279700
 30
0.0
 10
1770.885000
 20
600.489490
 30
0.0
  0
LWPOLYLINE
  5
1f3
100
AcDbEntity
  8
1
 62
7
100
AcDbPolyline
 90
2
 70
0
 10
1849.260000
 20
568.958540
 30
0.0
 10
1849.255400
 20
568.958540
 30
0.0
  0
SPLINE
  5
1f4
100
AcDbEntity
  8
1
 62
7
100
AcDbSpline
 70
8
 71
3
 72
8
 73
4
 74
0
 40
0
 40
0
 40
0
 40
0
 40
1
 40
1
 40
1
 40
1
 10
1802.994400
 20
645.217560
 30
0.0
 10
1803.117600
 20
642.921410
 30
0.0
 10
1803.068400
 20
639.692740
 30
0.0
 10
1802.885000
 20
638.042740
 30
0.0
  0
LWPOLYLINE
  5
1f5
100
AcDbEntity
  8
1
 62
7
100
AcDbPolyline
 90
9
 70
0
 10
1770.885000
 20
600.489490
 30
0.0
 10
1770.885000
 20
634.669570
 30
0.0
 10
1762.385000
 20
634.856150
 30
0.0
 10
1753.885000
 20
635.042740
 30
0.0
 10
1753.885000
 20
642.042740
 30
0.0
 10
1753.885000
 20
649.042740
 30
0.0
 10
1778.327700
 20
649.217560
 30
0.0
 10
1802.770500
 20
649.392380
 30
0.0
 10
1802.994400
 20
645.217560
 30
0.0
  0
SPLINE
  5
1f6
100
AcDbEntity
  8
1
 62
7
100
AcDbSpline
 70
8
 71
3
 72
8
 73
4
 74
0
 40
0
 40
0
 40
0
 40
0
 40
1
 40
1
 40
1
 40
1
 10
1778.873900
 20
564.853810
 30
0.0
 10
1774.508800
 20
564.723820
 30
0.0
 10
1772.273000
 20
564.921410
 30
0.0
 10
1771.707300
 20
565.487140
 30
0.0
  0
LWPOLYLINE
  5
1f7
100
AcDbEntity
  8
1
 62
7
100
AcDbPolyline
 90
7
 70
0
 10
1802.885000
 20
638.042740
 30
0.0
 10
1802.551700
 20
635.042740
 30
0.0
 10
1794.057600
 20
634.856200
 30
0.0
 10
1785.563500
 20
634.669660
 30
0.0
 10
1785.390900
 20
599.856200
 30
0.0
 10
1785.218300
 20
565.042740
 30
0.0
 10
1778.873900
 20
564.853810
 30
0.0
  0
SPLINE
  5
1f8
100
AcDbEntity
  8
1
 62
7
100
AcDbSpline
 70
8
 71
3
 72
8
 73
4
 74
0
 40
0
 40
0
 40
0
 40
0
 40
1
 40
1
 40
1
 40
1
 10
1783.561900
 20
601.209400
 30
0.0
 10
1783.571900
 20
621.317120
 30
0.0
 10
1783.828000
 20
635.448420
 30
0.0
 10
1784.203000
 20
636.042740
 30
0.0
  0
SPLINE
  5
1f9
100
AcDbEntity
  8
1
 62
7
100
AcDbSpline
 70
8
 71
3
 72
8
 73
4
 74
0
 40
0
 40
0
 40
0
 40
0
 40
1
 40
1
 40
1
 40
1
 10
1784.203000
 20
636.042740
 30
0.0
 10
1784.696000
 20
636.824260
 30
0.0
 10
1786.666200
 20
637.091160
 30
0.0
 10
1793.220800
 20
637.264370
 30
0.0
  0
LWPOLYLINE
  5
1fa
100
AcDbEntity
  8
1
 62
7
100
AcDbPolyline
 90
1
 70
1
 10
1771.707300
 20
565.487140
 30
0.0
  0
SPLINE
  5
1fb
100
AcDbEntity
  8
1
 62
7
100
AcDbSpline
 70
8
 71
3
 72
8
 73
4
 74
0
 40
0
 40
0
 40
0
 40
0
 40
1
 40
1
 40
1
 40
1
 10
1762.508300
 20
637.376070
 30
0.0
 10
1766.334400
 20
637.376070
 30
0.0
 10
1770.234400
 20
637.083500
 30
0.0
 10
1771.174900
 20
636.725900
 30
0.0
  0
LWPOLYLINE
  5
1fc
100
AcDbEntity
  8
1
 62
7
100
AcDbPolyline
 90
9
 70
0
 10
1793.220800
 20
637.264370
 30
0.0
 10
1801.607900
 20
637.486010
 30
0.0
 10
1801.413100
 20
642.264370
 30
0.0
 10
1801.218300
 20
647.042740
 30
0.0
 10
1778.385000
 20
647.218160
 30
0.0
 10
1755.551700
 20
647.393570
 30
0.0
 10
1755.551700
 20
642.384820
 30
0.0
 10
1755.551700
 20
637.376070
 30
0.0
 10
1762.508300
 20
637.376070
 30
0.0
  0
SPLINE
  5
1fd
100
AcDbEntity
  8
1
 62
7
100
AcDbSpline
 70
8
 71
3
 72
8
 73
4
 74
0
 40
0
 40
0
 40
0
 40
0
 40
1
 40
1
 40
1
 40
1
 10
1711.615200
 20
565.419860
 30
0.0
 10
1709.633500
 20
565.772730
 30
0.0
 10
1707.017200
 20
566.676340
 30
0.0
 10
1705.801200
 20
567.427880
 30
0.0
  0
SPLINE
  5
1fe
100
AcDbEntity
  8
1
 62
7
100
AcDbSpline
 70
8
 71
3
 72
8
 73
4
 74
0
 40
0
 40
0
 40
0
 40
0
 40
1
 40
1
 40
1
 40
1
 10
1705.801200
 20
567.427880
 30
0.0
 10
1702.112200
 20
569.707760
 30
0.0
 10
1698.286600
 20
574.602650
 30
0.0
 10
1697.157100
 20
578.487890
 30
0.0
  0
SPLINE
  5
1ff
100
AcDbEntity
  8
1
 62
7
100
AcDbSpline
 70
8
 71
3
 72
8
 73
4
 74
0
 40
0
 40
0
 40
0
 40
0
 40
1
 40
1
 40
1
 40
1
 10
1697.157100
 20
578.487890
 30
0.0
 10
1695.468900
 20
584.295350
 30
0.0
 10
1695.522000
 20
584.347000
 30
0.0
 10
1703.404700
 20
584.566190
 30
0.0
  0
SPLINE
  5
200
100
AcDbEntity
  8
1
 62
7
100
AcDbSpline
 70
8
 71
3
 72
8
 73
4
 74
0
 40
0
 40
0
 40
0
 40
0
 40
1
 40
1
 40
1
 40
1
 10
1703.404700
 20
584.566190
 30
0.0
 10
1709.467400
 20
584.734770
 30
0.0
 10
1710.289900
 20
584.621490
 30
0.0
 10
1710.662900
 20
583.566190
 30
0.0
  0
SPLINE
  5
201
100
AcDbEntity
  8
1
 62
7
100
AcDbSpline
 70
8
 71
3
 72
8
 73
4
 74
0
 40
0
 40
0
 40
0
 40
0
 40
1
 40
1
 40
1
 40
1
 10
1710.662900
 20
583.566190
 30
0.0
 10
1710.894300
 20
582.911630
 30
0.0
 10
1711.691300
 20
581.701070
 30
0.0
 10
1712.433900
 20
580.876070
 30
0.0
  0
SPLINE
  5
202
100
AcDbEntity
  8
1
 62
7
100
AcDbSpline
 70
8
 71
3
 72
8
 73
4
 74
0
 40
0
 40
0
 40
0
 40
0
 40
1
 40
1
 40
1
 40
1
 10
1712.433900
 20
580.876070
 30
0.0
 10
1713.701200
 20
579.468140
 30
0.0
 10
1714.310800
 20
579.376070
 30
0.0
 10
1722.364800
 20
579.376070
 30
0.0
  0
SPLINE
  5
203
100
AcDbEntity
  8
1
 62
7
100
AcDbSpline
 70
8
 71
3
 72
8
 73
4
 74
0
 40
0
 40
0
 40
0
 40
0
 40
1
 40
1
 40
1
 40
1
 10
1722.364800
 20
579.376070
 30
0.0
 10
1730.586400
 20
579.376070
 30
0.0
 10
1731.014100
 20
579.444570
 30
0.0
 10
1732.582000
 20
581.012430
 30
0.0
  0
SPLINE
  5
204
100
AcDbEntity
  8
1
 62
7
100
AcDbSpline
 70
8
 71
3
 72
8
 73
4
 74
0
 40
0
 40
0
 40
0
 40
0
 40
1
 40
1
 40
1
 40
1
 10
1732.582000
 20
581.012430
 30
0.0
 10
1734.144900
 20
582.575350
 30
0.0
 10
1734.218300
 20
583.023020
 30
0.0
 10
1734.218300
 20
590.986460
 30
0.0
  0
SPLINE
  5
205
100
AcDbEntity
  8
1
 62
7
100
AcDbSpline
 70
8
 71
3
 72
8
 73
4
 74
0
 40
0
 40
0
 40
0
 40
0
 40
1
 40
1
 40
1
 40
1
 10
1734.218300
 20
590.986460
 30
0.0
 10
1734.218300
 20
602.217550
 30
0.0
 10
1734.680300
 20
601.816470
 30
0.0
 10
1721.334500
 20
602.172360
 30
0.0
  0
SPLINE
  5
206
100
AcDbEntity
  8
1
 62
7
100
AcDbSpline
 70
8
 71
3
 72
8
 73
4
 74
0
 40
0
 40
0
 40
0
 40
0
 40
1
 40
1
 40
1
 40
1
 10
1721.334500
 20
602.172360
 30
0.0
 10
1709.245200
 20
602.494750
 30
0.0
 10
1705.962600
 20
603.573490
 30
0.0
 10
1701.304200
 20
608.754720
 30
0.0
  0
SPLINE
  5
207
100
AcDbEntity
  8
1
 62
7
100
AcDbSpline
 70
8
 71
3
 72
8
 73
4
 74
0
 40
0
 40
0
 40
0
 40
0
 40
1
 40
1
 40
1
 40
1
 10
1701.304200
 20
608.754720
 30
0.0
 10
1697.100300
 20
613.430450
 30
0.0
 10
1696.014100
 20
617.474220
 30
0.0
 10
1696.340600
 20
627.233150
 30
0.0
  0
SPLINE
  5
208
100
AcDbEntity
  8
1
 62
7
100
AcDbSpline
 70
8
 71
3
 72
8
 73
4
 74
0
 40
0
 40
0
 40
0
 40
0
 40
1
 40
1
 40
1
 40
1
 10
1696.340600
 20
627.233150
 30
0.0
 10
1696.639700
 20
636.175670
 30
0.0
 10
1697.768600
 20
639.548610
 30
0.0
 10
1701.817800
 20
643.597820
 30
0.0
  0
SPLINE
  5
209
100
AcDbEntity
  8
1
 62
7
100
AcDbSpline
 70
8
 71
3
 72
8
 73
4
 74
0
 40
0
 40
0
 40
0
 40
0
 40
1
 40
1
 40
1
 40
1
 10
1701.817800
 20
643.597820
 30
0.0
 10
1706.581700
 20
648.361640
 30
0.0
 10
1708.587700
 20
648.964000
 30
0.0
 10
1720.650200
 20
649.252670
 30
0.0
  0
SPLINE
  5
20a
100
AcDbEntity
  8
1
 62
7
100
AcDbSpline
 70
8
 71
3
 72
8
 73
4
 74
0
 40
0
 40
0
 40
0
 40
0
 40
1
 40
1
 40
1
 40
1
 10
1720.650200
 20
649.252670
 30
0.0
 10
1729.087500
 20
649.454580
 30
0.0
 10
1732.199600
 20
649.282370
 30
0.0
 10
1735.041700
 20
648.456110
 30
0.0
  0
SPLINE
  5
20b
100
AcDbEntity
  8
1
 62
7
100
AcDbSpline
 70
8
 71
3
 72
8
 73
4
 74
0
 40
0
 40
0
 40
0
 40
0
 40
1
 40
1
 40
1
 40
1
 10
1735.041700
 20
648.456110
 30
0.0
 10
1742.040200
 20
646.421590
 30
0.0
 10
1748.196600
 20
638.827010
 30
0.0
 10
1748.211800
 20
632.209400
 30
0.0
  0
LWPOLYLINE
  5
20c
100
AcDbEntity
  8
1
 62
7
100
AcDbPolyline
 90
7
 70
0
 10
1771.174900
 20
636.725900
 30
0.0
 10
1772.885000
 20
636.075740
 30
0.0
 10
1772.885000
 20
601.725910
 30
0.0
 10
1772.885000
 20
567.376070
 30
0.0
 10
1778.218300
 20
567.376070
 30
0.0
 10
1783.551700
 20
567.376070
 30
0.0
 10
1783.561900
 20
601.209400
 30
0.0
  0
SPLINE
  5
20d
100
AcDbEntity
  8
1
 62
7
100
AcDbSpline
 70
8
 71
3
 72
8
 73
4
 74
0
 40
0
 40
0
 40
0
 40
0
 40
1
 40
1
 40
1
 40
1
 10
1722.735600
 20
634.561430
 30
0.0
 10
1710.927500
 20
634.800810
 30
0.0
 10
1710.888500
 20
634.771800
 30
0.0
 10
1710.888500
 20
625.757790
 30
0.0
  0
SPLINE
  5
20e
100
AcDbEntity
  8
1
 62
7
100
AcDbSpline
 70
8
 71
3
 72
8
 73
4
 74
0
 40
0
 40
0
 40
0
 40
0
 40
1
 40
1
 40
1
 40
1
 10
1710.888500
 20
625.757790
 30
0.0
 10
1710.888500
 20
619.762110
 30
0.0
 10
1710.969500
 20
619.409250
 30
0.0
 10
1712.645100
 20
618.091120
 30
0.0
  0
SPLINE
  5
20f
100
AcDbEntity
  8
1
 62
7
100
AcDbSpline
 70
8
 71
3
 72
8
 73
4
 74
0
 40
0
 40
0
 40
0
 40
0
 40
1
 40
1
 40
1
 40
1
 10
1712.645100
 20
618.091120
 30
0.0
 10
1714.220400
 20
616.851970
 30
0.0
 10
1715.308500
 20
616.709400
 30
0.0
 10
1723.190700
 20
616.709400
 30
0.0
  0
SPLINE
  5
210
100
AcDbEntity
  8
1
 62
7
100
AcDbSpline
 70
8
 71
3
 72
8
 73
4
 74
0
 40
0
 40
0
 40
0
 40
0
 40
1
 40
1
 40
1
 40
1
 10
1723.190700
 20
616.709400
 30
0.0
 10
1735.028600
 20
616.709400
 30
0.0
 10
1738.024400
 20
615.813740
 30
0.0
 10
1742.905900
 20
610.815170
 30
0.0
  0
SPLINE
  5
211
100
AcDbEntity
  8
1
 62
7
100
AcDbSpline
 70
8
 71
3
 72
8
 73
4
 74
0
 40
0
 40
0
 40
0
 40
0
 40
1
 40
1
 40
1
 40
1
 10
1742.905900
 20
610.815170
 30
0.0
 10
1747.837100
 20
605.765680
 30
0.0
 10
1748.334900
 20
603.865440
 30
0.0
 10
1748.308800
 20
590.192610
 30
0.0
  0
SPLINE
  5
212
100
AcDbEntity
  8
1
 62
7
100
AcDbSpline
 70
8
 71
3
 72
8
 73
4
 74
0
 40
0
 40
0
 40
0
 40
0
 40
1
 40
1
 40
1
 40
1
 10
1748.308800
 20
590.192610
 30
0.0
 10
1748.288800
 20
579.730810
 30
0.0
 10
1748.203000
 20
579.017770
 30
0.0
 10
1746.561400
 20
575.662430
 30
0.0
  0
SPLINE
  5
213
100
AcDbEntity
  8
1
 62
7
100
AcDbSpline
 70
8
 71
3
 72
8
 73
4
 74
0
 40
0
 40
0
 40
0
 40
0
 40
1
 40
1
 40
1
 40
1
 10
1746.561400
 20
575.662430
 30
0.0
 10
1744.564000
 20
571.579880
 30
0.0
 10
1741.232100
 20
568.414650
 30
0.0
 10
1736.927700
 20
566.510620
 30
0.0
  0
SPLINE
  5
214
100
AcDbEntity
  8
1
 62
7
100
AcDbSpline
 70
8
 71
3
 72
8
 73
4
 74
0
 40
0
 40
0
 40
0
 40
0
 40
1
 40
1
 40
1
 40
1
 10
1736.927700
 20
566.510620
 30
0.0
 10
1734.460200
 20
565.419100
 30
0.0
 10
1732.169400
 20
565.134590
 30
0.0
 10
1724.560500
 20
564.974610
 30
0.0
  0
SPLINE
  5
215
100
AcDbEntity
  8
1
 62
7
100
AcDbSpline
 70
8
 71
3
 72
8
 73
4
 74
0
 40
0
 40
0
 40
0
 40
0
 40
1
 40
1
 40
1
 40
1
 10
1724.560500
 20
564.974610
 30
0.0
 10
1719.424200
 20
564.866620
 30
0.0
 10
1713.600400
 20
565.067010
 30
0.0
 10
1711.618700
 20
565.419860
 30
0.0
  0
LWPOLYLINE
  5
216
100
AcDbEntity
  8
1
 62
7
100
AcDbPolyline
 90
7
 70
0
 10
1748.211800
 20
632.209400
 30
0.0
 10
1748.221800
 20
629.376070
 30
0.0
 10
1741.666900
 20
629.376070
 30
0.0
 10
1735.111900
 20
629.376070
 30
0.0
 10
1733.495200
 20
631.876070
 30
0.0
 10
1731.878600
 20
634.376070
 30
0.0
 10
1722.735600
 20
634.561430
 30
0.0
  0
SPLINE
  5
217
100
AcDbEntity
  8
1
 62
7
100
AcDbSpline
 70
8
 71
3
 72
8
 73
4
 74
0
 40
0
 40
0
 40
0
 40
0
 40
1
 40
1
 40
1
 40
1
 10
1736.551700
 20
568.964930
 30
0.0
 10
1740.557900
 20
570.858900
 30
0.0
 10
1743.007400
 20
573.347330
 30
0.0
 10
1744.831100
 20
577.376070
 30
0.0
  0
SPLINE
  5
218
100
AcDbEntity
  8
1
 62
7
100
AcDbSpline
 70
8
 71
3
 72
8
 73
4
 74
0
 40
0
 40
0
 40
0
 40
0
 40
1
 40
1
 40
1
 40
1
 10
1744.831100
 20
577.376070
 30
0.0
 10
1746.001800
 20
579.962400
 30
0.0
 10
1746.191100
 20
581.761570
 30
0.0
 10
1746.203700
 20
590.423980
 30
0.0
  0
SPLINE
  5
219
100
AcDbEntity
  8
1
 62
7
100
AcDbSpline
 70
8
 71
3
 72
8
 73
4
 74
0
 40
0
 40
0
 40
0
 40
0
 40
1
 40
1
 40
1
 40
1
 10
1746.203700
 20
590.423980
 30
0.0
 10
1746.220700
 20
602.059160
 30
0.0
 10
1745.398700
 20
605.484620
 30
0.0
 10
1741.702900
 20
609.180420
 30
0.0
  0
SPLINE
  5
21a
100
AcDbEntity
  8
1
 62
7
100
AcDbSpline
 70
8
 71
3
 72
8
 73
4
 74
0
 40
0
 40
0
 40
0
 40
0
 40
1
 40
1
 40
1
 40
1
 10
1741.702900
 20
609.180420
 30
0.0
 10
1740.411300
 20
610.471990
 30
0.0
 10
1737.823900
 20
612.241450
 30
0.0
 10
1735.953100
 20
613.112550
 30
0.0
  0
SPLINE
  5
21b
100
AcDbEntity
  8
1
 62
7
100
AcDbSpline
 70
8
 71
3
 72
8
 73
4
 74
0
 40
0
 40
0
 40
0
 40
0
 40
1
 40
1
 40
1
 40
1
 10
1735.953100
 20
613.112550
 30
0.0
 10
1732.856400
 20
614.554480
 30
0.0
 10
1731.666100
 20
614.696960
 30
0.0
 10
1722.667000
 20
614.702890
 30
0.0
  0
LWPOLYLINE
  5
21c
100
AcDbEntity
  8
1
 62
7
100
AcDbPolyline
 90
2
 70
0
 10
1711.618700
 20
565.419860
 30
0.0
 10
1711.615200
 20
565.419860
 30
0.0
  0
SPLINE
  5
21d
100
AcDbEntity
  8
1
 62
7
100
AcDbSpline
 70
8
 71
3
 72
8
 73
4
 74
0
 40
0
 40
0
 40
0
 40
0
 40
1
 40
1
 40
1
 40
1
 10
1710.833700
 20
616.657610
 30
0.0
 10
1708.925900
 20
618.565430
 30
0.0
 10
1708.885000
 20
618.754080
 30
0.0
 10
1708.885000
 20
625.647090
 30
0.0
  0
SPLINE
  5
21e
100
AcDbEntity
  8
1
 62
7
100
AcDbSpline
 70
8
 71
3
 72
8
 73
4
 74
0
 40
0
 40
0
 40
0
 40
0
 40
1
 40
1
 40
1
 40
1
 10
1708.885000
 20
625.647090
 30
0.0
 10
1708.885000
 20
632.483620
 30
0.0
 10
1708.941000
 20
632.750980
 30
0.0
 10
1710.829500
 20
634.864100
 30
0.0
  0
LWPOLYLINE
  5
21f
100
AcDbEntity
  8
1
 62
7
100
AcDbPolyline
 90
3
 70
0
 10
1722.667000
 20
614.702890
 30
0.0
 10
1712.782400
 20
614.708890
 30
0.0
 10
1710.833700
 20
616.657610
 30
0.0
  0
SPLINE
  5
220
100
AcDbEntity
  8
1
 62
7
100
AcDbSpline
 70
8
 71
3
 72
8
 73
4
 74
0
 40
0
 40
0
 40
0
 40
0
 40
1
 40
1
 40
1
 40
1
 10
1720.662800
 20
637.260000
 30
0.0
 10
1730.080700
 20
637.522230
 30
0.0
 10
1733.219300
 20
636.725390
 30
0.0
 10
1735.205100
 20
633.567900
 30
0.0
  0
SPLINE
  5
221
100
AcDbEntity
  8
1
 62
7
100
AcDbSpline
 70
8
 71
3
 72
8
 73
4
 74
0
 40
0
 40
0
 40
0
 40
0
 40
1
 40
1
 40
1
 40
1
 10
1735.205100
 20
633.567900
 30
0.0
 10
1736.516200
 20
631.483320
 30
0.0
 10
1736.679000
 20
631.426240
 30
0.0
 10
1741.385000
 20
631.401240
 30
0.0
  0
SPLINE
  5
222
100
AcDbEntity
  8
1
 62
7
100
AcDbSpline
 70
8
 71
3
 72
8
 73
4
 74
0
 40
0
 40
0
 40
0
 40
0
 40
1
 40
1
 40
1
 40
1
 10
1741.385000
 20
631.401240
 30
0.0
 10
1745.052800
 20
631.381740
 30
0.0
 10
1746.218300
 20
631.596490
 30
0.0
 10
1746.218300
 20
632.291740
 30
0.0
  0
SPLINE
  5
223
100
AcDbEntity
  8
1
 62
7
100
AcDbSpline
 70
8
 71
3
 72
8
 73
4
 74
0
 40
0
 40
0
 40
0
 40
0
 40
1
 40
1
 40
1
 40
1
 10
1746.218300
 20
632.291740
 30
0.0
 10
1746.218300
 20
634.701160
 30
0.0
 10
1743.888900
 20
639.321950
 30
0.0
 10
1741.388600
 20
641.872150
 30
0.0
  0
SPLINE
  5
224
100
AcDbEntity
  8
1
 62
7
100
AcDbSpline
 70
8
 71
3
 72
8
 73
4
 74
0
 40
0
 40
0
 40
0
 40
0
 40
1
 40
1
 40
1
 40
1
 10
1741.388600
 20
641.872150
 30
0.0
 10
1737.005300
 20
646.342930
 30
0.0
 10
1734.355100
 20
647.044020
 30
0.0
 10
1721.885000
 20
647.031580
 30
0.0
  0
SPLINE
  5
225
100
AcDbEntity
  8
1
 62
7
100
AcDbSpline
 70
8
 71
3
 72
8
 73
4
 74
0
 40
0
 40
0
 40
0
 40
0
 40
1
 40
1
 40
1
 40
1
 10
1721.885000
 20
647.031580
 30
0.0
 10
1711.576100
 20
647.021280
 30
0.0
 10
1711.102100
 20
646.960080
 30
0.0
 10
1707.754100
 20
645.205170
 30
0.0
  0
SPLINE
  5
226
100
AcDbEntity
  8
1
 62
7
100
AcDbSpline
 70
8
 71
3
 72
8
 73
4
 74
0
 40
0
 40
0
 40
0
 40
0
 40
1
 40
1
 40
1
 40
1
 10
1707.754100
 20
645.205170
 30
0.0
 10
1700.525500
 20
641.416220
 30
0.0
 10
1697.794100
 20
635.066110
 30
0.0
 10
1698.365800
 20
623.378530
 30
0.0
  0
SPLINE
  5
227
100
AcDbEntity
  8
1
 62
7
100
AcDbSpline
 70
8
 71
3
 72
8
 73
4
 74
0
 40
0
 40
0
 40
0
 40
0
 40
1
 40
1
 40
1
 40
1
 10
1698.365800
 20
623.378530
 30
0.0
 10
1698.791100
 20
614.683860
 30
0.0
 10
1701.028400
 20
610.550140
 30
0.0
 10
1707.480600
 20
606.537480
 30
0.0
  0
SPLINE
  5
228
100
AcDbEntity
  8
1
 62
7
100
AcDbSpline
 70
8
 71
3
 72
8
 73
4
 74
0
 40
0
 40
0
 40
0
 40
0
 40
1
 40
1
 40
1
 40
1
 10
1707.480600
 20
606.537480
 30
0.0
 10
1709.652700
 20
605.186670
 30
0.0
 10
1710.969000
 20
605.009980
 30
0.0
 10
1721.106800
 20
604.708400
 30
0.0
  0
LWPOLYLINE
  5
229
100
AcDbEntity
  8
1
 62
7
100
AcDbPolyline
 90
3
 70
0
 10
1710.829500
 20
634.864100
 30
0.0
 10
1712.773900
 20
637.040340
 30
0.0
 10
1720.662800
 20
637.260000
 30
0.0
  0
SPLINE
  5
22a
100
AcDbEntity
  8
1
 62
7
100
AcDbSpline
 70
8
 71
3
 72
8
 73
4
 74
0
 40
0
 40
0
 40
0
 40
0
 40
1
 40
1
 40
1
 40
1
 10
1722.590300
 20
577.375560
 30
0.0
 10
1714.033400
 20
577.375560
 30
0.0
 10
1712.890200
 20
577.512910
 30
0.0
 10
1711.347600
 20
578.726280
 30
0.0
  0
SPLINE
  5
22b
100
AcDbEntity
  8
1
 62
7
100
AcDbSpline
 70
8
 71
3
 72
8
 73
4
 74
0
 40
0
 40
0
 40
0
 40
0
 40
1
 40
1
 40
1
 40
1
 10
1711.347600
 20
578.726280
 30
0.0
 10
1710.403200
 20
579.469180
 30
0.0
 10
1709.442500
 20
580.669180
 30
0.0
 10
1709.212800
 20
581.392950
 30
0.0
  0
SPLINE
  5
22c
100
AcDbEntity
  8
1
 62
7
100
AcDbSpline
 70
8
 71
3
 72
8
 73
4
 74
0
 40
0
 40
0
 40
0
 40
0
 40
1
 40
1
 40
1
 40
1
 10
1709.212800
 20
581.392950
 30
0.0
 10
1708.843800
 20
582.555440
 30
0.0
 10
1708.186700
 20
582.708890
 30
0.0
 10
1703.576900
 20
582.708890
 30
0.0
  0
LWPOLYLINE
  5
22d
100
AcDbEntity
  8
1
 62
7
100
AcDbPolyline
 90
9
 70
0
 10
1721.106800
 20
604.708400
 30
0.0
 10
1732.328600
 20
604.374580
 30
0.0
 10
1734.273500
 20
602.197890
 30
0.0
 10
1736.218300
 20
600.021190
 30
0.0
 10
1736.218300
 20
590.749660
 30
0.0
 10
1736.218300
 20
581.478130
 30
0.0
 10
1734.167000
 20
579.426840
 30
0.0
 10
1732.115800
 20
577.375560
 30
0.0
 10
1722.590300
 20
577.375560
 30
0.0
  0
SPLINE
  5
22e
100
AcDbEntity
  8
1
 62
7
100
AcDbSpline
 70
8
 71
3
 72
8
 73
4
 74
0
 40
0
 40
0
 40
0
 40
0
 40
1
 40
1
 40
1
 40
1
 10
1698.850900
 20
580.526540
 30
0.0
 10
1699.463900
 20
577.808550
 30
0.0
 10
1700.602300
 20
575.620760
 30
0.0
 10
1702.745200
 20
573.042230
 30
0.0
  0
SPLINE
  5
22f
100
AcDbEntity
  8
1
 62
7
100
AcDbSpline
 70
8
 71
3
 72
8
 73
4
 74
0
 40
0
 40
0
 40
0
 40
0
 40
1
 40
1
 40
1
 40
1
 10
1702.745200
 20
573.042230
 30
0.0
 10
1706.771700
 20
568.197110
 30
0.0
 10
1709.437200
 20
567.439310
 30
0.0
 10
1722.551700
 20
567.411340
 30
0.0
  0
SPLINE
  5
230
100
AcDbEntity
  8
1
 62
7
100
AcDbSpline
 70
8
 71
3
 72
8
 73
4
 74
0
 40
0
 40
0
 40
0
 40
0
 40
1
 40
1
 40
1
 40
1
 10
1722.551700
 20
567.411340
 30
0.0
 10
1732.407000
 20
567.390340
 30
0.0
 10
1733.471900
 20
567.508440
 30
0.0
 10
1736.551700
 20
568.964420
 30
0.0
  0
LWPOLYLINE
  5
231
100
AcDbEntity
  8
1
 62
7
100
AcDbPolyline
 90
3
 70
0
 10
1703.576900
 20
582.708890
 30
0.0
 10
1698.358700
 20
582.708890
 30
0.0
 10
1698.850900
 20
580.526540
 30
0.0
  0
SPLINE
  5
232
100
AcDbEntity
  8
1
 62
7
100
AcDbSpline
 70
8
 71
3
 72
8
 73
4
 74
0
 40
0
 40
0
 40
0
 40
0
 40
1
 40
1
 40
1
 40
1
 10
1639.329400
 20
565.153850
 30
0.0
 10
1639.085000
 20
565.398290
 30
0.0
 10
1638.885000
 20
584.448290
 30
0.0
 10
1638.885000
 20
607.487180
 30
0.0
  0
LWPOLYLINE
  5
233
100
AcDbEntity
  8
1
 62
7
100
AcDbPolyline
 90
2
 70
0
 10
1736.551700
 20
568.964420
 30
0.0
 10
1736.551700
 20
568.964930
 30
0.0
  0
SPLINE
  5
234
100
AcDbEntity
  8
1
 62
7
100
AcDbSpline
 70
8
 71
3
 72
8
 73
4
 74
0
 40
0
 40
0
 40
0
 40
0
 40
1
 40
1
 40
1
 40
1
 10
1654.764000
 20
649.376070
 30
0.0
 10
1666.983800
 20
649.376070
 30
0.0
 10
1671.424100
 20
649.144110
 30
0.0
 10
1674.032600
 20
648.369480
 30
0.0
  0
SPLINE
  5
235
100
AcDbEntity
  8
1
 62
7
100
AcDbSpline
 70
8
 71
3
 72
8
 73
4
 74
0
 40
0
 40
0
 40
0
 40
0
 40
1
 40
1
 40
1
 40
1
 10
1674.032600
 20
648.369480
 30
0.0
 10
1678.524500
 20
647.035510
 30
0.0
 10
1683.548100
 20
642.497840
 30
0.0
 10
1685.627800
 20
637.895690
 30
0.0
  0
SPLINE
  5
236
100
AcDbEntity
  8
1
 62
7
100
AcDbSpline
 70
8
 71
3
 72
8
 73
4
 74
0
 40
0
 40
0
 40
0
 40
0
 40
1
 40
1
 40
1
 40
1
 10
1685.627800
 20
637.895690
 30
0.0
 10
1687.091100
 20
634.657520
 30
0.0
 10
1687.218300
 20
633.523100
 30
0.0
 10
1687.218300
 20
623.709400
 30
0.0
  0
SPLINE
  5
237
100
AcDbEntity
  8
1
 62
7
100
AcDbSpline
 70
8
 71
3
 72
8
 73
4
 74
0
 40
0
 40
0
 40
0
 40
0
 40
1
 40
1
 40
1
 40
1
 10
1687.218300
 20
623.709400
 30
0.0
 10
1687.218300
 20
613.900640
 30
0.0
 10
1687.090600
 20
612.760160
 30
0.0
 10
1685.630500
 20
609.529330
 30
0.0
  0
SPLINE
  5
238
100
AcDbEntity
  8
1
 62
7
100
AcDbSpline
 70
8
 71
3
 72
8
 73
4
 74
0
 40
0
 40
0
 40
0
 40
0
 40
1
 40
1
 40
1
 40
1
 10
1685.630500
 20
609.529330
 30
0.0
 10
1684.638200
 20
607.333890
 30
0.0
 10
1682.649100
 20
604.742350
 30
0.0
 10
1680.327900
 20
602.620880
 30
0.0
  0
LWPOLYLINE
  5
239
100
AcDbEntity
  8
1
 62
7
100
AcDbPolyline
 90
3
 70
0
 10
1638.885000
 20
607.487180
 30
0.0
 10
1638.885000
 20
649.376070
 30
0.0
 10
1654.764000
 20
649.376070
 30
0.0
  0
SPLINE
  5
23a
100
AcDbEntity
  8
1
 62
7
100
AcDbSpline
 70
8
 71
3
 72
8
 73
4
 74
0
 40
0
 40
0
 40
0
 40
0
 40
1
 40
1
 40
1
 40
1
 10
1678.352300
 20
594.467620
 30
0.0
 10
1679.308800
 20
591.850600
 30
0.0
 10
1682.128700
 20
584.363430
 30
0.0
 10
1684.618800
 20
577.829460
 30
0.0
  0
SPLINE
  5
23b
100
AcDbEntity
  8
1
 62
7
100
AcDbSpline
 70
8
 71
3
 72
8
 73
4
 74
0
 40
0
 40
0
 40
0
 40
0
 40
1
 40
1
 40
1
 40
1
 10
1684.618800
 20
577.829460
 30
0.0
 10
1688.382500
 20
567.953370
 30
0.0
 10
1688.983600
 20
565.846660
 30
0.0
 10
1688.182300
 20
565.339670
 30
0.0
  0
SPLINE
  5
23c
100
AcDbEntity
  8
1
 62
7
100
AcDbSpline
 70
8
 71
3
 72
8
 73
4
 74
0
 40
0
 40
0
 40
0
 40
0
 40
1
 40
1
 40
1
 40
1
 10
1688.182300
 20
565.339670
 30
0.0
 10
1687.036900
 20
564.615040
 30
0.0
 10
1675.546600
 20
564.514420
 30
0.0
 10
1674.471800
 20
565.219610
 30
0.0
  0
SPLINE
  5
23d
100
AcDbEntity
  8
1
 62
7
100
AcDbSpline
 70
8
 71
3
 72
8
 73
4
 74
0
 40
0
 40
0
 40
0
 40
0
 40
1
 40
1
 40
1
 40
1
 10
1674.471800
 20
565.219610
 30
0.0
 10
1673.774300
 20
565.677190
 30
0.0
 10
1670.921200
 20
572.787870
 30
0.0
 10
1664.816800
 20
589.282100
 30
0.0
  0
SPLINE
  5
23e
100
AcDbEntity
  8
1
 62
7
100
AcDbSpline
 70
8
 71
3
 72
8
 73
4
 74
0
 40
0
 40
0
 40
0
 40
0
 40
1
 40
1
 40
1
 40
1
 10
1664.816800
 20
589.282100
 30
0.0
 10
1663.411100
 20
593.080410
 30
0.0
 10
1661.903400
 20
596.618950
 30
0.0
 10
1661.466400
 20
597.145520
 30
0.0
  0
SPLINE
  5
23f
100
AcDbEntity
  8
1
 62
7
100
AcDbSpline
 70
8
 71
3
 72
8
 73
4
 74
0
 40
0
 40
0
 40
0
 40
0
 40
1
 40
1
 40
1
 40
1
 10
1661.466400
 20
597.145520
 30
0.0
 10
1660.907800
 20
597.818570
 30
0.0
 10
1659.565000
 20
598.044480
 30
0.0
 10
1656.945100
 20
597.906160
 30
0.0
  0
LWPOLYLINE
  5
240
100
AcDbEntity
  8
1
 62
7
100
AcDbPolyline
 90
3
 70
0
 10
1680.327900
 20
602.620880
 30
0.0
 10
1676.613200
 20
599.225830
 30
0.0
 10
1678.352300
 20
594.467620
 30
0.0
  0
SPLINE
  5
241
100
AcDbEntity
  8
1
 62
7
100
AcDbSpline
 70
8
 71
3
 72
8
 73
4
 74
0
 40
0
 40
0
 40
0
 40
0
 40
1
 40
1
 40
1
 40
1
 10
1653.039300
 20
581.741100
 30
0.0
 10
1652.907500
 20
569.986550
 30
0.0
 10
1652.643600
 20
565.635180
 30
0.0
 10
1652.039300
 20
565.251300
 30
0.0
  0
SPLINE
  5
242
100
AcDbEntity
  8
1
 62
7
100
AcDbSpline
 70
8
 71
3
 72
8
 73
4
 74
0
 40
0
 40
0
 40
0
 40
0
 40
1
 40
1
 40
1
 40
1
 10
1652.039300
 20
565.251300
 30
0.0
 10
1651.039400
 20
564.616190
 30
0.0
 10
1639.952100
 20
564.531180
 30
0.0
 10
1639.329400
 20
565.153800
 30
0.0
  0
LWPOLYLINE
  5
243
100
AcDbEntity
  8
1
 62
7
100
AcDbPolyline
 90
3
 70
0
 10
1656.945100
 20
597.906160
 30
0.0
 10
1653.218300
 20
597.709400
 30
0.0
 10
1653.039300
 20
581.741100
 30
0.0
  0
SPLINE
  5
244
100
AcDbEntity
  8
1
 62
7
100
AcDbSpline
 70
8
 71
3
 72
8
 73
4
 74
0
 40
0
 40
0
 40
0
 40
0
 40
1
 40
1
 40
1
 40
1
 10
1650.885000
 20
582.909400
 30
0.0
 10
1650.885000
 20
594.102000
 30
0.0
 10
1651.108500
 20
598.666300
 30
0.0
 10
1651.685000
 20
599.242740
 30
0.0
  0
SPLINE
  5
245
100
AcDbEntity
  8
1
 62
7
100
AcDbSpline
 70
8
 71
3
 72
8
 73
4
 74
0
 40
0
 40
0
 40
0
 40
0
 40
1
 40
1
 40
1
 40
1
 10
1651.685000
 20
599.242740
 30
0.0
 10
1652.157900
 20
599.715670
 30
0.0
 10
1654.432400
 20
600.042740
 30
0.0
 10
1657.248300
 20
600.042740
 30
0.0
  0
SPLINE
  5
246
100
AcDbEntity
  8
1
 62
7
100
AcDbSpline
 70
8
 71
3
 72
8
 73
4
 74
0
 40
0
 40
0
 40
0
 40
0
 40
1
 40
1
 40
1
 40
1
 10
1657.248300
 20
600.042740
 30
0.0
 10
1660.961600
 20
600.042740
 30
0.0
 10
1662.230900
 20
599.785540
 30
0.0
 10
1663.006100
 20
598.876070
 30
0.0
  0
SPLINE
  5
247
100
AcDbEntity
  8
1
 62
7
100
AcDbSpline
 70
8
 71
3
 72
8
 73
4
 74
0
 40
0
 40
0
 40
0
 40
0
 40
1
 40
1
 40
1
 40
1
 10
1663.006100
 20
598.876070
 30
0.0
 10
1663.953400
 20
597.764750
 30
0.0
 10
1670.788200
 20
580.389520
 30
0.0
 10
1673.758100
 20
571.542740
 30
0.0
  0
LWPOLYLINE
  5
248
100
AcDbEntity
  8
1
 62
7
100
AcDbPolyline
 90
1
 70
1
 10
1639.329400
 20
565.153800
 30
0.0
  0
SPLINE
  5
249
100
AcDbEntity
  8
1
 62
7
100
AcDbSpline
 70
8
 71
3
 72
8
 73
4
 74
0
 40
0
 40
0
 40
0
 40
0
 40
1
 40
1
 40
1
 40
1
 10
1684.642700
 20
571.542740
 30
0.0
 10
1683.788200
 20
573.834400
 30
0.0
 10
1681.243200
 20
580.610760
 30
0.0
 10
1678.987100
 20
586.601320
 30
0.0
  0
SPLINE
  5
24a
100
AcDbEntity
  8
1
 62
7
100
AcDbSpline
 70
8
 71
3
 72
8
 73
4
 74
0
 40
0
 40
0
 40
0
 40
0
 40
1
 40
1
 40
1
 40
1
 10
1678.987100
 20
586.601320
 30
0.0
 10
1676.730900
 20
592.591870
 30
0.0
 10
1674.885000
 20
598.362610
 30
0.0
 10
1674.885000
 20
599.425190
 30
0.0
  0
SPLINE
  5
24b
100
AcDbEntity
  8
1
 62
7
100
AcDbSpline
 70
8
 71
3
 72
8
 73
4
 74
0
 40
0
 40
0
 40
0
 40
0
 40
1
 40
1
 40
1
 40
1
 10
1674.885000
 20
599.425190
 30
0.0
 10
1674.885000
 20
600.933920
 30
0.0
 10
1675.457300
 20
601.735910
 30
0.0
 10
1677.497600
 20
603.086090
 30
0.0
  0
SPLINE
  5
24c
100
AcDbEntity
  8
1
 62
7
100
AcDbSpline
 70
8
 71
3
 72
8
 73
4
 74
0
 40
0
 40
0
 40
0
 40
0
 40
1
 40
1
 40
1
 40
1
 10
1677.497600
 20
603.086090
 30
0.0
 10
1680.230600
 20
604.894700
 30
0.0
 10
1682.985300
 20
608.398180
 30
0.0
 10
1684.181100
 20
611.586140
 30
0.0
  0
SPLINE
  5
24d
100
AcDbEntity
  8
1
 62
7
100
AcDbSpline
 70
8
 71
3
 72
8
 73
4
 74
0
 40
0
 40
0
 40
0
 40
0
 40
1
 40
1
 40
1
 40
1
 10
1684.181100
 20
611.586140
 30
0.0
 10
1684.568200
 20
612.618340
 30
0.0
 10
1684.878400
 20
618.168340
 30
0.0
 10
1684.870400
 20
623.919470
 30
0.0
  0
SPLINE
  5
24e
100
AcDbEntity
  8
1
 62
7
100
AcDbSpline
 70
8
 71
3
 72
8
 73
4
 74
0
 40
0
 40
0
 40
0
 40
0
 40
1
 40
1
 40
1
 40
1
 10
1684.870400
 20
623.919470
 30
0.0
 10
1684.854400
 20
635.627210
 30
0.0
 10
1684.288300
 20
637.783550
 30
0.0
 10
1680.133000
 20
641.979300
 30
0.0
  0
SPLINE
  5
24f
100
AcDbEntity
  8
1
 62
7
100
AcDbSpline
 70
8
 71
3
 72
8
 73
4
 74
0
 40
0
 40
0
 40
0
 40
0
 40
1
 40
1
 40
1
 40
1
 10
1680.133000
 20
641.979300
 30
0.0
 10
1675.476000
 20
646.681590
 30
0.0
 10
1673.770300
 20
647.042740
 30
0.0
 10
1656.218300
 20
647.042740
 30
0.0
  0
LWPOLYLINE
  5
250
100
AcDbEntity
  8
1
 62
7
100
AcDbPolyline
 90
5
 70
0
 10
1673.758100
 20
571.542740
 30
0.0
 10
1675.156800
 20
567.376070
 30
0.0
 10
1680.676600
 20
567.376070
 30
0.0
 10
1686.196300
 20
567.376070
 30
0.0
 10
1684.642700
 20
571.542740
 30
0.0
  0
SPLINE
  5
251
100
AcDbEntity
  8
1
 62
7
100
AcDbSpline
 70
8
 71
3
 72
8
 73
4
 74
0
 40
0
 40
0
 40
0
 40
0
 40
1
 40
1
 40
1
 40
1
 10
1652.385000
 20
611.037890
 30
0.0
 10
1650.928400
 20
612.087090
 30
0.0
 10
1650.885000
 20
612.453620
 30
0.0
 10
1650.885000
 20
623.709400
 30
0.0
  0
SPLINE
  5
252
100
AcDbEntity
  8
1
 62
7
100
AcDbSpline
 70
8
 71
3
 72
8
 73
4
 74
0
 40
0
 40
0
 40
0
 40
0
 40
1
 40
1
 40
1
 40
1
 10
1650.885000
 20
623.709400
 30
0.0
 10
1650.885000
 20
637.999510
 30
0.0
 10
1650.421100
 20
637.376070
 30
0.0
 10
1661.054700
 20
637.376070
 30
0.0
  0
SPLINE
  5
253
100
AcDbEntity
  8
1
 62
7
100
AcDbSpline
 70
8
 71
3
 72
8
 73
4
 74
0
 40
0
 40
0
 40
0
 40
0
 40
1
 40
1
 40
1
 40
1
 10
1661.054700
 20
637.376070
 30
0.0
 10
1673.768100
 20
637.376070
 30
0.0
 10
1674.885000
 20
636.261280
 30
0.0
 10
1674.885000
 20
623.571580
 30
0.0
  0
SPLINE
  5
254
100
AcDbEntity
  8
1
 62
7
100
AcDbSpline
 70
8
 71
3
 72
8
 73
4
 74
0
 40
0
 40
0
 40
0
 40
0
 40
1
 40
1
 40
1
 40
1
 10
1674.885000
 20
623.571580
 30
0.0
 10
1674.885000
 20
614.745730
 30
0.0
 10
1674.885000
 20
614.726670
 30
0.0
 10
1672.940100
 20
612.553250
 30
0.0
  0
LWPOLYLINE
  5
255
100
AcDbEntity
  8
1
 62
7
100
AcDbPolyline
 90
7
 70
0
 10
1656.218300
 20
647.042740
 30
0.0
 10
1640.551700
 20
647.042740
 30
0.0
 10
1640.379700
 20
607.209400
 30
0.0
 10
1640.207800
 20
567.376070
 30
0.0
 10
1645.546400
 20
567.376070
 30
0.0
 10
1650.885000
 20
567.376070
 30
0.0
 10
1650.885000
 20
582.909400
 30
0.0
  0
SPLINE
  5
256
100
AcDbEntity
  8
1
 62
7
100
AcDbSpline
 70
8
 71
3
 72
8
 73
4
 74
0
 40
0
 40
0
 40
0
 40
0
 40
1
 40
1
 40
1
 40
1
 10
1662.440100
 20
610.166750
 30
0.0
 10
1655.380200
 20
609.994020
 30
0.0
 10
1653.622800
 20
610.146250
 30
0.0
 10
1652.385000
 20
611.037890
 30
0.0
  0
LWPOLYLINE
  5
257
100
AcDbEntity
  8
1
 62
7
100
AcDbPolyline
 90
3
 70
0
 10
1672.940100
 20
612.553250
 30
0.0
 10
1670.995200
 20
610.376070
 30
0.0
 10
1662.440100
 20
610.166750
 30
0.0
  0
SPLINE
  5
258
100
AcDbEntity
  8
1
 62
7
100
AcDbSpline
 70
8
 71
3
 72
8
 73
4
 74
0
 40
0
 40
0
 40
0
 40
0
 40
1
 40
1
 40
1
 40
1
 10
1671.342000
 20
614.158950
 30
0.0
 10
1672.784200
 20
615.513820
 30
0.0
 10
1672.885000
 20
616.117500
 30
0.0
 10
1672.885000
 20
623.402370
 30
0.0
  0
SPLINE
  5
259
100
AcDbEntity
  8
1
 62
7
100
AcDbSpline
 70
8
 71
3
 72
8
 73
4
 74
0
 40
0
 40
0
 40
0
 40
0
 40
1
 40
1
 40
1
 40
1
 10
1672.885000
 20
623.402370
 30
0.0
 10
1672.885000
 20
630.305220
 30
0.0
 10
1672.725300
 20
631.399300
 30
0.0
 10
1671.488000
 20
632.972270
 30
0.0
  0
LWPOLYLINE
  5
25a
100
AcDbEntity
  8
1
 62
7
100
AcDbPolyline
 90
1
 70
1
 10
1652.385000
 20
611.037890
 30
0.0
  0
SPLINE
  5
25b
100
AcDbEntity
  8
1
 62
7
100
AcDbSpline
 70
8
 71
3
 72
8
 73
4
 74
0
 40
0
 40
0
 40
0
 40
0
 40
1
 40
1
 40
1
 40
1
 10
1653.033000
 20
624.405360
 30
0.0
 10
1652.931100
 20
618.921470
 30
0.0
 10
1652.997000
 20
614.046470
 30
0.0
 10
1653.178800
 20
613.572030
 30
0.0
  0
SPLINE
  5
25c
100
AcDbEntity
  8
1
 62
7
100
AcDbSpline
 70
8
 71
3
 72
8
 73
4
 74
0
 40
0
 40
0
 40
0
 40
0
 40
1
 40
1
 40
1
 40
1
 10
1653.178800
 20
613.572030
 30
0.0
 10
1653.424600
 20
612.931440
 30
0.0
 10
1655.606200
 20
612.709400
 30
0.0
 10
1661.654400
 20
612.709400
 30
0.0
  0
SPLINE
  5
25d
100
AcDbEntity
  8
1
 62
7
100
AcDbSpline
 70
8
 71
3
 72
8
 73
4
 74
0
 40
0
 40
0
 40
0
 40
0
 40
1
 40
1
 40
1
 40
1
 10
1661.654400
 20
612.709400
 30
0.0
 10
1669.099200
 20
612.709400
 30
0.0
 10
1669.931600
 20
612.833970
 30
0.0
 10
1671.342000
 20
614.158950
 30
0.0
  0
LWPOLYLINE
  5
25e
100
AcDbEntity
  8
1
 62
7
100
AcDbPolyline
 90
5
 70
0
 10
1671.488000
 20
632.972270
 30
0.0
 10
1670.091000
 20
634.748290
 30
0.0
 10
1661.654600
 20
634.562180
 30
0.0
 10
1653.218300
 20
634.376070
 30
0.0
 10
1653.033000
 20
624.405360
 30
0.0
  0
SPLINE
  5
25f
100
AcDbEntity
  8
1
 62
7
100
AcDbSpline
 70
8
 71
3
 72
8
 73
4
 74
0
 40
0
 40
0
 40
0
 40
0
 40
1
 40
1
 40
1
 40
1
 10
1523.713200
 20
565.248870
 30
0.0
 10
1523.051500
 20
565.679430
 30
0.0
 10
1522.911000
 20
574.566150
 30
0.0
 10
1523.046600
 20
607.418560
 30
0.0
  0
LWPOLYLINE
  5
260
100
AcDbEntity
  8
1
 62
7
100
AcDbPolyline
 90
1
 70
1
 10
1671.342000
 20
614.158950
 30
0.0
  0
SPLINE
  5
261
100
AcDbEntity
  8
1
 62
7
100
AcDbSpline
 70
8
 71
3
 72
8
 73
4
 74
0
 40
0
 40
0
 40
0
 40
0
 40
1
 40
1
 40
1
 40
1
 10
1539.885000
 20
649.042740
 30
0.0
 10
1554.373800
 20
649.042740
 30
0.0
 10
1556.960400
 20
648.885020
 30
0.0
 10
1559.679500
 20
647.835780
 30
0.0
  0
SPLINE
  5
262
100
AcDbEntity
  8
1
 62
7
100
AcDbSpline
 70
8
 71
3
 72
8
 73
4
 74
0
 40
0
 40
0
 40
0
 40
0
 40
1
 40
1
 40
1
 40
1
 10
1559.679500
 20
647.835780
 30
0.0
 10
1563.601700
 20
646.322270
 30
0.0
 10
1567.511700
 20
642.573660
 30
0.0
 10
1569.605500
 20
638.319650
 30
0.0
  0
SPLINE
  5
263
100
AcDbEntity
  8
1
 62
7
100
AcDbSpline
 70
8
 71
3
 72
8
 73
4
 74
0
 40
0
 40
0
 40
0
 40
0
 40
1
 40
1
 40
1
 40
1
 10
1569.605500
 20
638.319650
 30
0.0
 10
1571.136000
 20
635.210090
 30
0.0
 10
1571.218300
 20
634.410470
 30
0.0
 10
1571.218300
 20
622.662270
 30
0.0
  0
LWPOLYLINE
  5
264
100
AcDbEntity
  8
1
 62
7
100
AcDbPolyline
 90
3
 70
0
 10
1523.046600
 20
607.418560
 30
0.0
 10
1523.218300
 20
649.042740
 30
0.0
 10
1539.885000
 20
649.042740
 30
0.0
  0
SPLINE
  5
265
100
AcDbEntity
  8
1
 62
7
100
AcDbSpline
 70
8
 71
3
 72
8
 73
4
 74
0
 40
0
 40
0
 40
0
 40
0
 40
1
 40
1
 40
1
 40
1
 10
1569.206500
 20
606.347960
 30
0.0
 10
1566.975200
 20
601.985090
 30
0.0
 10
1562.474400
 20
598.063310
 30
0.0
 10
1558.243900
 20
596.795830
 30
0.0
  0
SPLINE
  5
266
100
AcDbEntity
  8
1
 62
7
100
AcDbSpline
 70
8
 71
3
 72
8
 73
4
 74
0
 40
0
 40
0
 40
0
 40
0
 40
1
 40
1
 40
1
 40
1
 10
1558.243900
 20
596.795830
 30
0.0
 10
1556.861400
 20
596.381630
 30
0.0
 10
1551.865100
 20
596.038140
 30
0.0
 10
1547.141000
 20
596.032530
 30
0.0
  0
SPLINE
  5
267
100
AcDbEntity
  8
1
 62
7
100
AcDbSpline
 70
8
 71
3
 72
8
 73
4
 74
0
 40
0
 40
0
 40
0
 40
0
 40
1
 40
1
 40
1
 40
1
 10
1547.141000
 20
596.032530
 30
0.0
 10
1542.416900
 20
596.026530
 30
0.0
 10
1538.182600
 20
595.787860
 30
0.0
 10
1537.731400
 20
595.501290
 30
0.0
  0
SPLINE
  5
268
100
AcDbEntity
  8
1
 62
7
100
AcDbSpline
 70
8
 71
3
 72
8
 73
4
 74
0
 40
0
 40
0
 40
0
 40
0
 40
1
 40
1
 40
1
 40
1
 10
1537.731400
 20
595.501290
 30
0.0
 10
1537.131200
 20
595.119990
 30
0.0
 10
1536.863000
 20
590.965970
 30
0.0
 10
1536.731400
 20
580.011500
 30
0.0
  0
LWPOLYLINE
  5
269
100
AcDbEntity
  8
1
 62
7
100
AcDbPolyline
 90
3
 70
0
 10
1571.218300
 20
622.662270
 30
0.0
 10
1571.218300
 20
610.281800
 30
0.0
 10
1569.206500
 20
606.347960
 30
0.0
  0
SPLINE
  5
26a
100
AcDbEntity
  8
1
 62
7
100
AcDbSpline
 70
8
 71
3
 72
8
 73
4
 74
0
 40
0
 40
0
 40
0
 40
0
 40
1
 40
1
 40
1
 40
1
 10
1530.551700
 20
564.873050
 30
0.0
 10
1527.251700
 20
564.779750
 30
0.0
 10
1524.174400
 20
564.948850
 30
0.0
 10
1523.713200
 20
565.248870
 30
0.0
  0
LWPOLYLINE
  5
26b
100
AcDbEntity
  8
1
 62
7
100
AcDbPolyline
 90
3
 70
0
 10
1536.731400
 20
580.011500
 30
0.0
 10
1536.551700
 20
565.042740
 30
0.0
 10
1530.551700
 20
564.873050
 30
0.0
  0
SPLINE
  5
26c
100
AcDbEntity
  8
1
 62
7
100
AcDbSpline
 70
8
 71
3
 72
8
 73
4
 74
0
 40
0
 40
0
 40
0
 40
0
 40
1
 40
1
 40
1
 40
1
 10
1535.551700
 20
581.909400
 30
0.0
 10
1535.551700
 20
592.324220
 30
0.0
 10
1535.778400
 20
596.669450
 30
0.0
 10
1536.351700
 20
597.242740
 30
0.0
  0
SPLINE
  5
26d
100
AcDbEntity
  8
1
 62
7
100
AcDbSpline
 70
8
 71
3
 72
8
 73
4
 74
0
 40
0
 40
0
 40
0
 40
0
 40
1
 40
1
 40
1
 40
1
 10
1536.351700
 20
597.242740
 30
0.0
 10
1536.889300
 20
597.780430
 30
0.0
 10
1539.910000
 20
598.042740
 30
0.0
 10
1545.564000
 20
598.042740
 30
0.0
  0
SPLINE
  5
26e
100
AcDbEntity
  8
1
 62
7
100
AcDbSpline
 70
8
 71
3
 72
8
 73
4
 74
0
 40
0
 40
0
 40
0
 40
0
 40
1
 40
1
 40
1
 40
1
 10
1545.564000
 20
598.042740
 30
0.0
 10
1556.546900
 20
598.042740
 30
0.0
 10
1560.129400
 20
599.050240
 30
0.0
 10
1564.248500
 20
603.297400
 30
0.0
  0
SPLINE
  5
26f
100
AcDbEntity
  8
1
 62
7
100
AcDbSpline
 70
8
 71
3
 72
8
 73
4
 74
0
 40
0
 40
0
 40
0
 40
0
 40
1
 40
1
 40
1
 40
1
 10
1564.248500
 20
603.297400
 30
0.0
 10
1568.804600
 20
607.995090
 30
0.0
 10
1569.701600
 20
611.547750
 30
0.0
 10
1569.433700
 20
623.833590
 30
0.0
  0
SPLINE
  5
270
100
AcDbEntity
  8
1
 62
7
100
AcDbSpline
 70
8
 71
3
 72
8
 73
4
 74
0
 40
0
 40
0
 40
0
 40
0
 40
1
 40
1
 40
1
 40
1
 10
1569.433700
 20
623.833590
 30
0.0
 10
1569.227900
 20
633.270430
 30
0.0
 10
1569.129400
 20
633.885920
 30
0.0
 10
1567.218300
 20
637.680440
 30
0.0
  0
SPLINE
  5
271
100
AcDbEntity
  8
1
 62
7
100
AcDbSpline
 70
8
 71
3
 72
8
 73
4
 74
0
 40
0
 40
0
 40
0
 40
0
 40
1
 40
1
 40
1
 40
1
 10
1567.218300
 20
637.680440
 30
0.0
 10
1563.053700
 20
645.949340
 30
0.0
 10
1558.863800
 20
647.376070
 30
0.0
 10
1538.744900
 20
647.376070
 30
0.0
  0
LWPOLYLINE
  5
272
100
AcDbEntity
  8
1
 62
7
100
AcDbPolyline
 90
1
 70
1
 10
1523.713200
 20
565.248870
 30
0.0
  0
SPLINE
  5
273
100
AcDbEntity
  8
1
 62
7
100
AcDbSpline
 70
8
 71
3
 72
8
 73
4
 74
0
 40
0
 40
0
 40
0
 40
0
 40
1
 40
1
 40
1
 40
1
 10
1535.996100
 20
609.153850
 30
0.0
 10
1535.751700
 20
609.398290
 30
0.0
 10
1535.551700
 20
615.555720
 30
0.0
 10
1535.551700
 20
622.837020
 30
0.0
  0
LWPOLYLINE
  5
274
100
AcDbEntity
  8
1
 62
7
100
AcDbPolyline
 90
7
 70
0
 10
1538.744900
 20
647.376070
 30
0.0
 10
1524.885000
 20
647.376070
 30
0.0
 10
1524.885000
 20
607.376070
 30
0.0
 10
1524.885000
 20
567.376070
 30
0.0
 10
1530.218300
 20
567.376070
 30
0.0
 10
1535.551700
 20
567.376070
 30
0.0
 10
1535.551700
 20
581.909400
 30
0.0
  0
SPLINE
  5
275
100
AcDbEntity
  8
1
 62
7
100
AcDbSpline
 70
8
 71
3
 72
8
 73
4
 74
0
 40
0
 40
0
 40
0
 40
0
 40
1
 40
1
 40
1
 40
1
 10
1537.261700
 20
636.725900
 30
0.0
 10
1539.859400
 20
637.713520
 30
0.0
 10
1551.891400
 20
637.532590
 30
0.0
 10
1554.406400
 20
636.468080
 30
0.0
  0
SPLINE
  5
276
100
AcDbEntity
  8
1
 62
7
100
AcDbSpline
 70
8
 71
3
 72
8
 73
4
 74
0
 40
0
 40
0
 40
0
 40
0
 40
1
 40
1
 40
1
 40
1
 10
1554.406400
 20
636.468080
 30
0.0
 10
1558.567400
 20
634.706920
 30
0.0
 10
1559.174800
 20
633.362700
 30
0.0
 10
1559.450600
 20
625.304920
 30
0.0
  0
SPLINE
  5
277
100
AcDbEntity
  8
1
 62
7
100
AcDbSpline
 70
8
 71
3
 72
8
 73
4
 74
0
 40
0
 40
0
 40
0
 40
0
 40
1
 40
1
 40
1
 40
1
 10
1559.450600
 20
625.304920
 30
0.0
 10
1559.778100
 20
615.736590
 30
0.0
 10
1559.232800
 20
612.301410
 30
0.0
 10
1557.068000
 20
610.295130
 30
0.0
  0
SPLINE
  5
278
100
AcDbEntity
  8
1
 62
7
100
AcDbSpline
 70
8
 71
3
 72
8
 73
4
 74
0
 40
0
 40
0
 40
0
 40
0
 40
1
 40
1
 40
1
 40
1
 10
1557.068000
 20
610.295130
 30
0.0
 10
1555.433300
 20
608.780190
 30
0.0
 10
1554.934800
 20
608.709400
 30
0.0
 10
1545.898800
 20
608.709400
 30
0.0
  0
SPLINE
  5
279
100
AcDbEntity
  8
1
 62
7
100
AcDbSpline
 70
8
 71
3
 72
8
 73
4
 74
0
 40
0
 40
0
 40
0
 40
0
 40
1
 40
1
 40
1
 40
1
 10
1545.898800
 20
608.709400
 30
0.0
 10
1540.696700
 20
608.709400
 30
0.0
 10
1536.240500
 20
608.909400
 30
0.0
 10
1535.996100
 20
609.153850
 30
0.0
  0
LWPOLYLINE
  5
27a
100
AcDbEntity
  8
1
 62
7
100
AcDbPolyline
 90
3
 70
0
 10
1535.551700
 20
622.837020
 30
0.0
 10
1535.551700
 20
636.075740
 30
0.0
 10
1537.261700
 20
636.725900
 30
0.0
  0
SPLINE
  5
27b
100
AcDbEntity
  8
1
 62
7
100
AcDbSpline
 70
8
 71
3
 72
8
 73
4
 74
0
 40
0
 40
0
 40
0
 40
0
 40
1
 40
1
 40
1
 40
1
 10
1555.612000
 20
611.949930
 30
0.0
 10
1556.728200
 20
613.329970
 30
0.0
 10
1556.885000
 20
614.664050
 30
0.0
 10
1556.885000
 20
622.783260
 30
0.0
  0
SPLINE
  5
27c
100
AcDbEntity
  8
1
 62
7
100
AcDbSpline
 70
8
 71
3
 72
8
 73
4
 74
0
 40
0
 40
0
 40
0
 40
0
 40
1
 40
1
 40
1
 40
1
 10
1556.885000
 20
622.783260
 30
0.0
 10
1556.885000
 20
635.142800
 30
0.0
 10
1557.196000
 20
634.815280
 30
0.0
 10
1545.698600
 20
634.562510
 30
0.0
  0
LWPOLYLINE
  5
27d
100
AcDbEntity
  8
1
 62
7
100
AcDbPolyline
 90
1
 70
1
 10
1535.996100
 20
609.153850
 30
0.0
  0
SPLINE
  5
27e
100
AcDbEntity
  8
1
 62
7
100
AcDbSpline
 70
8
 71
3
 72
8
 73
4
 74
0
 40
0
 40
0
 40
0
 40
0
 40
1
 40
1
 40
1
 40
1
 10
1537.035200
 20
623.130900
 30
0.0
 10
1536.903700
 20
615.060690
 30
0.0
 10
1537.080200
 20
611.610600
 30
0.0
 10
1537.660800
 20
610.911270
 30
0.0
  0
SPLINE
  5
27f
100
AcDbEntity
  8
1
 62
7
100
AcDbSpline
 70
8
 71
3
 72
8
 73
4
 74
0
 40
0
 40
0
 40
0
 40
0
 40
1
 40
1
 40
1
 40
1
 10
1537.660800
 20
610.911270
 30
0.0
 10
1538.307400
 20
610.132070
 30
0.0
 10
1540.059400
 20
609.980820
 30
0.0
 10
1546.404300
 20
610.156440
 30
0.0
  0
SPLINE
  5
280
100
AcDbEntity
  8
1
 62
7
100
AcDbSpline
 70
8
 71
3
 72
8
 73
4
 74
0
 40
0
 40
0
 40
0
 40
0
 40
1
 40
1
 40
1
 40
1
 10
1546.404300
 20
610.156440
 30
0.0
 10
1553.806100
 20
610.361320
 30
0.0
 10
1554.424500
 20
610.481770
 30
0.0
 10
1555.612000
 20
611.949930
 30
0.0
  0
LWPOLYLINE
  5
281
100
AcDbEntity
  8
1
 62
7
100
AcDbPolyline
 90
3
 70
0
 10
1545.698600
 20
634.562510
 30
0.0
 10
1537.218300
 20
634.376070
 30
0.0
 10
1537.035200
 20
623.130900
 30
0.0
  0
SPLINE
  5
282
100
AcDbEntity
  8
1
 62
7
100
AcDbSpline
 70
8
 71
3
 72
8
 73
4
 74
0
 40
0
 40
0
 40
0
 40
0
 40
1
 40
1
 40
1
 40
1
 10
1477.366700
 20
565.362010
 30
0.0
 10
1471.352900
 20
566.448530
 30
0.0
 10
1466.087200
 20
570.619940
 30
0.0
 10
1463.463200
 20
576.376070
 30
0.0
  0
SPLINE
  5
283
100
AcDbEntity
  8
1
 62
7
100
AcDbSpline
 70
8
 71
3
 72
8
 73
4
 74
0
 40
0
 40
0
 40
0
 40
0
 40
1
 40
1
 40
1
 40
1
 10
1463.463200
 20
576.376070
 30
0.0
 10
1462.350200
 20
578.817650
 30
0.0
 10
1462.246400
 20
581.371520
 30
0.0
 10
1462.233000
 20
606.632060
 30
0.0
  0
SPLINE
  5
284
100
AcDbEntity
  8
1
 62
7
100
AcDbSpline
 70
8
 71
3
 72
8
 73
4
 74
0
 40
0
 40
0
 40
0
 40
0
 40
1
 40
1
 40
1
 40
1
 10
1462.233000
 20
606.632060
 30
0.0
 10
1462.223000
 20
626.312170
 30
0.0
 10
1462.449700
 20
635.008020
 30
0.0
 10
1463.025600
 20
636.965390
 30
0.0
  0
SPLINE
  5
285
100
AcDbEntity
  8
1
 62
7
100
AcDbSpline
 70
8
 71
3
 72
8
 73
4
 74
0
 40
0
 40
0
 40
0
 40
0
 40
1
 40
1
 40
1
 40
1
 10
1463.025600
 20
636.965390
 30
0.0
 10
1464.291300
 20
641.267690
 30
0.0
 10
1470.375300
 20
646.996840
 30
0.0
 10
1475.153400
 20
648.385870
 30
0.0
  0
SPLINE
  5
286
100
AcDbEntity
  8
1
 62
7
100
AcDbSpline
 70
8
 71
3
 72
8
 73
4
 74
0
 40
0
 40
0
 40
0
 40
0
 40
1
 40
1
 40
1
 40
1
 10
1475.153400
 20
648.385870
 30
0.0
 10
1480.944300
 20
650.069340
 30
0.0
 10
1498.690800
 20
649.584060
 30
0.0
 10
1502.885000
 20
647.627550
 30
0.0
  0
SPLINE
  5
287
100
AcDbEntity
  8
1
 62
7
100
AcDbSpline
 70
8
 71
3
 72
8
 73
4
 74
0
 40
0
 40
0
 40
0
 40
0
 40
1
 40
1
 40
1
 40
1
 10
1502.885000
 20
647.627550
 30
0.0
 10
1506.786700
 20
645.807420
 30
0.0
 10
1510.649700
 20
641.965370
 30
0.0
 10
1512.449100
 20
638.115000
 30
0.0
  0
SPLINE
  5
288
100
AcDbEntity
  8
1
 62
7
100
AcDbSpline
 70
8
 71
3
 72
8
 73
4
 74
0
 40
0
 40
0
 40
0
 40
0
 40
1
 40
1
 40
1
 40
1
 10
1512.449100
 20
638.115000
 30
0.0
 10
1513.845900
 20
635.126470
 30
0.0
 10
1513.885000
 20
634.297800
 30
0.0
 10
1513.885000
 20
607.709400
 30
0.0
  0
SPLINE
  5
289
100
AcDbEntity
  8
1
 62
7
100
AcDbSpline
 70
8
 71
3
 72
8
 73
4
 74
0
 40
0
 40
0
 40
0
 40
0
 40
1
 40
1
 40
1
 40
1
 10
1513.885000
 20
607.709400
 30
0.0
 10
1513.885000
 20
576.868930
 30
0.0
 10
1513.832000
 20
576.486470
 30
0.0
 10
1508.765800
 20
570.990690
 30
0.0
  0
SPLINE
  5
28a
100
AcDbEntity
  8
1
 62
7
100
AcDbSpline
 70
8
 71
3
 72
8
 73
4
 74
0
 40
0
 40
0
 40
0
 40
0
 40
1
 40
1
 40
1
 40
1
 10
1508.765800
 20
570.990690
 30
0.0
 10
1504.484900
 20
566.346460
 30
0.0
 10
1500.835300
 20
565.182430
 30
0.0
 10
1489.885000
 20
564.968730
 30
0.0
  0
SPLINE
  5
28b
100
AcDbEntity
  8
1
 62
7
100
AcDbSpline
 70
8
 71
3
 72
8
 73
4
 74
0
 40
0
 40
0
 40
0
 40
0
 40
1
 40
1
 40
1
 40
1
 10
1489.885000
 20
564.968730
 30
0.0
 10
1484.751700
 20
564.868550
 30
0.0
 10
1479.118400
 20
565.045530
 30
0.0
 10
1477.366700
 20
565.362010
 30
0.0
  0
LWPOLYLINE
  5
28c
100
AcDbEntity
  8
1
 62
7
100
AcDbPolyline
 90
1
 70
1
 10
1555.612000
 20
611.949930
 30
0.0
  0
SPLINE
  5
28d
100
AcDbEntity
  8
1
 62
7
100
AcDbSpline
 70
8
 71
3
 72
8
 73
4
 74
0
 40
0
 40
0
 40
0
 40
0
 40
1
 40
1
 40
1
 40
1
 10
1501.026100
 20
568.413700
 30
0.0
 10
1504.486800
 20
569.592900
 30
0.0
 10
1508.340700
 20
573.121600
 30
0.0
 10
1510.450300
 20
577.042740
 30
0.0
  0
SPLINE
  5
28e
100
AcDbEntity
  8
1
 62
7
100
AcDbSpline
 70
8
 71
3
 72
8
 73
4
 74
0
 40
0
 40
0
 40
0
 40
0
 40
1
 40
1
 40
1
 40
1
 10
1510.450300
 20
577.042740
 30
0.0
 10
1511.834500
 20
579.615470
 30
0.0
 10
1511.892700
 20
580.601760
 30
0.0
 10
1512.104400
 20
605.042740
 30
0.0
  0
SPLINE
  5
28f
100
AcDbEntity
  8
1
 62
7
100
AcDbSpline
 70
8
 71
3
 72
8
 73
4
 74
0
 40
0
 40
0
 40
0
 40
0
 40
1
 40
1
 40
1
 40
1
 10
1512.104400
 20
605.042740
 30
0.0
 10
1512.249100
 20
621.747650
 30
0.0
 10
1512.075400
 20
631.512590
 30
0.0
 10
1511.593100
 20
633.712930
 30
0.0
  0
SPLINE
  5
290
100
AcDbEntity
  8
1
 62
7
100
AcDbSpline
 70
8
 71
3
 72
8
 73
4
 74
0
 40
0
 40
0
 40
0
 40
0
 40
1
 40
1
 40
1
 40
1
 10
1511.593100
 20
633.712930
 30
0.0
 10
1510.600900
 20
638.243790
 30
0.0
 10
1506.768500
 20
643.167470
 30
0.0
 10
1502.551700
 20
645.329050
 30
0.0
  0
SPLINE
  5
291
100
AcDbEntity
  8
1
 62
7
100
AcDbSpline
 70
8
 71
3
 72
8
 73
4
 74
0
 40
0
 40
0
 40
0
 40
0
 40
1
 40
1
 40
1
 40
1
 10
1502.551700
 20
645.329050
 30
0.0
 10
1499.384900
 20
646.952360
 30
0.0
 10
1498.685400
 20
647.037860
 30
0.0
 10
1488.551700
 20
647.040240
 30
0.0
  0
SPLINE
  5
292
100
AcDbEntity
  8
1
 62
7
100
AcDbSpline
 70
8
 71
3
 72
8
 73
4
 74
0
 40
0
 40
0
 40
0
 40
0
 40
1
 40
1
 40
1
 40
1
 10
1488.551700
 20
647.040240
 30
0.0
 10
1476.074200
 20
647.043240
 30
0.0
 10
1474.064500
 20
646.532800
 30
0.0
 10
1469.410200
 20
642.179260
 30
0.0
  0
SPLINE
  5
293
100
AcDbEntity
  8
1
 62
7
100
AcDbSpline
 70
8
 71
3
 72
8
 73
4
 74
0
 40
0
 40
0
 40
0
 40
0
 40
1
 40
1
 40
1
 40
1
 10
1469.410200
 20
642.179260
 30
0.0
 10
1466.799700
 20
639.737440
 30
0.0
 10
1465.940000
 20
638.333300
 30
0.0
 10
1464.842000
 20
634.718380
 30
0.0
  0
SPLINE
  5
294
100
AcDbEntity
  8
1
 62
7
100
AcDbSpline
 70
8
 71
3
 72
8
 73
4
 74
0
 40
0
 40
0
 40
0
 40
0
 40
1
 40
1
 40
1
 40
1
 10
1464.842000
 20
634.718380
 30
0.0
 10
1463.570200
 20
630.531410
 30
0.0
 10
1463.501200
 20
628.795210
 30
0.0
 10
1463.687200
 20
605.654070
 30
0.0
  0
LWPOLYLINE
  5
295
100
AcDbEntity
  8
1
 62
7
100
AcDbPolyline
 90
1
 70
1
 10
1477.366700
 20
565.362010
 30
0.0
  0
SPLINE
  5
296
100
AcDbEntity
  8
1
 62
7
100
AcDbSpline
 70
8
 71
3
 72
8
 73
4
 74
0
 40
0
 40
0
 40
0
 40
0
 40
1
 40
1
 40
1
 40
1
 10
1465.630400
 20
577.320850
 30
0.0
 10
1467.516400
 20
573.299230
 30
0.0
 10
1471.338800
 20
569.605200
 30
0.0
 10
1474.976400
 20
568.288830
 30
0.0
  0
SPLINE
  5
297
100
AcDbEntity
  8
1
 62
7
100
AcDbSpline
 70
8
 71
3
 72
8
 73
4
 74
0
 40
0
 40
0
 40
0
 40
0
 40
1
 40
1
 40
1
 40
1
 10
1474.976400
 20
568.288830
 30
0.0
 10
1478.462900
 20
567.027120
 30
0.0
 10
1497.220600
 20
567.117040
 30
0.0
 10
1501.026100
 20
568.413700
 30
0.0
  0
LWPOLYLINE
  5
298
100
AcDbEntity
  8
1
 62
7
100
AcDbPolyline
 90
3
 70
0
 10
1463.687200
 20
605.654070
 30
0.0
 10
1463.885000
 20
581.042740
 30
0.0
 10
1465.630400
 20
577.320850
 30
0.0
  0
LWPOLYLINE
  5
299
100
AcDbEntity
  8
1
 62
7
100
AcDbPolyline
 90
1
 70
1
 10
1501.026100
 20
568.413700
 30
0.0
  0
SPLINE
  5
29a
100
AcDbEntity
  8
1
 62
7
100
AcDbSpline
 70
8
 71
3
 72
8
 73
4
 74
0
 40
0
 40
0
 40
0
 40
0
 40
1
 40
1
 40
1
 40
1
 10
1474.218300
 20
606.828540
 30
0.0
 10
1474.218300
 20
635.195810
 30
0.0
 10
1474.125300
 20
634.569590
 30
0.0
 10
1478.617400
 20
636.446490
 30
0.0
  0
SPLINE
  5
29b
100
AcDbEntity
  8
1
 62
7
100
AcDbSpline
 70
8
 71
3
 72
8
 73
4
 74
0
 40
0
 40
0
 40
0
 40
0
 40
1
 40
1
 40
1
 40
1
 10
1478.617400
 20
636.446490
 30
0.0
 10
1481.625700
 20
637.703430
 30
0.0
 10
1494.144300
 20
637.703430
 30
0.0
 10
1497.152600
 20
636.446490
 30
0.0
  0
SPLINE
  5
29c
100
AcDbEntity
  8
1
 62
7
100
AcDbSpline
 70
8
 71
3
 72
8
 73
4
 74
0
 40
0
 40
0
 40
0
 40
0
 40
1
 40
1
 40
1
 40
1
 10
1497.152600
 20
636.446490
 30
0.0
 10
1501.644500
 20
634.569670
 30
0.0
 10
1501.551700
 20
635.194230
 30
0.0
 10
1501.551700
 20
606.843120
 30
0.0
  0
LWPOLYLINE
  5
29d
100
AcDbEntity
  8
1
 62
7
100
AcDbPolyline
 90
3
 70
0
 10
1476.288800
 20
579.310210
 30
0.0
 10
1474.218300
 20
581.244350
 30
0.0
 10
1474.218300
 20
606.828540
 30
0.0
  0
LWPOLYLINE
  5
29e
100
AcDbEntity
  8
1
 62
7
100
AcDbPolyline
 90
7
 70
0
 10
1501.551700
 20
606.843120
 30
0.0
 10
1501.551700
 20
581.273510
 30
0.0
 10
1499.602900
 20
579.324790
 30
0.0
 10
1497.654200
 20
577.376070
 30
0.0
 10
1488.006800
 20
577.376070
 30
0.0
 10
1478.359300
 20
577.376070
 30
0.0
 10
1476.288800
 20
579.310210
 30
0.0
  0
SPLINE
  5
29f
100
AcDbEntity
  8
1
 62
7
100
AcDbSpline
 70
8
 71
3
 72
8
 73
4
 74
0
 40
0
 40
0
 40
0
 40
0
 40
1
 40
1
 40
1
 40
1
 10
1499.551700
 20
607.220060
 30
0.0
 10
1499.551700
 20
637.442780
 30
0.0
 10
1500.696300
 20
634.713880
 30
0.0
 10
1488.025700
 20
634.699200
 30
0.0
  0
SPLINE
  5
2a0
100
AcDbEntity
  8
1
 62
7
100
AcDbSpline
 70
8
 71
3
 72
8
 73
4
 74
0
 40
0
 40
0
 40
0
 40
0
 40
1
 40
1
 40
1
 40
1
 10
1488.025700
 20
634.699200
 30
0.0
 10
1483.181600
 20
634.693200
 30
0.0
 10
1478.888200
 20
634.468580
 30
0.0
 10
1478.484800
 20
634.199200
 30
0.0
  0
SPLINE
  5
2a1
100
AcDbEntity
  8
1
 62
7
100
AcDbSpline
 70
8
 71
3
 72
8
 73
4
 74
0
 40
0
 40
0
 40
0
 40
0
 40
1
 40
1
 40
1
 40
1
 10
1478.484800
 20
634.199200
 30
0.0
 10
1476.401900
 20
632.808390
 30
0.0
 10
1476.218300
 20
630.583260
 30
0.0
 10
1476.218300
 20
606.722930
 30
0.0
  0
LWPOLYLINE
  5
2a2
100
AcDbEntity
  8
1
 62
7
100
AcDbPolyline
 90
3
 70
0
 10
1497.915300
 20
581.012430
 30
0.0
 10
1499.551700
 20
582.648800
 30
0.0
 10
1499.551700
 20
607.220060
 30
0.0
  0
SPLINE
  5
2a3
100
AcDbEntity
  8
1
 62
7
100
AcDbSpline
 70
8
 71
3
 72
8
 73
4
 74
0
 40
0
 40
0
 40
0
 40
0
 40
1
 40
1
 40
1
 40
1
 10
1477.854700
 20
581.012430
 30
0.0
 10
1479.418800
 20
579.448350
 30
0.0
 10
1479.861800
 20
579.376070
 30
0.0
 10
1487.885000
 20
579.376070
 30
0.0
  0
SPLINE
  5
2a4
100
AcDbEntity
  8
1
 62
7
100
AcDbSpline
 70
8
 71
3
 72
8
 73
4
 74
0
 40
0
 40
0
 40
0
 40
0
 40
1
 40
1
 40
1
 40
1
 10
1487.885000
 20
579.376070
 30
0.0
 10
1495.908200
 20
579.376070
 30
0.0
 10
1496.351200
 20
579.448370
 30
0.0
 10
1497.915300
 20
581.012430
 30
0.0
  0
LWPOLYLINE
  5
2a5
100
AcDbEntity
  8
1
 62
7
100
AcDbPolyline
 90
3
 70
0
 10
1476.218300
 20
606.722930
 30
0.0
 10
1476.218300
 20
582.648800
 30
0.0
 10
1477.854700
 20
581.012430
 30
0.0
  0
SPLINE
  5
2a6
100
AcDbEntity
  8
1
 62
7
100
AcDbSpline
 70
8
 71
3
 72
8
 73
4
 74
0
 40
0
 40
0
 40
0
 40
0
 40
1
 40
1
 40
1
 40
1
 10
1400.707200
 20
565.649060
 30
0.0
 10
1399.917500
 20
566.438820
 30
0.0
 10
1399.781300
 20
573.059660
 30
0.0
 10
1399.853600
 20
607.153830
 30
0.0
  0
SPLINE
  5
2a7
100
AcDbEntity
  8
1
 62
7
100
AcDbSpline
 70
8
 71
3
 72
8
 73
4
 74
0
 40
0
 40
0
 40
0
 40
0
 40
1
 40
1
 40
1
 40
1
 10
1399.853600
 20
607.153830
 30
0.0
 10
1399.900600
 20
629.464640
 30
0.0
 10
1400.170000
 20
648.091800
 30
0.0
 10
1400.451600
 20
648.547510
 30
0.0
  0
SPLINE
  5
2a8
100
AcDbEntity
  8
1
 62
7
100
AcDbSpline
 70
8
 71
3
 72
8
 73
4
 74
0
 40
0
 40
0
 40
0
 40
0
 40
1
 40
1
 40
1
 40
1
 10
1400.451600
 20
648.547510
 30
0.0
 10
1400.803200
 20
649.116330
 30
0.0
 10
1403.005500
 20
649.376070
 30
0.0
 10
1407.477000
 20
649.376070
 30
0.0
  0
LWPOLYLINE
  5
2a9
100
AcDbEntity
  8
1
 62
7
100
AcDbPolyline
 90
1
 70
1
 10
1497.915300
 20
581.012430
 30
0.0
  0
SPLINE
  5
2aa
100
AcDbEntity
  8
1
 62
7
100
AcDbSpline
 70
8
 71
3
 72
8
 73
4
 74
0
 40
0
 40
0
 40
0
 40
0
 40
1
 40
1
 40
1
 40
1
 10
1415.398900
 20
646.209400
 30
0.0
 10
1416.845300
 20
642.957410
 30
0.0
 10
1418.856800
 20
638.320140
 30
0.0
 10
1424.869600
 20
624.376070
 30
0.0
  0
SPLINE
  5
2ab
100
AcDbEntity
  8
1
 62
7
100
AcDbSpline
 70
8
 71
3
 72
8
 73
4
 74
0
 40
0
 40
0
 40
0
 40
0
 40
1
 40
1
 40
1
 40
1
 10
1424.869600
 20
624.376070
 30
0.0
 10
1429.031500
 20
614.724650
 30
0.0
 10
1431.471900
 20
609.099280
 30
0.0
 10
1433.920600
 20
603.513550
 30
0.0
  0
SPLINE
  5
2ac
100
AcDbEntity
  8
1
 62
7
100
AcDbSpline
 70
8
 71
3
 72
8
 73
4
 74
0
 40
0
 40
0
 40
0
 40
0
 40
1
 40
1
 40
1
 40
1
 10
1433.920600
 20
603.513550
 30
0.0
 10
1434.932200
 20
601.205830
 30
0.0
 10
1436.009300
 20
599.567020
 30
0.0
 10
1436.314000
 20
599.871750
 30
0.0
  0
SPLINE
  5
2ad
100
AcDbEntity
  8
1
 62
7
100
AcDbSpline
 70
8
 71
3
 72
8
 73
4
 74
0
 40
0
 40
0
 40
0
 40
0
 40
1
 40
1
 40
1
 40
1
 10
1436.314000
 20
599.871750
 30
0.0
 10
1436.618700
 20
600.176480
 30
0.0
 10
1436.946900
 20
611.364620
 30
0.0
 10
1437.043200
 20
624.734270
 30
0.0
  0
LWPOLYLINE
  5
2ae
100
AcDbEntity
  8
1
 62
7
100
AcDbPolyline
 90
3
 70
0
 10
1407.477000
 20
649.376070
 30
0.0
 10
1413.990400
 20
649.376070
 30
0.0
 10
1415.398900
 20
646.209400
 30
0.0
  0
SPLINE
  5
2af
100
AcDbEntity
  8
1
 62
7
100
AcDbSpline
 70
8
 71
3
 72
8
 73
4
 74
0
 40
0
 40
0
 40
0
 40
0
 40
1
 40
1
 40
1
 40
1
 10
1450.723400
 20
607.418560
 30
0.0
 10
1450.859000
 20
574.560620
 30
0.0
 10
1450.723400
 20
565.682290
 30
0.0
 10
1450.056700
 20
565.262100
 30
0.0
  0
SPLINE
  5
2b0
100
AcDbEntity
  8
1
 62
7
100
AcDbSpline
 70
8
 71
3
 72
8
 73
4
 74
0
 40
0
 40
0
 40
0
 40
0
 40
1
 40
1
 40
1
 40
1
 10
1450.056700
 20
565.262100
 30
0.0
 10
1448.547200
 20
564.303750
 30
0.0
 10
1437.798800
 20
564.608340
 30
0.0
 10
1436.947900
 20
565.633580
 30
0.0
  0
SPLINE
  5
2b1
100
AcDbEntity
  8
1
 62
7
100
AcDbSpline
 70
8
 71
3
 72
8
 73
4
 74
0
 40
0
 40
0
 40
0
 40
0
 40
1
 40
1
 40
1
 40
1
 10
1436.947900
 20
565.633580
 30
0.0
 10
1436.187600
 20
566.549730
 30
0.0
 10
1434.650300
 20
569.992640
 30
0.0
 10
1427.239800
 20
587.376070
 30
0.0
  0
SPLINE
  5
2b2
100
AcDbEntity
  8
1
 62
7
100
AcDbSpline
 70
8
 71
3
 72
8
 73
4
 74
0
 40
0
 40
0
 40
0
 40
0
 40
1
 40
1
 40
1
 40
1
 10
1427.239800
 20
587.376070
 30
0.0
 10
1423.779600
 20
595.492900
 30
0.0
 10
1420.769200
 20
602.412640
 30
0.0
 10
1416.726100
 20
611.542740
 30
0.0
  0
SPLINE
  5
2b3
100
AcDbEntity
  8
1
 62
7
100
AcDbSpline
 70
8
 71
3
 72
8
 73
4
 74
0
 40
0
 40
0
 40
0
 40
0
 40
1
 40
1
 40
1
 40
1
 10
1416.726100
 20
611.542740
 30
0.0
 10
1415.954800
 20
613.284400
 30
0.0
 10
1415.075000
 20
614.709400
 30
0.0
 10
1414.771000
 20
614.709400
 30
0.0
  0
SPLINE
  5
2b4
100
AcDbEntity
  8
1
 62
7
100
AcDbSpline
 70
8
 71
3
 72
8
 73
4
 74
0
 40
0
 40
0
 40
0
 40
0
 40
1
 40
1
 40
1
 40
1
 10
1414.771000
 20
614.709400
 30
0.0
 10
1414.467000
 20
614.709400
 30
0.0
 10
1414.218300
 20
603.641500
 30
0.0
 10
1414.218300
 20
590.114060
 30
0.0
  0
SPLINE
  5
2b5
100
AcDbEntity
  8
1
 62
7
100
AcDbSpline
 70
8
 71
3
 72
8
 73
4
 74
0
 40
0
 40
0
 40
0
 40
0
 40
1
 40
1
 40
1
 40
1
 10
1414.218300
 20
590.114060
 30
0.0
 10
1414.218300
 20
568.301320
 30
0.0
 10
1414.099000
 20
565.472940
 30
0.0
 10
1413.163800
 20
565.114060
 30
0.0
  0
SPLINE
  5
2b6
100
AcDbEntity
  8
1
 62
7
100
AcDbSpline
 70
8
 71
3
 72
8
 73
4
 74
0
 40
0
 40
0
 40
0
 40
0
 40
1
 40
1
 40
1
 40
1
 10
1413.163800
 20
565.114060
 30
0.0
 10
1410.992100
 20
564.280720
 30
0.0
 10
1401.675400
 20
564.680860
 30
0.0
 10
1400.707200
 20
565.649060
 30
0.0
  0
LWPOLYLINE
  5
2b7
100
AcDbEntity
  8
1
 62
7
100
AcDbPolyline
 90
5
 70
0
 10
1437.043200
 20
624.734270
 30
0.0
 10
1437.218300
 20
649.042740
 30
0.0
 10
1443.885000
 20
649.042740
 30
0.0
 10
1450.551700
 20
649.042740
 30
0.0
 10
1450.723400
 20
607.418560
 30
0.0
  0
SPLINE
  5
2b8
100
AcDbEntity
  8
1
 62
7
100
AcDbSpline
 70
8
 71
3
 72
8
 73
4
 74
0
 40
0
 40
0
 40
0
 40
0
 40
1
 40
1
 40
1
 40
1
 10
1412.218300
 20
591.248650
 30
0.0
 10
1412.218300
 20
616.475560
 30
0.0
 10
1412.376500
 20
617.828540
 30
0.0
 10
1415.260200
 20
617.273180
 30
0.0
  0
SPLINE
  5
2b9
100
AcDbEntity
  8
1
 62
7
100
AcDbSpline
 70
8
 71
3
 72
8
 73
4
 74
0
 40
0
 40
0
 40
0
 40
0
 40
1
 40
1
 40
1
 40
1
 10
1415.260200
 20
617.273180
 30
0.0
 10
1416.625800
 20
617.010200
 30
0.0
 10
1417.553200
 20
615.390780
 30
0.0
 10
1420.928000
 20
607.376070
 30
0.0
  0
SPLINE
  5
2ba
100
AcDbEntity
  8
1
 62
7
100
AcDbSpline
 70
8
 71
3
 72
8
 73
4
 74
0
 40
0
 40
0
 40
0
 40
0
 40
1
 40
1
 40
1
 40
1
 10
1420.928000
 20
607.376070
 30
0.0
 10
1422.085900
 20
604.626070
 30
0.0
 10
1423.644800
 20
601.026070
 30
0.0
 10
1424.392200
 20
599.376070
 30
0.0
  0
SPLINE
  5
2bb
100
AcDbEntity
  8
1
 62
7
100
AcDbSpline
 70
8
 71
3
 72
8
 73
4
 74
0
 40
0
 40
0
 40
0
 40
0
 40
1
 40
1
 40
1
 40
1
 10
1424.392200
 20
599.376070
 30
0.0
 10
1425.139500
 20
597.726070
 30
0.0
 10
1426.580200
 20
594.426070
 30
0.0
 10
1427.593600
 20
592.042740
 30
0.0
  0
SPLINE
  5
2bc
100
AcDbEntity
  8
1
 62
7
100
AcDbSpline
 70
8
 71
3
 72
8
 73
4
 74
0
 40
0
 40
0
 40
0
 40
0
 40
1
 40
1
 40
1
 40
1
 10
1427.593600
 20
592.042740
 30
0.0
 10
1428.607100
 20
589.659400
 30
0.0
 10
1430.489600
 20
585.309400
 30
0.0
 10
1431.777000
 20
582.376070
 30
0.0
  0
SPLINE
  5
2bd
100
AcDbEntity
  8
1
 62
7
100
AcDbSpline
 70
8
 71
3
 72
8
 73
4
 74
0
 40
0
 40
0
 40
0
 40
0
 40
1
 40
1
 40
1
 40
1
 10
1431.777000
 20
582.376070
 30
0.0
 10
1433.064300
 20
579.442740
 30
0.0
 10
1435.021700
 20
574.942740
 30
0.0
 10
1436.126700
 20
572.376070
 30
0.0
  0
LWPOLYLINE
  5
2be
100
AcDbEntity
  8
1
 62
7
100
AcDbPolyline
 90
1
 70
1
 10
1400.707200
 20
565.649060
 30
0.0
  0
SPLINE
  5
2bf
100
AcDbEntity
  8
1
 62
7
100
AcDbSpline
 70
8
 71
3
 72
8
 73
4
 74
0
 40
0
 40
0
 40
0
 40
0
 40
1
 40
1
 40
1
 40
1
 10
1435.943600
 20
597.709400
 30
0.0
 10
1434.048500
 20
597.709400
 30
0.0
 10
1433.847800
 20
598.067660
 30
0.0
 10
1427.537800
 20
612.709400
 30
0.0
  0
SPLINE
  5
2c0
100
AcDbEntity
  8
1
 62
7
100
AcDbSpline
 70
8
 71
3
 72
8
 73
4
 74
0
 40
0
 40
0
 40
0
 40
0
 40
1
 40
1
 40
1
 40
1
 10
1427.537800
 20
612.709400
 30
0.0
 10
1423.982400
 20
620.959400
 30
0.0
 10
1419.812000
 20
630.559400
 30
0.0
 10
1418.270300
 20
634.042740
 30
0.0
  0
SPLINE
  5
2c1
100
AcDbEntity
  8
1
 62
7
100
AcDbSpline
 70
8
 71
3
 72
8
 73
4
 74
0
 40
0
 40
0
 40
0
 40
0
 40
1
 40
1
 40
1
 40
1
 10
1418.270300
 20
634.042740
 30
0.0
 10
1416.728500
 20
637.526070
 30
0.0
 10
1414.844500
 20
641.951070
 30
0.0
 10
1414.083500
 20
643.876070
 30
0.0
  0
LWPOLYLINE
  5
2c2
100
AcDbEntity
  8
1
 62
7
100
AcDbPolyline
 90
11
 70
0
 10
1436.126700
 20
572.376070
 30
0.0
 10
1438.135700
 20
567.709400
 30
0.0
 10
1443.510300
 20
567.515780
 30
0.0
 10
1448.885000
 20
567.322150
 30
0.0
 10
1448.885000
 20
607.377150
 30
0.0
 10
1448.885000
 20
647.432160
 30
0.0
 10
1443.718300
 20
647.237450
 30
0.0
 10
1438.551700
 20
647.042740
 30
0.0
 10
1438.218300
 20
622.376070
 30
0.0
 10
1437.885000
 20
597.709400
 30
0.0
 10
1435.943600
 20
597.709400
 30
0.0
  0
SPLINE
  5
2c3
100
AcDbEntity
  8
1
 62
7
100
AcDbSpline
 70
8
 71
3
 72
8
 73
4
 74
0
 40
0
 40
0
 40
0
 40
0
 40
1
 40
1
 40
1
 40
1
 10
1337.713200
 20
565.262100
 30
0.0
 10
1337.051400
 20
565.682290
 30
0.0
 10
1336.911000
 20
574.560620
 30
0.0
 10
1337.046600
 20
607.418560
 30
0.0
  0
LWPOLYLINE
  5
2c4
100
AcDbEntity
  8
1
 62
7
100
AcDbPolyline
 90
9
 70
0
 10
1414.083500
 20
643.876070
 30
0.0
 10
1412.699900
 20
647.376070
 30
0.0
 10
1407.459100
 20
647.376070
 30
0.0
 10
1402.218300
 20
647.376070
 30
0.0
 10
1402.218300
 20
607.376070
 30
0.0
 10
1402.218300
 20
567.376070
 30
0.0
 10
1407.218300
 20
567.376070
 30
0.0
 10
1412.218300
 20
567.376070
 30
0.0
 10
1412.218300
 20
591.248650
 30
0.0
  0
SPLINE
  5
2c5
100
AcDbEntity
  8
1
 62
7
100
AcDbSpline
 70
8
 71
3
 72
8
 73
4
 74
0
 40
0
 40
0
 40
0
 40
0
 40
1
 40
1
 40
1
 40
1
 10
1352.924900
 20
644.042740
 30
0.0
 10
1353.863500
 20
641.292740
 30
0.0
 10
1356.060000
 20
634.842740
 30
0.0
 10
1357.806000
 20
629.709400
 30
0.0
  0
SPLINE
  5
2c6
100
AcDbEntity
  8
1
 62
7
100
AcDbSpline
 70
8
 71
3
 72
8
 73
4
 74
0
 40
0
 40
0
 40
0
 40
0
 40
1
 40
1
 40
1
 40
1
 10
1357.806000
 20
629.709400
 30
0.0
 10
1361.132000
 20
619.930360
 30
0.0
 10
1362.437500
 20
617.574270
 30
0.0
 10
1363.541000
 20
619.359200
 30
0.0
  0
SPLINE
  5
2c7
100
AcDbEntity
  8
1
 62
7
100
AcDbSpline
 70
8
 71
3
 72
8
 73
4
 74
0
 40
0
 40
0
 40
0
 40
0
 40
1
 40
1
 40
1
 40
1
 10
1363.541000
 20
619.359200
 30
0.0
 10
1363.875300
 20
619.899920
 30
0.0
 10
1365.207600
 20
623.349920
 30
0.0
 10
1366.501600
 20
627.025860
 30
0.0
  0
SPLINE
  5
2c8
100
AcDbEntity
  8
1
 62
7
100
AcDbSpline
 70
8
 71
3
 72
8
 73
4
 74
0
 40
0
 40
0
 40
0
 40
0
 40
1
 40
1
 40
1
 40
1
 10
1366.501600
 20
627.025860
 30
0.0
 10
1367.795500
 20
630.701810
 30
0.0
 10
1370.096000
 20
637.244510
 30
0.0
 10
1371.613600
 20
641.565210
 30
0.0
  0
LWPOLYLINE
  5
2c9
100
AcDbEntity
  8
1
 62
7
100
AcDbPolyline
 90
5
 70
0
 10
1337.046600
 20
607.418560
 30
0.0
 10
1337.218300
 20
649.042740
 30
0.0
 10
1344.218300
 20
649.042740
 30
0.0
 10
1351.218300
 20
649.042740
 30
0.0
 10
1352.924900
 20
644.042740
 30
0.0
  0
SPLINE
  5
2ca
100
AcDbEntity
  8
1
 62
7
100
AcDbSpline
 70
8
 71
3
 72
8
 73
4
 74
0
 40
0
 40
0
 40
0
 40
0
 40
1
 40
1
 40
1
 40
1
 10
1388.056700
 20
607.418560
 30
0.0
 10
1388.192300
 20
574.560620
 30
0.0
 10
1388.056700
 20
565.682290
 30
0.0
 10
1387.390100
 20
565.262100
 30
0.0
  0
SPLINE
  5
2cb
100
AcDbEntity
  8
1
 62
7
100
AcDbSpline
 70
8
 71
3
 72
8
 73
4
 74
0
 40
0
 40
0
 40
0
 40
0
 40
1
 40
1
 40
1
 40
1
 10
1387.390100
 20
565.262100
 30
0.0
 10
1386.408900
 20
564.639210
 30
0.0
 10
1376.815700
 20
564.522010
 30
0.0
 10
1375.272800
 20
565.114060
 30
0.0
  0
SPLINE
  5
2cc
100
AcDbEntity
  8
1
 62
7
100
AcDbSpline
 70
8
 71
3
 72
8
 73
4
 74
0
 40
0
 40
0
 40
0
 40
0
 40
1
 40
1
 40
1
 40
1
 10
1375.272800
 20
565.114060
 30
0.0
 10
1374.338000
 20
565.472800
 30
0.0
 10
1374.218300
 20
568.271950
 30
0.0
 10
1374.218300
 20
589.780730
 30
0.0
  0
SPLINE
  5
2cd
100
AcDbEntity
  8
1
 62
7
100
AcDbSpline
 70
8
 71
3
 72
8
 73
4
 74
0
 40
0
 40
0
 40
0
 40
0
 40
1
 40
1
 40
1
 40
1
 10
1374.218300
 20
589.780730
 30
0.0
 10
1374.218300
 20
603.124830
 30
0.0
 10
1373.984900
 20
614.042740
 30
0.0
 10
1373.699600
 20
614.042740
 30
0.0
  0
SPLINE
  5
2ce
100
AcDbEntity
  8
1
 62
7
100
AcDbSpline
 70
8
 71
3
 72
8
 73
4
 74
0
 40
0
 40
0
 40
0
 40
0
 40
1
 40
1
 40
1
 40
1
 10
1373.699600
 20
614.042740
 30
0.0
 10
1373.414300
 20
614.042740
 30
0.0
 10
1371.580700
 20
609.467740
 30
0.0
 10
1369.625000
 20
603.876070
 30
0.0
  0
SPLINE
  5
2cf
100
AcDbEntity
  8
1
 62
7
100
AcDbSpline
 70
8
 71
3
 72
8
 73
4
 74
0
 40
0
 40
0
 40
0
 40
0
 40
1
 40
1
 40
1
 40
1
 10
1369.625000
 20
603.876070
 30
0.0
 10
1363.879600
 20
587.449420
 30
0.0
 10
1363.718000
 20
587.051750
 30
0.0
 10
1362.702300
 20
586.844430
 30
0.0
  0
SPLINE
  5
2d0
100
AcDbEntity
  8
1
 62
7
100
AcDbSpline
 70
8
 71
3
 72
8
 73
4
 74
0
 40
0
 40
0
 40
0
 40
0
 40
1
 40
1
 40
1
 40
1
 10
1362.702300
 20
586.844430
 30
0.0
 10
1361.745800
 20
586.649200
 30
0.0
 10
1360.192900
 20
590.559860
 30
0.0
 10
1354.029900
 20
608.683600
 30
0.0
  0
LWPOLYLINE
  5
2d1
100
AcDbEntity
  8
1
 62
7
100
AcDbPolyline
 90
5
 70
0
 10
1371.613600
 20
641.565210
 30
0.0
 10
1374.373000
 20
649.421010
 30
0.0
 10
1381.129000
 20
649.231870
 30
0.0
 10
1387.885000
 20
649.042740
 30
0.0
 10
1388.056700
 20
607.418560
 30
0.0
  0
SPLINE
  5
2d2
100
AcDbEntity
  8
1
 62
7
100
AcDbSpline
 70
8
 71
3
 72
8
 73
4
 74
0
 40
0
 40
0
 40
0
 40
0
 40
1
 40
1
 40
1
 40
1
 10
1351.551700
 20
590.683600
 30
0.0
 10
1351.368300
 20
577.314460
 30
0.0
 10
1350.975600
 20
566.001070
 30
0.0
 10
1350.679000
 20
565.542740
 30
0.0
  0
SPLINE
  5
2d3
100
AcDbEntity
  8
1
 62
7
100
AcDbSpline
 70
8
 71
3
 72
8
 73
4
 74
0
 40
0
 40
0
 40
0
 40
0
 40
1
 40
1
 40
1
 40
1
 10
1350.679000
 20
565.542740
 30
0.0
 10
1350.068600
 20
564.599700
 30
0.0
 10
1339.129600
 20
564.362930
 30
0.0
 10
1337.713200
 20
565.262100
 30
0.0
  0
LWPOLYLINE
  5
2d4
100
AcDbEntity
  8
1
 62
7
100
AcDbPolyline
 90
3
 70
0
 10
1354.029900
 20
608.683600
 30
0.0
 10
1351.885000
 20
614.991130
 30
0.0
 10
1351.551700
 20
590.683600
 30
0.0
  0
SPLINE
  5
2d5
100
AcDbEntity
  8
1
 62
7
100
AcDbSpline
 70
8
 71
3
 72
8
 73
4
 74
0
 40
0
 40
0
 40
0
 40
0
 40
1
 40
1
 40
1
 40
1
 10
1349.551700
 20
591.730330
 30
0.0
 10
1349.551700
 20
613.662900
 30
0.0
 10
1349.660100
 20
616.126200
 30
0.0
 10
1350.642300
 20
616.503090
 30
0.0
  0
SPLINE
  5
2d6
100
AcDbEntity
  8
1
 62
7
100
AcDbSpline
 70
8
 71
3
 72
8
 73
4
 74
0
 40
0
 40
0
 40
0
 40
0
 40
1
 40
1
 40
1
 40
1
 10
1350.642300
 20
616.503090
 30
0.0
 10
1351.242100
 20
616.733270
 30
0.0
 10
1352.197700
 20
616.628420
 30
0.0
 10
1352.765700
 20
616.270090
 30
0.0
  0
SPLINE
  5
2d7
100
AcDbEntity
  8
1
 62
7
100
AcDbSpline
 70
8
 71
3
 72
8
 73
4
 74
0
 40
0
 40
0
 40
0
 40
0
 40
1
 40
1
 40
1
 40
1
 10
1352.765700
 20
616.270090
 30
0.0
 10
1353.558500
 20
615.770020
 30
0.0
 10
1358.640700
 20
602.548500
 30
0.0
 10
1362.315800
 20
591.425380
 30
0.0
  0
SPLINE
  5
2d8
100
AcDbEntity
  8
1
 62
7
100
AcDbSpline
 70
8
 71
3
 72
8
 73
4
 74
0
 40
0
 40
0
 40
0
 40
0
 40
1
 40
1
 40
1
 40
1
 10
1362.315800
 20
591.425380
 30
0.0
 10
1362.488500
 20
590.902500
 30
0.0
 10
1364.384000
 20
595.552500
 30
0.0
 10
1366.528000
 20
601.758710
 30
0.0
  0
SPLINE
  5
2d9
100
AcDbEntity
  8
1
 62
7
100
AcDbSpline
 70
8
 71
3
 72
8
 73
4
 74
0
 40
0
 40
0
 40
0
 40
0
 40
1
 40
1
 40
1
 40
1
 10
1366.528000
 20
601.758710
 30
0.0
 10
1371.385400
 20
615.819580
 30
0.0
 10
1371.820000
 20
616.709400
 30
0.0
 10
1373.830800
 20
616.709400
 30
0.0
  0
SPLINE
  5
2da
100
AcDbEntity
  8
1
 62
7
100
AcDbSpline
 70
8
 71
3
 72
8
 73
4
 74
0
 40
0
 40
0
 40
0
 40
0
 40
1
 40
1
 40
1
 40
1
 10
1373.830800
 20
616.709400
 30
0.0
 10
1374.698800
 20
616.709400
 30
0.0
 10
1375.591100
 20
616.234870
 30
0.0
 10
1375.813700
 20
615.654880
 30
0.0
  0
SPLINE
  5
2db
100
AcDbEntity
  8
1
 62
7
100
AcDbSpline
 70
8
 71
3
 72
8
 73
4
 74
0
 40
0
 40
0
 40
0
 40
0
 40
1
 40
1
 40
1
 40
1
 10
1375.813700
 20
615.654880
 30
0.0
 10
1376.036200
 20
615.074890
 30
0.0
 10
1376.218300
 20
603.974890
 30
0.0
 10
1376.218300
 20
590.988210
 30
0.0
  0
LWPOLYLINE
  5
2dc
100
AcDbEntity
  8
1
 62
7
100
AcDbPolyline
 90
1
 70
1
 10
1337.713200
 20
565.262100
 30
0.0
  0
SPLINE
  5
2dd
100
AcDbEntity
  8
1
 62
7
100
AcDbSpline
 70
8
 71
3
 72
8
 73
4
 74
0
 40
0
 40
0
 40
0
 40
0
 40
1
 40
1
 40
1
 40
1
 10
1381.241800
 20
647.376070
 30
0.0
 10
1376.860300
 20
647.376070
 30
0.0
 10
1376.175200
 20
647.207790
 30
0.0
 10
1375.512000
 20
645.968710
 30
0.0
  0
SPLINE
  5
2de
100
AcDbEntity
  8
1
 62
7
100
AcDbSpline
 70
8
 71
3
 72
8
 73
4
 74
0
 40
0
 40
0
 40
0
 40
0
 40
1
 40
1
 40
1
 40
1
 10
1375.512000
 20
645.968710
 30
0.0
 10
1374.752900
 20
644.550170
 30
0.0
 10
1370.787500
 20
633.196100
 30
0.0
 10
1367.894600
 20
624.157530
 30
0.0
  0
SPLINE
  5
2df
100
AcDbEntity
  8
1
 62
7
100
AcDbSpline
 70
8
 71
3
 72
8
 73
4
 74
0
 40
0
 40
0
 40
0
 40
0
 40
1
 40
1
 40
1
 40
1
 10
1367.894600
 20
624.157530
 30
0.0
 10
1367.034700
 20
621.470660
 30
0.0
 10
1365.809200
 20
618.695660
 30
0.0
 10
1365.171400
 20
617.990860
 30
0.0
  0
SPLINE
  5
2e0
100
AcDbEntity
  8
1
 62
7
100
AcDbSpline
 70
8
 71
3
 72
8
 73
4
 74
0
 40
0
 40
0
 40
0
 40
0
 40
1
 40
1
 40
1
 40
1
 10
1365.171400
 20
617.990860
 30
0.0
 10
1363.808800
 20
616.485260
 30
0.0
 10
1361.374900
 20
616.315860
 30
0.0
 10
1360.268000
 20
617.649580
 30
0.0
  0
SPLINE
  5
2e1
100
AcDbEntity
  8
1
 62
7
100
AcDbSpline
 70
8
 71
3
 72
8
 73
4
 74
0
 40
0
 40
0
 40
0
 40
0
 40
1
 40
1
 40
1
 40
1
 10
1360.268000
 20
617.649580
 30
0.0
 10
1359.658500
 20
618.384000
 30
0.0
 10
1349.551700
 20
646.206030
 30
0.0
 10
1349.551700
 20
647.149490
 30
0.0
  0
SPLINE
  5
2e2
100
AcDbEntity
  8
1
 62
7
100
AcDbSpline
 70
8
 71
3
 72
8
 73
4
 74
0
 40
0
 40
0
 40
0
 40
0
 40
1
 40
1
 40
1
 40
1
 10
1349.551700
 20
647.149490
 30
0.0
 10
1349.551700
 20
647.274110
 30
0.0
 10
1347.151700
 20
647.376070
 30
0.0
 10
1344.218300
 20
647.376070
 30
0.0
  0
LWPOLYLINE
  5
2e3
100
AcDbEntity
  8
1
 62
7
100
AcDbPolyline
 90
7
 70
0
 10
1376.218300
 20
590.988210
 30
0.0
 10
1376.218300
 20
567.376070
 30
0.0
 10
1381.218300
 20
567.376070
 30
0.0
 10
1386.218300
 20
567.376070
 30
0.0
 10
1386.218300
 20
607.376070
 30
0.0
 10
1386.218300
 20
647.376070
 30
0.0
 10
1381.241800
 20
647.376070
 30
0.0
  0
SPLINE
  5
2e4
100
AcDbEntity
  8
1
 62
7
100
AcDbSpline
 70
8
 71
3
 72
8
 73
4
 74
0
 40
0
 40
0
 40
0
 40
0
 40
1
 40
1
 40
1
 40
1
 10
1281.879200
 20
565.385420
 30
0.0
 10
1281.196800
 20
566.489590
 30
0.0
 10
1281.368900
 20
648.126680
 30
0.0
 10
1282.055100
 20
648.812870
 30
0.0
  0
SPLINE
  5
2e5
100
AcDbEntity
  8
1
 62
7
100
AcDbSpline
 70
8
 71
3
 72
8
 73
4
 74
0
 40
0
 40
0
 40
0
 40
0
 40
1
 40
1
 40
1
 40
1
 10
1282.055100
 20
648.812870
 30
0.0
 10
1282.394000
 20
649.151700
 30
0.0
 10
1285.494300
 20
649.342040
 30
0.0
 10
1288.944800
 20
649.235840
 30
0.0
  0
LWPOLYLINE
  5
2e6
100
AcDbEntity
  8
1
 62
7
100
AcDbPolyline
 90
7
 70
0
 10
1344.218300
 20
647.376070
 30
0.0
 10
1338.885000
 20
647.376070
 30
0.0
 10
1338.885000
 20
607.376070
 30
0.0
 10
1338.885000
 20
567.376070
 30
0.0
 10
1344.218300
 20
567.376070
 30
0.0
 10
1349.551700
 20
567.376070
 30
0.0
 10
1349.551700
 20
591.730330
 30
0.0
  0
SPLINE
  5
2e7
100
AcDbEntity
  8
1
 62
7
100
AcDbSpline
 70
8
 71
3
 72
8
 73
4
 74
0
 40
0
 40
0
 40
0
 40
0
 40
1
 40
1
 40
1
 40
1
 10
1332.744200
 20
572.808930
 30
0.0
 10
1332.868500
 20
568.785600
 30
0.0
 10
1332.662200
 20
566.244330
 30
0.0
 10
1332.162600
 20
565.642260
 30
0.0
  0
SPLINE
  5
2e8
100
AcDbEntity
  8
1
 62
7
100
AcDbSpline
 70
8
 71
3
 72
8
 73
4
 74
0
 40
0
 40
0
 40
0
 40
0
 40
1
 40
1
 40
1
 40
1
 10
1332.162600
 20
565.642260
 30
0.0
 10
1331.524800
 20
564.873810
 30
0.0
 10
1327.062600
 20
564.709400
 30
0.0
 10
1306.842700
 20
564.709400
 30
0.0
  0
SPLINE
  5
2e9
100
AcDbEntity
  8
1
 62
7
100
AcDbSpline
 70
8
 71
3
 72
8
 73
4
 74
0
 40
0
 40
0
 40
0
 40
0
 40
1
 40
1
 40
1
 40
1
 10
1306.842700
 20
564.709400
 30
0.0
 10
1290.971700
 20
564.709400
 30
0.0
 10
1282.149400
 20
564.948320
 30
0.0
 10
1281.879200
 20
565.385420
 30
0.0
  0
LWPOLYLINE
  5
2ea
100
AcDbEntity
  8
1
 62
7
100
AcDbPolyline
 90
7
 70
0
 10
1288.944800
 20
649.235840
 30
0.0
 10
1295.218300
 20
649.042740
 30
0.0
 10
1295.551700
 20
614.376070
 30
0.0
 10
1295.885000
 20
579.709400
 30
0.0
 10
1314.218300
 20
579.376070
 30
0.0
 10
1332.551700
 20
579.042740
 30
0.0
 10
1332.744200
 20
572.808930
 30
0.0
  0
LWPOLYLINE
  5
2eb
100
AcDbEntity
  8
1
 62
7
100
AcDbPolyline
 90
1
 70
1
 10
1281.879200
 20
565.385420
 30
0.0
  0
SPLINE
  5
2ec
100
AcDbEntity
  8
1
 62
7
100
AcDbSpline
 70
8
 71
3
 72
8
 73
4
 74
0
 40
0
 40
0
 40
0
 40
0
 40
1
 40
1
 40
1
 40
1
 10
1312.908400
 20
577.376070
 30
0.0
 10
1295.817900
 20
577.376070
 30
0.0
 10
1294.897900
 20
577.439570
 30
0.0
 10
1294.241800
 20
578.665580
 30
0.0
  0
SPLINE
  5
2ed
100
AcDbEntity
  8
1
 62
7
100
AcDbSpline
 70
8
 71
3
 72
8
 73
4
 74
0
 40
0
 40
0
 40
0
 40
0
 40
1
 40
1
 40
1
 40
1
 10
1294.241800
 20
578.665580
 30
0.0
 10
1293.792200
 20
579.505700
 30
0.0
 10
1293.551700
 20
591.702980
 30
0.0
 10
1293.551700
 20
613.665580
 30
0.0
  0
LWPOLYLINE
  5
2ee
100
AcDbEntity
  8
1
 62
7
100
AcDbPolyline
 90
3
 70
0
 10
1330.885000
 20
572.376070
 30
0.0
 10
1330.885000
 20
577.376070
 30
0.0
 10
1312.908400
 20
577.376070
 30
0.0
  0
SPLINE
  5
2ef
100
AcDbEntity
  8
1
 62
7
100
AcDbSpline
 70
8
 71
3
 72
8
 73
4
 74
0
 40
0
 40
0
 40
0
 40
0
 40
1
 40
1
 40
1
 40
1
 10
1224.379900
 20
565.262100
 30
0.0
 10
1223.718000
 20
565.682290
 30
0.0
 10
1223.577600
 20
574.560620
 30
0.0
 10
1223.713200
 20
607.418560
 30
0.0
  0
LWPOLYLINE
  5
2f0
100
AcDbEntity
  8
1
 62
7
100
AcDbPolyline
 90
9
 70
0
 10
1293.551700
 20
613.665580
 30
0.0
 10
1293.551700
 20
647.376070
 30
0.0
 10
1288.551700
 20
647.376070
 30
0.0
 10
1283.551700
 20
647.376070
 30
0.0
 10
1283.551700
 20
607.376070
 30
0.0
 10
1283.551700
 20
567.376070
 30
0.0
 10
1307.218300
 20
567.376070
 30
0.0
 10
1330.885000
 20
567.376070
 30
0.0
 10
1330.885000
 20
572.376070
 30
0.0
  0
SPLINE
  5
2f1
100
AcDbEntity
  8
1
 62
7
100
AcDbSpline
 70
8
 71
3
 72
8
 73
4
 74
0
 40
0
 40
0
 40
0
 40
0
 40
1
 40
1
 40
1
 40
1
 10
1230.496600
 20
649.234890
 30
0.0
 10
1235.336800
 20
649.375560
 30
0.0
 10
1237.254100
 20
649.196990
 30
0.0
 10
1237.653000
 20
648.568220
 30
0.0
  0
SPLINE
  5
2f2
100
AcDbEntity
  8
1
 62
7
100
AcDbSpline
 70
8
 71
3
 72
8
 73
4
 74
0
 40
0
 40
0
 40
0
 40
0
 40
1
 40
1
 40
1
 40
1
 10
1237.653000
 20
648.568220
 30
0.0
 10
1237.952700
 20
648.095870
 30
0.0
 10
1238.202500
 20
640.684400
 30
0.0
 10
1238.208100
 20
632.098290
 30
0.0
  0
SPLINE
  5
2f3
100
AcDbEntity
  8
1
 62
7
100
AcDbSpline
 70
8
 71
3
 72
8
 73
4
 74
0
 40
0
 40
0
 40
0
 40
0
 40
1
 40
1
 40
1
 40
1
 10
1238.208100
 20
632.098290
 30
0.0
 10
1238.218100
 20
623.512180
 30
0.0
 10
1238.443300
 20
616.707940
 30
0.0
 10
1238.718300
 20
616.977760
 30
0.0
  0
SPLINE
  5
2f4
100
AcDbEntity
  8
1
 62
7
100
AcDbSpline
 70
8
 71
3
 72
8
 73
4
 74
0
 40
0
 40
0
 40
0
 40
0
 40
1
 40
1
 40
1
 40
1
 10
1238.718300
 20
616.977760
 30
0.0
 10
1238.993300
 20
617.247580
 30
0.0
 10
1243.299100
 20
624.572580
 30
0.0
 10
1248.286800
 20
633.255540
 30
0.0
  0
LWPOLYLINE
  5
2f5
100
AcDbEntity
  8
1
 62
7
100
AcDbPolyline
 90
3
 70
0
 10
1223.713200
 20
607.418560
 30
0.0
 10
1223.885000
 20
649.042740
 30
0.0
 10
1230.496600
 20
649.234890
 30
0.0
  0
SPLINE
  5
2f6
100
AcDbEntity
  8
1
 62
7
100
AcDbSpline
 70
8
 71
3
 72
8
 73
4
 74
0
 40
0
 40
0
 40
0
 40
0
 40
1
 40
1
 40
1
 40
1
 10
1265.453500
 20
649.229920
 30
0.0
 10
1273.543800
 20
649.416930
 30
0.0
 10
1273.551700
 20
649.415610
 30
0.0
 10
1273.551700
 20
647.863260
 30
0.0
  0
SPLINE
  5
2f7
100
AcDbEntity
  8
1
 62
7
100
AcDbSpline
 70
8
 71
3
 72
8
 73
4
 74
0
 40
0
 40
0
 40
0
 40
0
 40
1
 40
1
 40
1
 40
1
 10
1273.551700
 20
647.863260
 30
0.0
 10
1273.551700
 20
647.008640
 30
0.0
 10
1273.280300
 20
646.024400
 30
0.0
 10
1272.948600
 20
645.676070
 30
0.0
  0
SPLINE
  5
2f8
100
AcDbEntity
  8
1
 62
7
100
AcDbSpline
 70
8
 71
3
 72
8
 73
4
 74
0
 40
0
 40
0
 40
0
 40
0
 40
1
 40
1
 40
1
 40
1
 10
1272.948600
 20
645.676070
 30
0.0
 10
1272.458600
 20
645.161400
 30
0.0
 10
1260.917600
 20
625.562750
 30
0.0
 10
1252.680700
 20
611.257360
 30
0.0
  0
SPLINE
  5
2f9
100
AcDbEntity
  8
1
 62
7
100
AcDbSpline
 70
8
 71
3
 72
8
 73
4
 74
0
 40
0
 40
0
 40
0
 40
0
 40
1
 40
1
 40
1
 40
1
 10
1252.680700
 20
611.257360
 30
0.0
 10
1251.693100
 20
609.542060
 30
0.0
 10
1250.885000
 20
607.659370
 30
0.0
 10
1250.885000
 20
607.073590
 30
0.0
  0
SPLINE
  5
2fa
100
AcDbEntity
  8
1
 62
7
100
AcDbSpline
 70
8
 71
3
 72
8
 73
4
 74
0
 40
0
 40
0
 40
0
 40
0
 40
1
 40
1
 40
1
 40
1
 10
1250.885000
 20
607.073590
 30
0.0
 10
1250.885000
 20
606.487810
 30
0.0
 10
1255.996300
 20
597.260820
 30
0.0
 10
1262.243500
 20
586.569150
 30
0.0
  0
SPLINE
  5
2fb
100
AcDbEntity
  8
1
 62
7
100
AcDbSpline
 70
8
 71
3
 72
8
 73
4
 74
0
 40
0
 40
0
 40
0
 40
0
 40
1
 40
1
 40
1
 40
1
 10
1262.243500
 20
586.569150
 30
0.0
 10
1268.490700
 20
575.877490
 30
0.0
 10
1273.512100
 20
566.660180
 30
0.0
 10
1273.402200
 20
566.086250
 30
0.0
  0
SPLINE
  5
2fc
100
AcDbEntity
  8
1
 62
7
100
AcDbSpline
 70
8
 71
3
 72
8
 73
4
 74
0
 40
0
 40
0
 40
0
 40
0
 40
1
 40
1
 40
1
 40
1
 10
1273.402200
 20
566.086250
 30
0.0
 10
1273.237700
 20
565.227330
 30
0.0
 10
1271.906600
 20
565.012980
 30
0.0
 10
1265.877000
 20
564.874520
 30
0.0
  0
SPLINE
  5
2fd
100
AcDbEntity
  8
1
 62
7
100
AcDbSpline
 70
8
 71
3
 72
8
 73
4
 74
0
 40
0
 40
0
 40
0
 40
0
 40
1
 40
1
 40
1
 40
1
 10
1265.877000
 20
564.874520
 30
0.0
 10
1261.848100
 20
564.782020
 30
0.0
 10
1258.230000
 20
564.932020
 30
0.0
 10
1257.837000
 20
565.207850
 30
0.0
  0
SPLINE
  5
2fe
100
AcDbEntity
  8
1
 62
7
100
AcDbSpline
 70
8
 71
3
 72
8
 73
4
 74
0
 40
0
 40
0
 40
0
 40
0
 40
1
 40
1
 40
1
 40
1
 10
1257.837000
 20
565.207850
 30
0.0
 10
1257.095100
 20
565.728520
 30
0.0
 10
1249.791500
 20
578.172990
 30
0.0
 10
1241.410600
 20
593.196780
 30
0.0
  0
SPLINE
  5
2ff
100
AcDbEntity
  8
1
 62
7
100
AcDbSpline
 70
8
 71
3
 72
8
 73
4
 74
0
 40
0
 40
0
 40
0
 40
0
 40
1
 40
1
 40
1
 40
1
 10
1241.410600
 20
593.196780
 30
0.0
 10
1240.340600
 20
595.114840
 30
0.0
 10
1239.184600
 20
596.857540
 30
0.0
 10
1238.841800
 20
597.069460
 30
0.0
  0
SPLINE
  5
300
100
AcDbEntity
  8
1
 62
7
100
AcDbSpline
 70
8
 71
3
 72
8
 73
4
 74
0
 40
0
 40
0
 40
0
 40
0
 40
1
 40
1
 40
1
 40
1
 10
1238.841800
 20
597.069460
 30
0.0
 10
1238.461700
 20
597.304310
 30
0.0
 10
1238.218300
 20
591.374120
 30
0.0
 10
1238.218300
 20
581.882080
 30
0.0
  0
SPLINE
  5
301
100
AcDbEntity
  8
1
 62
7
100
AcDbSpline
 70
8
 71
3
 72
8
 73
4
 74
0
 40
0
 40
0
 40
0
 40
0
 40
1
 40
1
 40
1
 40
1
 10
1238.218300
 20
581.882080
 30
0.0
 10
1238.218300
 20
570.658890
 30
0.0
 10
1237.994900
 20
566.085960
 30
0.0
 10
1237.418300
 20
565.509400
 30
0.0
  0
SPLINE
  5
302
100
AcDbEntity
  8
1
 62
7
100
AcDbSpline
 70
8
 71
3
 72
8
 73
4
 74
0
 40
0
 40
0
 40
0
 40
0
 40
1
 40
1
 40
1
 40
1
 10
1237.418300
 20
565.509400
 30
0.0
 10
1236.512500
 20
564.603590
 30
0.0
 10
1225.739000
 20
564.399250
 30
0.0
 10
1224.379900
 20
565.262100
 30
0.0
  0
LWPOLYLINE
  5
303
100
AcDbEntity
  8
1
 62
7
100
AcDbPolyline
 90
3
 70
0
 10
1248.286800
 20
633.255540
 30
0.0
 10
1257.355300
 20
649.042740
 30
0.0
 10
1265.453500
 20
649.229920
 30
0.0
  0
SPLINE
  5
304
100
AcDbEntity
  8
1
 62
7
100
AcDbSpline
 70
8
 71
3
 72
8
 73
4
 74
0
 40
0
 40
0
 40
0
 40
0
 40
1
 40
1
 40
1
 40
1
 10
1236.218300
 20
583.331150
 30
0.0
 10
1236.218300
 20
599.166220
 30
0.0
 10
1236.229300
 20
599.289710
 30
0.0
 10
1237.679600
 20
599.750000
 30
0.0
  0
SPLINE
  5
305
100
AcDbEntity
  8
1
 62
7
100
AcDbSpline
 70
8
 71
3
 72
8
 73
4
 74
0
 40
0
 40
0
 40
0
 40
0
 40
1
 40
1
 40
1
 40
1
 10
1237.679600
 20
599.750000
 30
0.0
 10
1239.581300
 20
600.353580
 30
0.0
 10
1240.659600
 20
598.984880
 30
0.0
 10
1246.800900
 20
588.172440
 30
0.0
  0
SPLINE
  5
306
100
AcDbEntity
  8
1
 62
7
100
AcDbSpline
 70
8
 71
3
 72
8
 73
4
 74
0
 40
0
 40
0
 40
0
 40
0
 40
1
 40
1
 40
1
 40
1
 10
1246.800900
 20
588.172440
 30
0.0
 10
1249.444700
 20
583.517770
 30
0.0
 10
1253.172900
 20
577.009400
 30
0.0
 10
1255.085800
 20
573.709400
 30
0.0
  0
LWPOLYLINE
  5
307
100
AcDbEntity
  8
1
 62
7
100
AcDbPolyline
 90
1
 70
1
 10
1224.379900
 20
565.262100
 30
0.0
  0
SPLINE
  5
308
100
AcDbEntity
  8
1
 62
7
100
AcDbSpline
 70
8
 71
3
 72
8
 73
4
 74
0
 40
0
 40
0
 40
0
 40
0
 40
1
 40
1
 40
1
 40
1
 10
1269.529500
 20
569.849980
 30
0.0
 10
1268.694600
 20
571.239330
 30
0.0
 10
1267.055000
 20
574.026070
 30
0.0
 10
1265.885900
 20
576.042740
 30
0.0
  0
SPLINE
  5
309
100
AcDbEntity
  8
1
 62
7
100
AcDbSpline
 70
8
 71
3
 72
8
 73
4
 74
0
 40
0
 40
0
 40
0
 40
0
 40
1
 40
1
 40
1
 40
1
 10
1265.885900
 20
576.042740
 30
0.0
 10
1264.716900
 20
578.059400
 30
0.0
 10
1260.413400
 20
585.403710
 30
0.0
 10
1256.322700
 20
592.363420
 30
0.0
  0
SPLINE
  5
30a
100
AcDbEntity
  8
1
 62
7
100
AcDbSpline
 70
8
 71
3
 72
8
 73
4
 74
0
 40
0
 40
0
 40
0
 40
0
 40
1
 40
1
 40
1
 40
1
 10
1256.322700
 20
592.363420
 30
0.0
 10
1248.519000
 20
605.640080
 30
0.0
 10
1248.021700
 20
607.094480
 30
0.0
 10
1249.980700
 20
610.909180
 30
0.0
  0
SPLINE
  5
30b
100
AcDbEntity
  8
1
 62
7
100
AcDbSpline
 70
8
 71
3
 72
8
 73
4
 74
0
 40
0
 40
0
 40
0
 40
0
 40
1
 40
1
 40
1
 40
1
 10
1249.980700
 20
610.909180
 30
0.0
 10
1251.415700
 20
613.703690
 30
0.0
 10
1266.456000
 20
639.491790
 30
0.0
 10
1268.950200
 20
643.434440
 30
0.0
  0
SPLINE
  5
30c
100
AcDbEntity
  8
1
 62
7
100
AcDbSpline
 70
8
 71
3
 72
8
 73
4
 74
0
 40
0
 40
0
 40
0
 40
0
 40
1
 40
1
 40
1
 40
1
 10
1268.950200
 20
643.434440
 30
0.0
 10
1270.014300
 20
645.116540
 30
0.0
 10
1270.885000
 20
646.702790
 30
0.0
 10
1270.885000
 20
646.959450
 30
0.0
  0
SPLINE
  5
30d
100
AcDbEntity
  8
1
 62
7
100
AcDbSpline
 70
8
 71
3
 72
8
 73
4
 74
0
 40
0
 40
0
 40
0
 40
0
 40
1
 40
1
 40
1
 40
1
 10
1270.885000
 20
646.959450
 30
0.0
 10
1270.885000
 20
647.216110
 30
0.0
 10
1268.170000
 20
647.339850
 30
0.0
 10
1264.851700
 20
647.234420
 30
0.0
  0
LWPOLYLINE
  5
30e
100
AcDbEntity
  8
1
 62
7
100
AcDbPolyline
 90
5
 70
0
 10
1255.085800
 20
573.709400
 30
0.0
 10
1258.563800
 20
567.709400
 30
0.0
 10
1264.805600
 20
567.516650
 30
0.0
 10
1271.047500
 20
567.323890
 30
0.0
 10
1269.529500
 20
569.849980
 30
0.0
  0
SPLINE
  5
30f
100
AcDbEntity
  8
1
 62
7
100
AcDbSpline
 70
8
 71
3
 72
8
 73
4
 74
0
 40
0
 40
0
 40
0
 40
0
 40
1
 40
1
 40
1
 40
1
 10
1249.685000
 20
631.161390
 30
0.0
 10
1244.661700
 20
622.426660
 30
0.0
 10
1240.052400
 20
615.001180
 30
0.0
 10
1239.442300
 20
614.660330
 30
0.0
  0
SPLINE
  5
310
100
AcDbEntity
  8
1
 62
7
100
AcDbSpline
 70
8
 71
3
 72
8
 73
4
 74
0
 40
0
 40
0
 40
0
 40
0
 40
1
 40
1
 40
1
 40
1
 10
1239.442300
 20
614.660330
 30
0.0
 10
1238.832100
 20
614.319490
 30
0.0
 10
1237.862400
 20
614.221170
 30
0.0
 10
1237.287300
 20
614.441840
 30
0.0
  0
SPLINE
  5
311
100
AcDbEntity
  8
1
 62
7
100
AcDbSpline
 70
8
 71
3
 72
8
 73
4
 74
0
 40
0
 40
0
 40
0
 40
0
 40
1
 40
1
 40
1
 40
1
 10
1237.287300
 20
614.441840
 30
0.0
 10
1236.384600
 20
614.788250
 30
0.0
 10
1236.217300
 20
617.042900
 30
0.0
 10
1236.063400
 20
630.942910
 30
0.0
  0
LWPOLYLINE
  5
312
100
AcDbEntity
  8
1
 62
7
100
AcDbPolyline
 90
3
 70
0
 10
1264.851700
 20
647.234420
 30
0.0
 10
1258.818400
 20
647.042740
 30
0.0
 10
1249.685000
 20
631.161390
 30
0.0
  0
SPLINE
  5
313
100
AcDbEntity
  8
1
 62
7
100
AcDbSpline
 70
8
 71
3
 72
8
 73
4
 74
0
 40
0
 40
0
 40
0
 40
0
 40
1
 40
1
 40
1
 40
1
 10
1178.132800
 20
565.347790
 30
0.0
 10
1172.704400
 20
566.335120
 30
0.0
 10
1168.592200
 20
569.227860
 30
0.0
 10
1165.440300
 20
574.276320
 30
0.0
  0
SPLINE
  5
314
100
AcDbEntity
  8
1
 62
7
100
AcDbSpline
 70
8
 71
3
 72
8
 73
4
 74
0
 40
0
 40
0
 40
0
 40
0
 40
1
 40
1
 40
1
 40
1
 10
1165.440300
 20
574.276320
 30
0.0
 10
1163.493200
 20
577.395110
 30
0.0
 10
1163.271200
 20
578.301560
 30
0.0
 10
1163.014700
 20
584.177560
 30
0.0
  0
SPLINE
  5
315
100
AcDbEntity
  8
1
 62
7
100
AcDbSpline
 70
8
 71
3
 72
8
 73
4
 74
0
 40
0
 40
0
 40
0
 40
0
 40
1
 40
1
 40
1
 40
1
 10
1163.014700
 20
584.177560
 30
0.0
 10
1162.682400
 20
591.792590
 30
0.0
 10
1162.420000
 20
591.566720
 30
0.0
 10
1171.220600
 20
591.240410
 30
0.0
  0
LWPOLYLINE
  5
316
100
AcDbEntity
  8
1
 62
7
100
AcDbPolyline
 90
9
 70
0
 10
1236.063400
 20
630.942910
 30
0.0
 10
1235.885000
 20
647.042740
 30
0.0
 10
1230.718300
 20
647.237450
 30
0.0
 10
1225.551700
 20
647.432160
 30
0.0
 10
1225.551700
 20
607.404110
 30
0.0
 10
1225.551700
 20
567.376070
 30
0.0
 10
1230.885000
 20
567.376070
 30
0.0
 10
1236.218300
 20
567.376070
 30
0.0
 10
1236.218300
 20
583.331150
 30
0.0
  0
SPLINE
  5
317
100
AcDbEntity
  8
1
 62
7
100
AcDbSpline
 70
8
 71
3
 72
8
 73
4
 74
0
 40
0
 40
0
 40
0
 40
0
 40
1
 40
1
 40
1
 40
1
 10
1176.885000
 20
586.483230
 30
0.0
 10
1177.375900
 20
579.768770
 30
0.0
 10
1178.043000
 20
579.376070
 30
0.0
 10
1188.958800
 20
579.376070
 30
0.0
  0
SPLINE
  5
318
100
AcDbEntity
  8
1
 62
7
100
AcDbSpline
 70
8
 71
3
 72
8
 73
4
 74
0
 40
0
 40
0
 40
0
 40
0
 40
1
 40
1
 40
1
 40
1
 10
1188.958800
 20
579.376070
 30
0.0
 10
1196.625900
 20
579.376070
 30
0.0
 10
1197.693500
 20
579.517900
 30
0.0
 10
1198.868000
 20
580.692450
 30
0.0
  0
SPLINE
  5
319
100
AcDbEntity
  8
1
 62
7
100
AcDbSpline
 70
8
 71
3
 72
8
 73
4
 74
0
 40
0
 40
0
 40
0
 40
0
 40
1
 40
1
 40
1
 40
1
 10
1198.868000
 20
580.692450
 30
0.0
 10
1199.592000
 20
581.416450
 30
0.0
 10
1200.350600
 20
582.691450
 30
0.0
 10
1200.553800
 20
583.525780
 30
0.0
  0
SPLINE
  5
31a
100
AcDbEntity
  8
1
 62
7
100
AcDbSpline
 70
8
 71
3
 72
8
 73
4
 74
0
 40
0
 40
0
 40
0
 40
0
 40
1
 40
1
 40
1
 40
1
 10
1200.553800
 20
583.525780
 30
0.0
 10
1200.756900
 20
584.360110
 30
0.0
 10
1200.839600
 20
596.142740
 30
0.0
 10
1200.737400
 20
609.709400
 30
0.0
  0
LWPOLYLINE
  5
31b
100
AcDbEntity
  8
1
 62
7
100
AcDbPolyline
 90
3
 70
0
 10
1171.220600
 20
591.240410
 30
0.0
 10
1176.551700
 20
591.042740
 30
0.0
 10
1176.885000
 20
586.483230
 30
0.0
  0
SPLINE
  5
31c
100
AcDbEntity
  8
1
 62
7
100
AcDbSpline
 70
8
 71
3
 72
8
 73
4
 74
0
 40
0
 40
0
 40
0
 40
0
 40
1
 40
1
 40
1
 40
1
 10
1188.551700
 20
634.748500
 30
0.0
 10
1181.951700
 20
634.953340
 30
0.0
 10
1176.466200
 20
635.178340
 30
0.0
 10
1176.361700
 20
635.248500
 30
0.0
  0
SPLINE
  5
31d
100
AcDbEntity
  8
1
 62
7
100
AcDbSpline
 70
8
 71
3
 72
8
 73
4
 74
0
 40
0
 40
0
 40
0
 40
0
 40
1
 40
1
 40
1
 40
1
 10
1176.361700
 20
635.248500
 30
0.0
 10
1176.257200
 20
635.318700
 30
0.0
 10
1176.257200
 20
638.451070
 30
0.0
 10
1176.361700
 20
642.209400
 30
0.0
  0
LWPOLYLINE
  5
31e
100
AcDbEntity
  8
1
 62
7
100
AcDbPolyline
 90
3
 70
0
 10
1200.737400
 20
609.709400
 30
0.0
 10
1200.551700
 20
634.376070
 30
0.0
 10
1188.551700
 20
634.748500
 30
0.0
  0
SPLINE
  5
31f
100
AcDbEntity
  8
1
 62
7
100
AcDbSpline
 70
8
 71
3
 72
8
 73
4
 74
0
 40
0
 40
0
 40
0
 40
0
 40
1
 40
1
 40
1
 40
1
 10
1214.724500
 20
615.136810
 30
0.0
 10
1214.832600
 20
593.925940
 30
0.0
 10
1214.646500
 20
580.298400
 30
0.0
 10
1214.226700
 20
578.740410
 30
0.0
  0
SPLINE
  5
320
100
AcDbEntity
  8
1
 62
7
100
AcDbSpline
 70
8
 71
3
 72
8
 73
4
 74
0
 40
0
 40
0
 40
0
 40
0
 40
1
 40
1
 40
1
 40
1
 10
1214.226700
 20
578.740410
 30
0.0
 10
1212.797700
 20
573.433620
 30
0.0
 10
1207.695900
 20
568.046710
 30
0.0
 10
1202.218300
 20
566.060920
 30
0.0
  0
SPLINE
  5
321
100
AcDbEntity
  8
1
 62
7
100
AcDbSpline
 70
8
 71
3
 72
8
 73
4
 74
0
 40
0
 40
0
 40
0
 40
0
 40
1
 40
1
 40
1
 40
1
 10
1202.218300
 20
566.060920
 30
0.0
 10
1199.421700
 20
565.047040
 30
0.0
 10
1182.535200
 20
564.547070
 30
0.0
 10
1178.132800
 20
565.347790
 30
0.0
  0
LWPOLYLINE
  5
322
100
AcDbEntity
  8
1
 62
7
100
AcDbPolyline
 90
5
 70
0
 10
1176.361700
 20
642.209400
 30
0.0
 10
1176.551700
 20
649.042740
 30
0.0
 10
1195.551700
 20
649.042740
 30
0.0
 10
1214.551700
 20
649.042740
 30
0.0
 10
1214.724500
 20
615.136810
 30
0.0
  0
SPLINE
  5
323
100
AcDbEntity
  8
1
 62
7
100
AcDbSpline
 70
8
 71
3
 72
8
 73
4
 74
0
 40
0
 40
0
 40
0
 40
0
 40
1
 40
1
 40
1
 40
1
 10
1203.975700
 20
569.187140
 30
0.0
 10
1207.624100
 20
571.134640
 30
0.0
 10
1210.914200
 20
575.402220
 30
0.0
 10
1212.002900
 20
579.599530
 30
0.0
  0
SPLINE
  5
324
100
AcDbEntity
  8
1
 62
7
100
AcDbSpline
 70
8
 71
3
 72
8
 73
4
 74
0
 40
0
 40
0
 40
0
 40
0
 40
1
 40
1
 40
1
 40
1
 10
1212.002900
 20
579.599530
 30
0.0
 10
1212.675500
 20
582.192200
 30
0.0
 10
1212.885000
 20
590.648930
 30
0.0
 10
1212.885000
 20
615.199280
 30
0.0
  0
LWPOLYLINE
  5
325
100
AcDbEntity
  8
1
 62
7
100
AcDbPolyline
 90
1
 70
1
 10
1178.132800
 20
565.347790
 30
0.0
  0
SPLINE
  5
326
100
AcDbEntity
  8
1
 62
7
100
AcDbSpline
 70
8
 71
3
 72
8
 73
4
 74
0
 40
0
 40
0
 40
0
 40
0
 40
1
 40
1
 40
1
 40
1
 10
1189.061700
 20
637.376070
 30
0.0
 10
1197.424400
 20
637.376070
 30
0.0
 10
1200.264900
 20
637.155690
 30
0.0
 10
1201.257600
 20
636.429870
 30
0.0
  0
SPLINE
  5
327
100
AcDbEntity
  8
1
 62
7
100
AcDbSpline
 70
8
 71
3
 72
8
 73
4
 74
0
 40
0
 40
0
 40
0
 40
0
 40
1
 40
1
 40
1
 40
1
 10
1201.257600
 20
636.429870
 30
0.0
 10
1202.489400
 20
635.529150
 30
0.0
 10
1202.559300
 20
634.383330
 30
0.0
 10
1202.711600
 20
612.596530
 30
0.0
  0
SPLINE
  5
328
100
AcDbEntity
  8
1
 62
7
100
AcDbSpline
 70
8
 71
3
 72
8
 73
4
 74
0
 40
0
 40
0
 40
0
 40
0
 40
1
 40
1
 40
1
 40
1
 10
1202.711600
 20
612.596530
 30
0.0
 10
1202.909700
 20
584.258710
 30
0.0
 10
1202.722600
 20
581.778290
 30
0.0
 10
1200.204000
 20
579.259210
 30
0.0
  0
SPLINE
  5
329
100
AcDbEntity
  8
1
 62
7
100
AcDbSpline
 70
8
 71
3
 72
8
 73
4
 74
0
 40
0
 40
0
 40
0
 40
0
 40
1
 40
1
 40
1
 40
1
 10
1200.204000
 20
579.259210
 30
0.0
 10
1198.323200
 20
577.378380
 30
0.0
 10
1198.309800
 20
577.376070
 30
0.0
 10
1189.301000
 20
577.376070
 30
0.0
  0
SPLINE
  5
32a
100
AcDbEntity
  8
1
 62
7
100
AcDbSpline
 70
8
 71
3
 72
8
 73
4
 74
0
 40
0
 40
0
 40
0
 40
0
 40
1
 40
1
 40
1
 40
1
 10
1189.301000
 20
577.376070
 30
0.0
 10
1184.308100
 20
577.376070
 30
0.0
 10
1179.581300
 20
577.694890
 30
0.0
 10
1178.713800
 20
578.090180
 30
0.0
  0
SPLINE
  5
32b
100
AcDbEntity
  8
1
 62
7
100
AcDbSpline
 70
8
 71
3
 72
8
 73
4
 74
0
 40
0
 40
0
 40
0
 40
0
 40
1
 40
1
 40
1
 40
1
 10
1178.713800
 20
578.090180
 30
0.0
 10
1176.424100
 20
579.133410
 30
0.0
 10
1175.450200
 20
581.100260
 30
0.0
 10
1175.052700
 20
585.483910
 30
0.0
  0
LWPOLYLINE
  5
32c
100
AcDbEntity
  8
1
 62
7
100
AcDbPolyline
 90
7
 70
0
 10
1212.885000
 20
615.199280
 30
0.0
 10
1212.885000
 20
647.398580
 30
0.0
 10
1195.718300
 20
647.220660
 30
0.0
 10
1178.551700
 20
647.042740
 30
0.0
 10
1178.355800
 20
642.209400
 30
0.0
 10
1178.159900
 20
637.376070
 30
0.0
 10
1189.061700
 20
637.376070
 30
0.0
  0
SPLINE
  5
32d
100
AcDbEntity
  8
1
 62
7
100
AcDbSpline
 70
8
 71
3
 72
8
 73
4
 74
0
 40
0
 40
0
 40
0
 40
0
 40
1
 40
1
 40
1
 40
1
 10
1164.885000
 20
585.542740
 30
0.0
 10
1164.895000
 20
577.743420
 30
0.0
 10
1167.954000
 20
572.373620
 30
0.0
 10
1174.219200
 20
569.170440
 30
0.0
  0
SPLINE
  5
32e
100
AcDbEntity
  8
1
 62
7
100
AcDbSpline
 70
8
 71
3
 72
8
 73
4
 74
0
 40
0
 40
0
 40
0
 40
0
 40
1
 40
1
 40
1
 40
1
 10
1174.219200
 20
569.170440
 30
0.0
 10
1177.878600
 20
567.299500
 30
0.0
 10
1177.889800
 20
567.298290
 30
0.0
 10
1189.548000
 20
567.506720
 30
0.0
  0
SPLINE
  5
32f
100
AcDbEntity
  8
1
 62
7
100
AcDbSpline
 70
8
 71
3
 72
8
 73
4
 74
0
 40
0
 40
0
 40
0
 40
0
 40
1
 40
1
 40
1
 40
1
 10
1189.548000
 20
567.506720
 30
0.0
 10
1200.072000
 20
567.694880
 30
0.0
 10
1201.484700
 20
567.859460
 30
0.0
 10
1203.972000
 20
569.187140
 30
0.0
  0
LWPOLYLINE
  5
330
100
AcDbEntity
  8
1
 62
7
100
AcDbPolyline
 90
5
 70
0
 10
1175.052700
 20
585.483910
 30
0.0
 10
1174.699800
 20
589.376070
 30
0.0
 10
1169.792400
 20
589.376070
 30
0.0
 10
1164.885000
 20
589.376070
 30
0.0
 10
1164.885000
 20
585.542740
 30
0.0
  0
SPLINE
  5
331
100
AcDbEntity
  8
1
 62
7
100
AcDbSpline
 70
8
 71
3
 72
8
 73
4
 74
0
 40
0
 40
0
 40
0
 40
0
 40
1
 40
1
 40
1
 40
1
 10
1142.672100
 20
565.542740
 30
0.0
 10
1141.621900
 20
566.314230
 30
0.0
 10
1141.550600
 20
569.443150
 30
0.0
 10
1141.711300
 20
607.709400
 30
0.0
  0
LWPOLYLINE
  5
332
100
AcDbEntity
  8
1
 62
7
100
AcDbPolyline
 90
2
 70
0
 10
1203.972000
 20
569.187140
 30
0.0
 10
1203.975700
 20
569.187140
 30
0.0
  0
SPLINE
  5
333
100
AcDbEntity
  8
1
 62
7
100
AcDbSpline
 70
8
 71
3
 72
8
 73
4
 74
0
 40
0
 40
0
 40
0
 40
0
 40
1
 40
1
 40
1
 40
1
 10
1156.058600
 20
607.709400
 30
0.0
 10
1156.219400
 20
569.443150
 30
0.0
 10
1156.147600
 20
566.314230
 30
0.0
 10
1155.097900
 20
565.542740
 30
0.0
  0
SPLINE
  5
334
100
AcDbEntity
  8
1
 62
7
100
AcDbSpline
 70
8
 71
3
 72
8
 73
4
 74
0
 40
0
 40
0
 40
0
 40
0
 40
1
 40
1
 40
1
 40
1
 10
1155.097900
 20
565.542740
 30
0.0
 10
1154.424800
 20
565.048280
 30
0.0
 10
1151.898300
 20
564.709400
 30
0.0
 10
1148.885000
 20
564.709400
 30
0.0
  0
SPLINE
  5
335
100
AcDbEntity
  8
1
 62
7
100
AcDbSpline
 70
8
 71
3
 72
8
 73
4
 74
0
 40
0
 40
0
 40
0
 40
0
 40
1
 40
1
 40
1
 40
1
 10
1148.885000
 20
564.709400
 30
0.0
 10
1145.871600
 20
564.709400
 30
0.0
 10
1143.345200
 20
565.048280
 30
0.0
 10
1142.672100
 20
565.542740
 30
0.0
  0
LWPOLYLINE
  5
336
100
AcDbEntity
  8
1
 62
7
100
AcDbPolyline
 90
5
 70
0
 10
1141.711300
 20
607.709400
 30
0.0
 10
1141.885000
 20
649.042740
 30
0.0
 10
1148.885000
 20
649.042740
 30
0.0
 10
1155.885000
 20
649.042740
 30
0.0
 10
1156.058600
 20
607.709400
 30
0.0
  0
LWPOLYLINE
  5
337
100
AcDbEntity
  8
1
 62
7
100
AcDbPolyline
 90
1
 70
1
 10
1142.672100
 20
565.542740
 30
0.0
  0
SPLINE
  5
338
100
AcDbEntity
  8
1
 62
7
100
AcDbSpline
 70
8
 71
3
 72
8
 73
4
 74
0
 40
0
 40
0
 40
0
 40
0
 40
1
 40
1
 40
1
 40
1
 10
1143.834600
 20
615.042740
 30
0.0
 10
1143.792600
 20
597.442740
 30
0.0
 10
1143.907600
 20
579.517740
 30
0.0
 10
1144.089000
 20
575.209400
 30
0.0
  0
LWPOLYLINE
  5
339
100
AcDbEntity
  8
1
 62
7
100
AcDbPolyline
 90
5
 70
0
 10
1154.056900
 20
607.209400
 30
0.0
 10
1153.885000
 20
647.042740
 30
0.0
 10
1148.897300
 20
647.042740
 30
0.0
 10
1143.909600
 20
647.042740
 30
0.0
 10
1143.834600
 20
615.042740
 30
0.0
  0
SPLINE
  5
33a
100
AcDbEntity
  8
1
 62
7
100
AcDbSpline
 70
8
 71
3
 72
8
 73
4
 74
0
 40
0
 40
0
 40
0
 40
0
 40
1
 40
1
 40
1
 40
1
 10
1078.294800
 20
565.617220
 30
0.0
 10
1077.748500
 20
566.275540
 30
0.0
 10
1077.588600
 20
577.863650
 30
0.0
 10
1077.713200
 20
607.783880
 30
0.0
  0
LWPOLYLINE
  5
33b
100
AcDbEntity
  8
1
 62
7
100
AcDbPolyline
 90
5
 70
0
 10
1144.089000
 20
575.209400
 30
0.0
 10
1144.418800
 20
567.376070
 30
0.0
 10
1149.324000
 20
567.376070
 30
0.0
 10
1154.229200
 20
567.376070
 30
0.0
 10
1154.056900
 20
607.209400
 30
0.0
  0
SPLINE
  5
33c
100
AcDbEntity
  8
1
 62
7
100
AcDbSpline
 70
8
 71
3
 72
8
 73
4
 74
0
 40
0
 40
0
 40
0
 40
0
 40
1
 40
1
 40
1
 40
1
 10
1130.056800
 20
607.783880
 30
0.0
 10
1130.181300
 20
577.863650
 30
0.0
 10
1130.021800
 20
566.275540
 30
0.0
 10
1129.475100
 20
565.617220
 30
0.0
  0
SPLINE
  5
33d
100
AcDbEntity
  8
1
 62
7
100
AcDbSpline
 70
8
 71
3
 72
8
 73
4
 74
0
 40
0
 40
0
 40
0
 40
0
 40
1
 40
1
 40
1
 40
1
 10
1129.475100
 20
565.617220
 30
0.0
 10
1128.491000
 20
564.431410
 30
0.0
 10
1117.519800
 20
564.341280
 30
0.0
 10
1116.351700
 20
565.509400
 30
0.0
  0
SPLINE
  5
33e
100
AcDbEntity
  8
1
 62
7
100
AcDbSpline
 70
8
 71
3
 72
8
 73
4
 74
0
 40
0
 40
0
 40
0
 40
0
 40
1
 40
1
 40
1
 40
1
 10
1116.351700
 20
565.509400
 30
0.0
 10
1115.771600
 20
566.089470
 30
0.0
 10
1115.551700
 20
570.946440
 30
0.0
 10
1115.551700
 20
583.176070
 30
0.0
  0
LWPOLYLINE
  5
33f
100
AcDbEntity
  8
1
 62
7
100
AcDbPolyline
 90
13
 70
0
 10
1077.713200
 20
607.783880
 30
0.0
 10
1077.885000
 20
649.042740
 30
0.0
 10
1084.885000
 20
649.042740
 30
0.0
 10
1091.885000
 20
649.042740
 30
0.0
 10
1092.062900
 20
631.876070
 30
0.0
 10
1092.240800
 20
614.709400
 30
0.0
 10
1103.885000
 20
614.709400
 30
0.0
 10
1115.529100
 20
614.709400
 30
0.0
 10
1115.707100
 20
631.876070
 30
0.0
 10
1115.885000
 20
649.042740
 30
0.0
 10
1122.885000
 20
649.042740
 30
0.0
 10
1129.885000
 20
649.042740
 30
0.0
 10
1130.056800
 20
607.783880
 30
0.0
  0
SPLINE
  5
340
100
AcDbEntity
  8
1
 62
7
100
AcDbSpline
 70
8
 71
3
 72
8
 73
4
 74
0
 40
0
 40
0
 40
0
 40
0
 40
1
 40
1
 40
1
 40
1
 10
1092.218300
 20
583.066190
 30
0.0
 10
1092.218300
 20
566.964290
 30
0.0
 10
1092.152300
 20
566.054090
 30
0.0
 10
1090.928800
 20
565.399530
 30
0.0
  0
SPLINE
  5
341
100
AcDbEntity
  8
1
 62
7
100
AcDbSpline
 70
8
 71
3
 72
8
 73
4
 74
0
 40
0
 40
0
 40
0
 40
0
 40
1
 40
1
 40
1
 40
1
 10
1090.928800
 20
565.399530
 30
0.0
 10
1088.962700
 20
564.347320
 30
0.0
 10
1079.209300
 20
564.515370
 30
0.0
 10
1078.294800
 20
565.617220
 30
0.0
  0
LWPOLYLINE
  5
342
100
AcDbEntity
  8
1
 62
7
100
AcDbPolyline
 90
5
 70
0
 10
1115.551700
 20
583.176070
 30
0.0
 10
1115.551700
 20
600.042740
 30
0.0
 10
1103.885000
 20
600.042740
 30
0.0
 10
1092.218300
 20
600.042740
 30
0.0
 10
1092.218300
 20
583.066190
 30
0.0
  0
SPLINE
  5
343
100
AcDbEntity
  8
1
 62
7
100
AcDbSpline
 70
8
 71
3
 72
8
 73
4
 74
0
 40
0
 40
0
 40
0
 40
0
 40
1
 40
1
 40
1
 40
1
 10
1090.218300
 20
583.909400
 30
0.0
 10
1090.218300
 20
595.879780
 30
0.0
 10
1090.439100
 20
600.663530
 30
0.0
 10
1091.018300
 20
601.242740
 30
0.0
  0
SPLINE
  5
344
100
AcDbEntity
  8
1
 62
7
100
AcDbSpline
 70
8
 71
3
 72
8
 73
4
 74
0
 40
0
 40
0
 40
0
 40
0
 40
1
 40
1
 40
1
 40
1
 10
1091.018300
 20
601.242740
 30
0.0
 10
1092.144900
 20
602.369340
 30
0.0
 10
1115.625000
 20
602.369340
 30
0.0
 10
1116.751700
 20
601.242740
 30
0.0
  0
SPLINE
  5
345
100
AcDbEntity
  8
1
 62
7
100
AcDbSpline
 70
8
 71
3
 72
8
 73
4
 74
0
 40
0
 40
0
 40
0
 40
0
 40
1
 40
1
 40
1
 40
1
 10
1116.751700
 20
601.242740
 30
0.0
 10
1117.330900
 20
600.663530
 30
0.0
 10
1117.551700
 20
595.879780
 30
0.0
 10
1117.551700
 20
583.909400
 30
0.0
  0
LWPOLYLINE
  5
346
100
AcDbEntity
  8
1
 62
7
100
AcDbPolyline
 90
1
 70
1
 10
1078.294800
 20
565.617220
 30
0.0
  0
SPLINE
  5
347
100
AcDbEntity
  8
1
 62
7
100
AcDbSpline
 70
8
 71
3
 72
8
 73
4
 74
0
 40
0
 40
0
 40
0
 40
0
 40
1
 40
1
 40
1
 40
1
 10
1117.541700
 20
630.904110
 30
0.0
 10
1117.531700
 20
621.677430
 30
0.0
 10
1117.252800
 20
613.934310
 30
0.0
 10
1116.900600
 20
613.376070
 30
0.0
  0
SPLINE
  5
348
100
AcDbEntity
  8
1
 62
7
100
AcDbSpline
 70
8
 71
3
 72
8
 73
4
 74
0
 40
0
 40
0
 40
0
 40
0
 40
1
 40
1
 40
1
 40
1
 10
1116.900600
 20
613.376070
 30
0.0
 10
1116.387700
 20
612.563240
 30
0.0
 10
1114.087900
 20
612.336910
 30
0.0
 10
1104.613100
 20
612.166850
 30
0.0
  0
SPLINE
  5
349
100
AcDbEntity
  8
1
 62
7
100
AcDbSpline
 70
8
 71
3
 72
8
 73
4
 74
0
 40
0
 40
0
 40
0
 40
0
 40
1
 40
1
 40
1
 40
1
 10
1104.613100
 20
612.166850
 30
0.0
 10
1097.079800
 20
612.031630
 30
0.0
 10
1092.476400
 20
612.214650
 30
0.0
 10
1091.599000
 20
612.684200
 30
0.0
  0
SPLINE
  5
34a
100
AcDbEntity
  8
1
 62
7
100
AcDbSpline
 70
8
 71
3
 72
8
 73
4
 74
0
 40
0
 40
0
 40
0
 40
0
 40
1
 40
1
 40
1
 40
1
 10
1091.599000
 20
612.684200
 30
0.0
 10
1090.296000
 20
613.381560
 30
0.0
 10
1090.234300
 20
614.086750
 30
0.0
 10
1090.063400
 20
630.226750
 30
0.0
  0
LWPOLYLINE
  5
34b
100
AcDbEntity
  8
1
 62
7
100
AcDbPolyline
 90
9
 70
0
 10
1117.551700
 20
583.909400
 30
0.0
 10
1117.551700
 20
567.376070
 30
0.0
 10
1122.890200
 20
567.376070
 30
0.0
 10
1128.228800
 20
567.376070
 30
0.0
 10
1128.056900
 20
607.209400
 30
0.0
 10
1127.885000
 20
647.042740
 30
0.0
 10
1122.718300
 20
647.237450
 30
0.0
 10
1117.551700
 20
647.432160
 30
0.0
 10
1117.541700
 20
630.904110
 30
0.0
  0
SPLINE
  5
34c
100
AcDbEntity
  8
1
 62
7
100
AcDbSpline
 70
8
 71
3
 72
8
 73
4
 74
0
 40
0
 40
0
 40
0
 40
0
 40
1
 40
1
 40
1
 40
1
 10
1031.366700
 20
565.358330
 30
0.0
 10
1025.265200
 20
566.467750
 30
0.0
 10
1020.108900
 20
570.541310
 30
0.0
 10
1017.420700
 20
576.376070
 30
0.0
  0
SPLINE
  5
34d
100
AcDbEntity
  8
1
 62
7
100
AcDbSpline
 70
8
 71
3
 72
8
 73
4
 74
0
 40
0
 40
0
 40
0
 40
0
 40
1
 40
1
 40
1
 40
1
 10
1017.420700
 20
576.376070
 30
0.0
 10
1015.895700
 20
579.686080
 30
0.0
 10
1015.885000
 20
579.903040
 30
0.0
 10
1015.885000
 20
607.376070
 30
0.0
  0
LWPOLYLINE
  5
34e
100
AcDbEntity
  8
1
 62
7
100
AcDbPolyline
 90
9
 70
0
 10
1090.063400
 20
630.226750
 30
0.0
 10
1089.885300
 20
647.042740
 30
0.0
 10
1084.885300
 20
647.042740
 30
0.0
 10
1079.885300
 20
647.042740
 30
0.0
 10
1079.713400
 20
607.209400
 30
0.0
 10
1079.541500
 20
567.376070
 30
0.0
 10
1084.880000
 20
567.376070
 30
0.0
 10
1090.218300
 20
567.376070
 30
0.0
 10
1090.218300
 20
583.909400
 30
0.0
  0
SPLINE
  5
34f
100
AcDbEntity
  8
1
 62
7
100
AcDbSpline
 70
8
 71
3
 72
8
 73
4
 74
0
 40
0
 40
0
 40
0
 40
0
 40
1
 40
1
 40
1
 40
1
 10
1017.686800
 20
638.458300
 30
0.0
 10
1020.054900
 20
642.947420
 30
0.0
 10
1024.853000
 20
647.116940
 30
0.0
 10
1029.103400
 20
648.379160
 30
0.0
  0
SPLINE
  5
350
100
AcDbEntity
  8
1
 62
7
100
AcDbSpline
 70
8
 71
3
 72
8
 73
4
 74
0
 40
0
 40
0
 40
0
 40
0
 40
1
 40
1
 40
1
 40
1
 10
1029.103400
 20
648.379160
 30
0.0
 10
1031.391300
 20
649.058610
 30
0.0
 10
1035.461500
 20
649.376070
 30
0.0
 10
1041.885000
 20
649.376070
 30
0.0
  0
SPLINE
  5
351
100
AcDbEntity
  8
1
 62
7
100
AcDbSpline
 70
8
 71
3
 72
8
 73
4
 74
0
 40
0
 40
0
 40
0
 40
0
 40
1
 40
1
 40
1
 40
1
 10
1041.885000
 20
649.376070
 30
0.0
 10
1053.934600
 20
649.376070
 30
0.0
 10
1057.091100
 20
648.517640
 30
0.0
 10
1061.954500
 20
643.918060
 30
0.0
  0
SPLINE
  5
352
100
AcDbEntity
  8
1
 62
7
100
AcDbSpline
 70
8
 71
3
 72
8
 73
4
 74
0
 40
0
 40
0
 40
0
 40
0
 40
1
 40
1
 40
1
 40
1
 10
1061.954500
 20
643.918060
 30
0.0
 10
1066.050800
 20
640.043880
 30
0.0
 10
1067.542200
 20
636.726990
 30
0.0
 10
1067.743400
 20
631.042740
 30
0.0
  0
LWPOLYLINE
  5
353
100
AcDbEntity
  8
1
 62
7
100
AcDbPolyline
 90
3
 70
0
 10
1015.885000
 20
607.376070
 30
0.0
 10
1015.885000
 20
635.042740
 30
0.0
 10
1017.686800
 20
638.458300
 30
0.0
  0
SPLINE
  5
354
100
AcDbEntity
  8
1
 62
7
100
AcDbSpline
 70
8
 71
3
 72
8
 73
4
 74
0
 40
0
 40
0
 40
0
 40
0
 40
1
 40
1
 40
1
 40
1
 10
1063.214700
 20
626.709400
 30
0.0
 10
1060.646000
 20
626.526070
 30
0.0
 10
1057.496000
 20
626.526070
 30
0.0
 10
1056.214700
 20
626.709400
 30
0.0
  0
SPLINE
  5
355
100
AcDbEntity
  8
1
 62
7
100
AcDbSpline
 70
8
 71
3
 72
8
 73
4
 74
0
 40
0
 40
0
 40
0
 40
0
 40
1
 40
1
 40
1
 40
1
 10
1056.214700
 20
626.709400
 30
0.0
 10
1054.033900
 20
627.021430
 30
0.0
 10
1053.860000
 20
627.229990
 30
0.0
 10
1053.494100
 20
629.971890
 30
0.0
  0
SPLINE
  5
356
100
AcDbEntity
  8
1
 62
7
100
AcDbSpline
 70
8
 71
3
 72
8
 73
4
 74
0
 40
0
 40
0
 40
0
 40
0
 40
1
 40
1
 40
1
 40
1
 10
1053.494100
 20
629.971890
 30
0.0
 10
1052.908500
 20
634.360190
 30
0.0
 10
1052.046900
 20
634.709400
 30
0.0
 10
1041.805900
 20
634.709400
 30
0.0
  0
SPLINE
  5
357
100
AcDbEntity
  8
1
 62
7
100
AcDbSpline
 70
8
 71
3
 72
8
 73
4
 74
0
 40
0
 40
0
 40
0
 40
0
 40
1
 40
1
 40
1
 40
1
 10
1041.805900
 20
634.709400
 30
0.0
 10
1029.157000
 20
634.709400
 30
0.0
 10
1030.218300
 20
637.254520
 30
0.0
 10
1030.218300
 20
606.922530
 30
0.0
  0
LWPOLYLINE
  5
358
100
AcDbEntity
  8
1
 62
7
100
AcDbPolyline
 90
3
 70
0
 10
1067.743400
 20
631.042740
 30
0.0
 10
1067.885000
 20
627.042740
 30
0.0
 10
1063.214700
 20
626.709400
 30
0.0
  0
SPLINE
  5
359
100
AcDbEntity
  8
1
 62
7
100
AcDbSpline
 70
8
 71
3
 72
8
 73
4
 74
0
 40
0
 40
0
 40
0
 40
0
 40
1
 40
1
 40
1
 40
1
 10
1031.854700
 20
581.012430
 30
0.0
 10
1033.416300
 20
579.450860
 30
0.0
 10
1033.869200
 20
579.376070
 30
0.0
 10
1041.764800
 20
579.376070
 30
0.0
  0
SPLINE
  5
35a
100
AcDbEntity
  8
1
 62
7
100
AcDbSpline
 70
8
 71
3
 72
8
 73
4
 74
0
 40
0
 40
0
 40
0
 40
0
 40
1
 40
1
 40
1
 40
1
 10
1041.764800
 20
579.376070
 30
0.0
 10
1049.125600
 20
579.376070
 30
0.0
 10
1050.232300
 20
579.528520
 30
0.0
 10
1051.795100
 20
580.757790
 30
0.0
  0
SPLINE
  5
35b
100
AcDbEntity
  8
1
 62
7
100
AcDbSpline
 70
8
 71
3
 72
8
 73
4
 74
0
 40
0
 40
0
 40
0
 40
0
 40
1
 40
1
 40
1
 40
1
 10
1051.795100
 20
580.757790
 30
0.0
 10
1053.536900
 20
582.127920
 30
0.0
 10
1053.551600
 20
582.214600
 30
0.0
 10
1053.551600
 20
591.091120
 30
0.0
  0
LWPOLYLINE
  5
35c
100
AcDbEntity
  8
1
 62
7
100
AcDbPolyline
 90
3
 70
0
 10
1030.218300
 20
606.922530
 30
0.0
 10
1030.218300
 20
582.648800
 30
0.0
 10
1031.854700
 20
581.012430
 30
0.0
  0
SPLINE
  5
35d
100
AcDbEntity
  8
1
 62
7
100
AcDbSpline
 70
8
 71
3
 72
8
 73
4
 74
0
 40
0
 40
0
 40
0
 40
0
 40
1
 40
1
 40
1
 40
1
 10
1057.126800
 20
614.562040
 30
0.0
 10
1063.672200
 20
614.693750
 30
0.0
 10
1066.655100
 20
614.510140
 30
0.0
 10
1067.350800
 20
613.932770
 30
0.0
  0
SPLINE
  5
35e
100
AcDbEntity
  8
1
 62
7
100
AcDbSpline
 70
8
 71
3
 72
8
 73
4
 74
0
 40
0
 40
0
 40
0
 40
0
 40
1
 40
1
 40
1
 40
1
 10
1067.350800
 20
613.932770
 30
0.0
 10
1068.180300
 20
613.244330
 30
0.0
 10
1068.296000
 20
610.519520
 30
0.0
 10
1068.094200
 20
596.413470
 30
0.0
  0
SPLINE
  5
35f
100
AcDbEntity
  8
1
 62
7
100
AcDbSpline
 70
8
 71
3
 72
8
 73
4
 74
0
 40
0
 40
0
 40
0
 40
0
 40
1
 40
1
 40
1
 40
1
 10
1068.094200
 20
596.413470
 30
0.0
 10
1067.869700
 20
580.720770
 30
0.0
 10
1067.762800
 20
579.503250
 30
0.0
 10
1066.328900
 20
576.304470
 30
0.0
  0
SPLINE
  5
360
100
AcDbEntity
  8
1
 62
7
100
AcDbSpline
 70
8
 71
3
 72
8
 73
4
 74
0
 40
0
 40
0
 40
0
 40
0
 40
1
 40
1
 40
1
 40
1
 10
1066.328900
 20
576.304470
 30
0.0
 10
1064.422800
 20
572.052390
 30
0.0
 10
1060.878600
 20
568.547090
 30
0.0
 10
1056.557000
 20
566.639750
 30
0.0
  0
SPLINE
  5
361
100
AcDbEntity
  8
1
 62
7
100
AcDbSpline
 70
8
 71
3
 72
8
 73
4
 74
0
 40
0
 40
0
 40
0
 40
0
 40
1
 40
1
 40
1
 40
1
 10
1056.557000
 20
566.639750
 30
0.0
 10
1053.742200
 20
565.397440
 30
0.0
 10
1051.789000
 20
565.140750
 30
0.0
 10
1043.890300
 20
564.975090
 30
0.0
  0
SPLINE
  5
362
100
AcDbEntity
  8
1
 62
7
100
AcDbSpline
 70
8
 71
3
 72
8
 73
4
 74
0
 40
0
 40
0
 40
0
 40
0
 40
1
 40
1
 40
1
 40
1
 10
1043.890300
 20
564.975090
 30
0.0
 10
1038.754100
 20
564.867370
 30
0.0
 10
1033.118400
 20
565.039790
 30
0.0
 10
1031.366700
 20
565.358330
 30
0.0
  0
LWPOLYLINE
  5
363
100
AcDbEntity
  8
1
 62
7
100
AcDbPolyline
 90
7
 70
0
 10
1053.551600
 20
591.091120
 30
0.0
 10
1053.551600
 20
600.042740
 30
0.0
 10
1050.529100
 20
600.042740
 30
0.0
 10
1047.506500
 20
600.042740
 30
0.0
 10
1047.695800
 20
607.209400
 30
0.0
 10
1047.885000
 20
614.376070
 30
0.0
 10
1057.126800
 20
614.562040
 30
0.0
  0
SPLINE
  5
364
100
AcDbEntity
  8
1
 62
7
100
AcDbSpline
 70
8
 71
3
 72
8
 73
4
 74
0
 40
0
 40
0
 40
0
 40
0
 40
1
 40
1
 40
1
 40
1
 10
1054.983400
 20
568.399170
 30
0.0
 10
1058.728800
 20
569.675350
 30
0.0
 10
1063.113300
 20
574.048390
 30
0.0
 10
1064.652300
 20
578.042740
 30
0.0
  0
SPLINE
  5
365
100
AcDbEntity
  8
1
 62
7
100
AcDbSpline
 70
8
 71
3
 72
8
 73
4
 74
0
 40
0
 40
0
 40
0
 40
0
 40
1
 40
1
 40
1
 40
1
 10
1064.652300
 20
578.042740
 30
0.0
 10
1065.596600
 20
580.493540
 30
0.0
 10
1065.855600
 20
583.880280
 30
0.0
 10
1066.067000
 20
596.542740
 30
0.0
  0
LWPOLYLINE
  5
366
100
AcDbEntity
  8
1
 62
7
100
AcDbPolyline
 90
1
 70
1
 10
1031.366700
 20
565.358330
 30
0.0
  0
SPLINE
  5
367
100
AcDbEntity
  8
1
 62
7
100
AcDbSpline
 70
8
 71
3
 72
8
 73
4
 74
0
 40
0
 40
0
 40
0
 40
0
 40
1
 40
1
 40
1
 40
1
 10
1051.549000
 20
602.154930
 30
0.0
 10
1055.447500
 20
601.785040
 30
0.0
 10
1055.551600
 20
601.492370
 30
0.0
 10
1055.551600
 20
590.909830
 30
0.0
  0
LWPOLYLINE
  5
368
100
AcDbEntity
  8
1
 62
7
100
AcDbPolyline
 90
7
 70
0
 10
1066.067000
 20
596.542740
 30
0.0
 10
1066.325700
 20
612.042740
 30
0.0
 10
1057.576200
 20
612.042740
 30
0.0
 10
1048.826600
 20
612.042740
 30
0.0
 10
1049.022400
 20
607.209400
 30
0.0
 10
1049.218300
 20
602.376070
 30
0.0
 10
1051.549000
 20
602.154930
 30
0.0
  0
SPLINE
  5
369
100
AcDbEntity
  8
1
 62
7
100
AcDbSpline
 70
8
 71
3
 72
8
 73
4
 74
0
 40
0
 40
0
 40
0
 40
0
 40
1
 40
1
 40
1
 40
1
 10
1028.218300
 20
606.843120
 30
0.0
 10
1028.218300
 20
635.194230
 30
0.0
 10
1028.125300
 20
634.569670
 30
0.0
 10
1032.617400
 20
636.446490
 30
0.0
  0
SPLINE
  5
36a
100
AcDbEntity
  8
1
 62
7
100
AcDbSpline
 70
8
 71
3
 72
8
 73
4
 74
0
 40
0
 40
0
 40
0
 40
0
 40
1
 40
1
 40
1
 40
1
 10
1032.617400
 20
636.446490
 30
0.0
 10
1035.625600
 20
637.703430
 30
0.0
 10
1048.144300
 20
637.703430
 30
0.0
 10
1051.152600
 20
636.446490
 30
0.0
  0
SPLINE
  5
36b
100
AcDbEntity
  8
1
 62
7
100
AcDbSpline
 70
8
 71
3
 72
8
 73
4
 74
0
 40
0
 40
0
 40
0
 40
0
 40
1
 40
1
 40
1
 40
1
 10
1051.152600
 20
636.446490
 30
0.0
 10
1053.855600
 20
635.317120
 30
0.0
 10
1055.551600
 20
633.047960
 30
0.0
 10
1055.551600
 20
630.561070
 30
0.0
  0
LWPOLYLINE
  5
36c
100
AcDbEntity
  8
1
 62
7
100
AcDbPolyline
 90
9
 70
0
 10
1055.551600
 20
590.909830
 30
0.0
 10
1055.551600
 20
581.273510
 30
0.0
 10
1053.602900
 20
579.324790
 30
0.0
 10
1051.654200
 20
577.376070
 30
0.0
 10
1041.885000
 20
577.376070
 30
0.0
 10
1032.115800
 20
577.376070
 30
0.0
 10
1030.167000
 20
579.324790
 30
0.0
 10
1028.218300
 20
581.273510
 30
0.0
 10
1028.218300
 20
606.843120
 30
0.0
  0
SPLINE
  5
36d
100
AcDbEntity
  8
1
 62
7
100
AcDbSpline
 70
8
 71
3
 72
8
 73
4
 74
0
 40
0
 40
0
 40
0
 40
0
 40
1
 40
1
 40
1
 40
1
 10
1065.877300
 20
631.542740
 30
0.0
 10
1064.803600
 20
638.181550
 30
0.0
 10
1061.382300
 20
642.844790
 30
0.0
 10
1055.551600
 20
645.616580
 30
0.0
  0
SPLINE
  5
36e
100
AcDbEntity
  8
1
 62
7
100
AcDbSpline
 70
8
 71
3
 72
8
 73
4
 74
0
 40
0
 40
0
 40
0
 40
0
 40
1
 40
1
 40
1
 40
1
 10
1055.551600
 20
645.616580
 30
0.0
 10
1052.874500
 20
646.889250
 30
0.0
 10
1051.403700
 20
647.042740
 30
0.0
 10
1041.885000
 20
647.042740
 30
0.0
  0
SPLINE
  5
36f
100
AcDbEntity
  8
1
 62
7
100
AcDbSpline
 70
8
 71
3
 72
8
 73
4
 74
0
 40
0
 40
0
 40
0
 40
0
 40
1
 40
1
 40
1
 40
1
 10
1041.885000
 20
647.042740
 30
0.0
 10
1031.575100
 20
647.042740
 30
0.0
 10
1031.092300
 20
646.980840
 30
0.0
 10
1027.451600
 20
645.192940
 30
0.0
  0
SPLINE
  5
370
100
AcDbEntity
  8
1
 62
7
100
AcDbSpline
 70
8
 71
3
 72
8
 73
4
 74
0
 40
0
 40
0
 40
0
 40
0
 40
1
 40
1
 40
1
 40
1
 10
1027.451600
 20
645.192940
 30
0.0
 10
1023.706600
 20
643.353850
 30
0.0
 10
1021.569600
 20
641.169870
 30
0.0
 10
1019.150500
 20
636.709400
 30
0.0
  0
SPLINE
  5
371
100
AcDbEntity
  8
1
 62
7
100
AcDbSpline
 70
8
 71
3
 72
8
 73
4
 74
0
 40
0
 40
0
 40
0
 40
0
 40
1
 40
1
 40
1
 40
1
 10
1019.150500
 20
636.709400
 30
0.0
 10
1017.966800
 20
634.527010
 30
0.0
 10
1017.885000
 20
632.629540
 30
0.0
 10
1017.885000
 20
607.376070
 30
0.0
  0
SPLINE
  5
372
100
AcDbEntity
  8
1
 62
7
100
AcDbSpline
 70
8
 71
3
 72
8
 73
4
 74
0
 40
0
 40
0
 40
0
 40
0
 40
1
 40
1
 40
1
 40
1
 10
1017.885000
 20
607.376070
 30
0.0
 10
1017.885000
 20
580.783680
 30
0.0
 10
1017.908000
 20
580.330480
 30
0.0
 10
1019.373600
 20
577.355860
 30
0.0
  0
SPLINE
  5
373
100
AcDbEntity
  8
1
 62
7
100
AcDbSpline
 70
8
 71
3
 72
8
 73
4
 74
0
 40
0
 40
0
 40
0
 40
0
 40
1
 40
1
 40
1
 40
1
 10
1019.373600
 20
577.355860
 30
0.0
 10
1021.294700
 20
573.457970
 30
0.0
 10
1025.193400
 20
569.675060
 30
0.0
 10
1028.559000
 20
568.443300
 30
0.0
  0
SPLINE
  5
374
100
AcDbEntity
  8
1
 62
7
100
AcDbSpline
 70
8
 71
3
 72
8
 73
4
 74
0
 40
0
 40
0
 40
0
 40
0
 40
1
 40
1
 40
1
 40
1
 10
1028.559000
 20
568.443300
 30
0.0
 10
1032.410300
 20
567.033750
 30
0.0
 10
1050.885600
 20
567.002900
 30
0.0
 10
1054.983400
 20
568.399200
 30
0.0
  0
LWPOLYLINE
  5
375
100
AcDbEntity
  8
1
 62
7
100
AcDbPolyline
 90
5
 70
0
 10
1055.551600
 20
630.561070
 30
0.0
 10
1055.551600
 20
628.709400
 30
0.0
 10
1060.943600
 20
628.709400
 30
0.0
 10
1066.335500
 20
628.709400
 30
0.0
 10
1065.877300
 20
631.542740
 30
0.0
  0
SPLINE
  5
376
100
AcDbEntity
  8
1
 62
7
100
AcDbSpline
 70
8
 71
3
 72
8
 73
4
 74
0
 40
0
 40
0
 40
0
 40
0
 40
1
 40
1
 40
1
 40
1
 10
961.684950
 20
565.509400
 30
0.0
 10
961.079970
 20
566.114380
 30
0.0
 10
960.887440
 20
576.231170
 30
0.0
 10
960.895160
 20
607.009400
 30
0.0
  0
SPLINE
  5
377
100
AcDbEntity
  8
1
 62
7
100
AcDbSpline
 70
8
 71
3
 72
8
 73
4
 74
0
 40
0
 40
0
 40
0
 40
0
 40
1
 40
1
 40
1
 40
1
 10
960.895160
 20
607.009400
 30
0.0
 10
960.901160
 20
629.394400
 30
0.0
 10
961.145740
 20
648.088070
 30
0.0
 10
961.439530
 20
648.550870
 30
0.0
  0
SPLINE
  5
378
100
AcDbEntity
  8
1
 62
7
100
AcDbSpline
 70
8
 71
3
 72
8
 73
4
 74
0
 40
0
 40
0
 40
0
 40
0
 40
1
 40
1
 40
1
 40
1
 10
961.439530
 20
648.550870
 30
0.0
 10
961.857510
 20
649.209320
 30
0.0
 10
967.474210
 20
649.354320
 30
0.0
 10
987.262660
 20
649.217540
 30
0.0
  0
LWPOLYLINE
  5
379
100
AcDbEntity
  8
1
 62
7
100
AcDbPolyline
 90
1
 70
1
 10
1054.983400
 20
568.399200
 30
0.0
  0
SPLINE
  5
37a
100
AcDbEntity
  8
1
 62
7
100
AcDbSpline
 70
8
 71
3
 72
8
 73
4
 74
0
 40
0
 40
0
 40
0
 40
0
 40
1
 40
1
 40
1
 40
1
 10
1012.744200
 20
642.808930
 30
0.0
 10
1012.868500
 20
638.785600
 30
0.0
 10
1012.662200
 20
636.244330
 30
0.0
 10
1012.162600
 20
635.642260
 30
0.0
  0
SPLINE
  5
37b
100
AcDbEntity
  8
1
 62
7
100
AcDbSpline
 70
8
 71
3
 72
8
 73
4
 74
0
 40
0
 40
0
 40
0
 40
0
 40
1
 40
1
 40
1
 40
1
 10
1012.162600
 20
635.642260
 30
0.0
 10
1011.534300
 20
634.885240
 30
0.0
 10
1008.011000
 20
634.709400
 30
0.0
 10
993.469970
 20
634.709400
 30
0.0
  0
LWPOLYLINE
  5
37c
100
AcDbEntity
  8
1
 62
7
100
AcDbPolyline
 90
3
 70
0
 10
987.262660
 20
649.217540
 30
0.0
 10
1012.551600
 20
649.042740
 30
0.0
 10
1012.744200
 20
642.808930
 30
0.0
  0
SPLINE
  5
37d
100
AcDbEntity
  8
1
 62
7
100
AcDbSpline
 70
8
 71
3
 72
8
 73
4
 74
0
 40
0
 40
0
 40
0
 40
0
 40
1
 40
1
 40
1
 40
1
 10
975.706550
 20
582.741500
 30
0.0
 10
975.574560
 20
570.186890
 30
0.0
 10
975.314460
 20
565.637850
 30
0.0
 10
974.706550
 20
565.251710
 30
0.0
  0
SPLINE
  5
37e
100
AcDbEntity
  8
1
 62
7
100
AcDbSpline
 70
8
 71
3
 72
8
 73
4
 74
0
 40
0
 40
0
 40
0
 40
0
 40
1
 40
1
 40
1
 40
1
 10
974.706550
 20
565.251710
 30
0.0
 10
973.360230
 20
564.396520
 30
0.0
 10
962.584590
 20
564.609770
 30
0.0
 10
961.684950
 20
565.509400
 30
0.0
  0
LWPOLYLINE
  5
37f
100
AcDbEntity
  8
1
 62
7
100
AcDbPolyline
 90
11
 70
0
 10
993.469970
 20
634.709400
 30
0.0
 10
975.551620
 20
634.709400
 30
0.0
 10
975.551620
 20
624.725150
 30
0.0
 10
975.551620
 20
614.740890
 30
0.0
 10
987.051620
 20
614.558480
 30
0.0
 10
998.551570
 20
614.376070
 30
0.0
 10
998.551570
 20
607.376070
 30
0.0
 10
998.551570
 20
600.376070
 30
0.0
 10
987.218290
 20
600.042740
 30
0.0
 10
975.884950
 20
599.709400
 30
0.0
 10
975.706550
 20
582.741500
 30
0.0
  0
SPLINE
  5
380
100
AcDbEntity
  8
1
 62
7
100
AcDbSpline
 70
8
 71
3
 72
8
 73
4
 74
0
 40
0
 40
0
 40
0
 40
0
 40
1
 40
1
 40
1
 40
1
 10
973.551620
 20
583.961110
 30
0.0
 10
973.551620
 20
596.889790
 30
0.0
 10
973.745740
 20
600.707250
 30
0.0
 10
974.432130
 20
601.276910
 30
0.0
  0
SPLINE
  5
381
100
AcDbEntity
  8
1
 62
7
100
AcDbSpline
 70
8
 71
3
 72
8
 73
4
 74
0
 40
0
 40
0
 40
0
 40
0
 40
1
 40
1
 40
1
 40
1
 10
974.432130
 20
601.276910
 30
0.0
 10
974.966720
 20
601.720570
 30
0.0
 10
979.484700
 20
602.080030
 30
0.0
 10
985.932130
 20
602.191870
 30
0.0
  0
LWPOLYLINE
  5
382
100
AcDbEntity
  8
1
 62
7
100
AcDbPolyline
 90
1
 70
1
 10
961.684950
 20
565.509400
 30
0.0
  0
SPLINE
  5
383
100
AcDbEntity
  8
1
 62
7
100
AcDbSpline
 70
8
 71
3
 72
8
 73
4
 74
0
 40
0
 40
0
 40
0
 40
0
 40
1
 40
1
 40
1
 40
1
 10
986.729160
 20
612.042740
 30
0.0
 10
972.716810
 20
612.042740
 30
0.0
 10
973.551620
 20
611.240290
 30
0.0
 10
973.551620
 20
624.709400
 30
0.0
  0
SPLINE
  5
384
100
AcDbEntity
  8
1
 62
7
100
AcDbSpline
 70
8
 71
3
 72
8
 73
4
 74
0
 40
0
 40
0
 40
0
 40
0
 40
1
 40
1
 40
1
 40
1
 10
973.551620
 20
624.709400
 30
0.0
 10
973.551620
 20
634.898160
 30
0.0
 10
973.607920
 20
635.339890
 30
0.0
 10
975.033290
 20
636.338270
 30
0.0
  0
SPLINE
  5
385
100
AcDbEntity
  8
1
 62
7
100
AcDbSpline
 70
8
 71
3
 72
8
 73
4
 74
0
 40
0
 40
0
 40
0
 40
0
 40
1
 40
1
 40
1
 40
1
 10
975.033290
 20
636.338270
 30
0.0
 10
976.279450
 20
637.211110
 30
0.0
 10
979.193530
 20
637.376070
 30
0.0
 10
993.366670
 20
637.376070
 30
0.0
  0
LWPOLYLINE
  5
386
100
AcDbEntity
  8
1
 62
7
100
AcDbPolyline
 90
5
 70
0
 10
985.932130
 20
602.191870
 30
0.0
 10
996.551570
 20
602.376070
 30
0.0
 10
996.747470
 20
607.209400
 30
0.0
 10
996.943370
 20
612.042740
 30
0.0
 10
986.729160
 20
612.042740
 30
0.0
  0
SPLINE
  5
387
100
AcDbEntity
  8
1
 62
7
100
AcDbSpline
 70
8
 71
3
 72
8
 73
4
 74
0
 40
0
 40
0
 40
0
 40
0
 40
1
 40
1
 40
1
 40
1
 10
905.718280
 20
565.150920
 30
0.0
 10
905.064010
 20
565.414930
 30
0.0
 10
904.884950
 20
574.499850
 30
0.0
 10
904.884950
 20
607.431630
 30
0.0
  0
LWPOLYLINE
  5
388
100
AcDbEntity
  8
1
 62
7
100
AcDbPolyline
 90
11
 70
0
 10
993.366670
 20
637.376070
 30
0.0
 10
1010.218300
 20
637.376070
 30
0.0
 10
1010.218300
 20
642.376070
 30
0.0
 10
1010.218300
 20
647.376070
 30
0.0
 10
986.884950
 20
647.376070
 30
0.0
 10
963.551620
 20
647.376070
 30
0.0
 10
963.551620
 20
607.376070
 30
0.0
 10
963.551620
 20
567.376070
 30
0.0
 10
968.551620
 20
567.376070
 30
0.0
 10
973.551620
 20
567.376070
 30
0.0
 10
973.551620
 20
583.961110
 30
0.0
  0
SPLINE
  5
389
100
AcDbEntity
  8
1
 62
7
100
AcDbSpline
 70
8
 71
3
 72
8
 73
4
 74
0
 40
0
 40
0
 40
0
 40
0
 40
1
 40
1
 40
1
 40
1
 10
930.146960
 20
649.376070
 30
0.0
 10
952.567610
 20
649.376070
 30
0.0
 10
955.454480
 20
649.257460
 30
0.0
 10
955.813630
 20
648.321550
 30
0.0
  0
SPLINE
  5
38a
100
AcDbEntity
  8
1
 62
7
100
AcDbSpline
 70
8
 71
3
 72
8
 73
4
 74
0
 40
0
 40
0
 40
0
 40
0
 40
1
 40
1
 40
1
 40
1
 10
955.813630
 20
648.321550
 30
0.0
 10
956.562880
 20
646.369010
 30
0.0
 10
956.253570
 20
636.344690
 30
0.0
 10
955.418280
 20
635.509400
 30
0.0
  0
SPLINE
  5
38b
100
AcDbEntity
  8
1
 62
7
100
AcDbSpline
 70
8
 71
3
 72
8
 73
4
 74
0
 40
0
 40
0
 40
0
 40
0
 40
1
 40
1
 40
1
 40
1
 10
955.418280
 20
635.509400
 30
0.0
 10
954.835860
 20
634.926980
 30
0.0
 10
949.759030
 20
634.709400
 30
0.0
 10
936.751620
 20
634.709400
 30
0.0
  0
LWPOLYLINE
  5
38c
100
AcDbEntity
  8
1
 62
7
100
AcDbPolyline
 90
3
 70
0
 10
904.884950
 20
607.431630
 30
0.0
 10
904.884950
 20
649.376070
 30
0.0
 10
930.146960
 20
649.376070
 30
0.0
  0
SPLINE
  5
38d
100
AcDbEntity
  8
1
 62
7
100
AcDbSpline
 70
8
 71
3
 72
8
 73
4
 74
0
 40
0
 40
0
 40
0
 40
0
 40
1
 40
1
 40
1
 40
1
 10
937.185830
 20
579.531600
 30
0.0
 10
950.540490
 20
579.399440
 30
0.0
 10
955.287450
 20
579.142700
 30
0.0
 10
955.675620
 20
578.531600
 30
0.0
  0
SPLINE
  5
38e
100
AcDbEntity
  8
1
 62
7
100
AcDbSpline
 70
8
 71
3
 72
8
 73
4
 74
0
 40
0
 40
0
 40
0
 40
0
 40
1
 40
1
 40
1
 40
1
 10
955.675620
 20
578.531600
 30
0.0
 10
956.531080
 20
577.184820
 30
0.0
 10
956.318140
 20
566.409260
 30
0.0
 10
955.418280
 20
565.509400
 30
0.0
  0
SPLINE
  5
38f
100
AcDbEntity
  8
1
 62
7
100
AcDbSpline
 70
8
 71
3
 72
8
 73
4
 74
0
 40
0
 40
0
 40
0
 40
0
 40
1
 40
1
 40
1
 40
1
 10
955.418280
 20
565.509400
 30
0.0
 10
954.823640
 20
564.914760
 30
0.0
 10
948.448950
 20
564.722910
 30
0.0
 10
930.584950
 20
564.762040
 30
0.0
  0
SPLINE
  5
390
100
AcDbEntity
  8
1
 62
7
100
AcDbSpline
 70
8
 71
3
 72
8
 73
4
 74
0
 40
0
 40
0
 40
0
 40
0
 40
1
 40
1
 40
1
 40
1
 10
930.584950
 20
564.762040
 30
0.0
 10
917.366620
 20
564.790940
 30
0.0
 10
906.176620
 20
564.965980
 30
0.0
 10
905.718280
 20
565.150920
 30
0.0
  0
LWPOLYLINE
  5
391
100
AcDbEntity
  8
1
 62
7
100
AcDbPolyline
 90
13
 70
0
 10
936.751620
 20
634.709400
 30
0.0
 10
918.884950
 20
634.709400
 30
0.0
 10
918.884950
 20
624.725150
 30
0.0
 10
918.884950
 20
614.740890
 30
0.0
 10
930.384950
 20
614.558480
 30
0.0
 10
941.884950
 20
614.376070
 30
0.0
 10
941.884950
 20
607.376070
 30
0.0
 10
941.884950
 20
600.376070
 30
0.0
 10
930.367670
 20
600.193590
 30
0.0
 10
918.850390
 20
600.011100
 30
0.0
 10
919.034340
 20
589.860250
 30
0.0
 10
919.218280
 20
579.709400
 30
0.0
 10
937.185830
 20
579.531600
 30
0.0
  0
LWPOLYLINE
  5
392
100
AcDbEntity
  8
1
 62
7
100
AcDbPolyline
 90
1
 70
1
 10
905.718280
 20
565.150920
 30
0.0
  0
SPLINE
  5
393
100
AcDbEntity
  8
1
 62
7
100
AcDbSpline
 70
8
 71
3
 72
8
 73
4
 74
0
 40
0
 40
0
 40
0
 40
0
 40
1
 40
1
 40
1
 40
1
 10
936.351620
 20
577.376070
 30
0.0
 10
923.344210
 20
577.376070
 30
0.0
 10
918.267370
 20
577.593650
 30
0.0
 10
917.684950
 20
578.176070
 30
0.0
  0
SPLINE
  5
394
100
AcDbEntity
  8
1
 62
7
100
AcDbSpline
 70
8
 71
3
 72
8
 73
4
 74
0
 40
0
 40
0
 40
0
 40
0
 40
1
 40
1
 40
1
 40
1
 10
917.684950
 20
578.176070
 30
0.0
 10
917.128980
 20
578.732040
 30
0.0
 10
916.884950
 20
582.250150
 30
0.0
 10
916.884950
 20
589.709400
 30
0.0
  0
SPLINE
  5
395
100
AcDbEntity
  8
1
 62
7
100
AcDbSpline
 70
8
 71
3
 72
8
 73
4
 74
0
 40
0
 40
0
 40
0
 40
0
 40
1
 40
1
 40
1
 40
1
 10
916.884950
 20
589.709400
 30
0.0
 10
916.884950
 20
597.168660
 30
0.0
 10
917.128980
 20
600.686770
 30
0.0
 10
917.684950
 20
601.242740
 30
0.0
  0
SPLINE
  5
396
100
AcDbEntity
  8
1
 62
7
100
AcDbSpline
 70
8
 71
3
 72
8
 73
4
 74
0
 40
0
 40
0
 40
0
 40
0
 40
1
 40
1
 40
1
 40
1
 10
917.684950
 20
601.242740
 30
0.0
 10
918.241730
 20
601.799520
 30
0.0
 10
921.788650
 20
602.042740
 30
0.0
 10
929.351620
 20
602.042740
 30
0.0
  0
LWPOLYLINE
  5
397
100
AcDbEntity
  8
1
 62
7
100
AcDbPolyline
 90
3
 70
0
 10
954.218280
 20
572.376070
 30
0.0
 10
954.218280
 20
577.376070
 30
0.0
 10
936.351620
 20
577.376070
 30
0.0
  0
SPLINE
  5
398
100
AcDbEntity
  8
1
 62
7
100
AcDbSpline
 70
8
 71
3
 72
8
 73
4
 74
0
 40
0
 40
0
 40
0
 40
0
 40
1
 40
1
 40
1
 40
1
 10
930.033290
 20
612.042740
 30
0.0
 10
916.054610
 20
612.042740
 30
0.0
 10
916.884950
 20
611.242810
 30
0.0
 10
916.884950
 20
624.709400
 30
0.0
  0
SPLINE
  5
399
100
AcDbEntity
  8
1
 62
7
100
AcDbSpline
 70
8
 71
3
 72
8
 73
4
 74
0
 40
0
 40
0
 40
0
 40
0
 40
1
 40
1
 40
1
 40
1
 10
916.884950
 20
624.709400
 30
0.0
 10
916.884950
 20
634.898160
 30
0.0
 10
916.941250
 20
635.339890
 30
0.0
 10
918.366620
 20
636.338270
 30
0.0
  0
SPLINE
  5
39a
100
AcDbEntity
  8
1
 62
7
100
AcDbSpline
 70
8
 71
3
 72
8
 73
4
 74
0
 40
0
 40
0
 40
0
 40
0
 40
1
 40
1
 40
1
 40
1
 10
918.366620
 20
636.338270
 30
0.0
 10
919.614620
 20
637.212400
 30
0.0
 10
922.558500
 20
637.376070
 30
0.0
 10
937.033290
 20
637.376070
 30
0.0
  0
LWPOLYLINE
  5
39b
100
AcDbEntity
  8
1
 62
7
100
AcDbPolyline
 90
5
 70
0
 10
929.351620
 20
602.042740
 30
0.0
 10
940.218280
 20
602.042740
 30
0.0
 10
940.218280
 20
607.042740
 30
0.0
 10
940.218280
 20
612.042740
 30
0.0
 10
930.033290
 20
612.042740
 30
0.0
  0
SPLINE
  5
39c
100
AcDbEntity
  8
1
 62
7
100
AcDbSpline
 70
8
 71
3
 72
8
 73
4
 74
0
 40
0
 40
0
 40
0
 40
0
 40
1
 40
1
 40
1
 40
1
 10
906.448790
 20
615.376070
 30
0.0
 10
906.392190
 20
597.959400
 30
0.0
 10
906.507890
 20
580.034400
 30
0.0
 10
906.705740
 20
575.542740
 30
0.0
  0
LWPOLYLINE
  5
39d
100
AcDbEntity
  8
1
 62
7
100
AcDbPolyline
 90
7
 70
0
 10
937.033290
 20
637.376070
 30
0.0
 10
954.218280
 20
637.376070
 30
0.0
 10
954.218280
 20
642.384490
 30
0.0
 10
954.218280
 20
647.392910
 30
0.0
 10
930.384950
 20
647.217830
 30
0.0
 10
906.551620
 20
647.042740
 30
0.0
 10
906.448790
 20
615.376070
 30
0.0
  0
SPLINE
  5
39e
100
AcDbEntity
  8
1
 62
7
100
AcDbSpline
 70
8
 71
3
 72
8
 73
4
 74
0
 40
0
 40
0
 40
0
 40
0
 40
1
 40
1
 40
1
 40
1
 10
844.661900
 20
565.694360
 30
0.0
 10
843.650500
 20
566.705760
 30
0.0
 10
843.551620
 20
570.387580
 30
0.0
 10
843.551620
 20
607.035830
 30
0.0
  0
SPLINE
  5
39f
100
AcDbEntity
  8
1
 62
7
100
AcDbSpline
 70
8
 71
3
 72
8
 73
4
 74
0
 40
0
 40
0
 40
0
 40
0
 40
1
 40
1
 40
1
 40
1
 10
843.551620
 20
607.035830
 30
0.0
 10
843.551620
 20
629.162990
 30
0.0
 10
843.733710
 20
647.741560
 30
0.0
 10
843.956280
 20
648.321550
 30
0.0
  0
SPLINE
  5
3a0
100
AcDbEntity
  8
1
 62
7
100
AcDbSpline
 70
8
 71
3
 72
8
 73
4
 74
0
 40
0
 40
0
 40
0
 40
0
 40
1
 40
1
 40
1
 40
1
 10
843.956280
 20
648.321550
 30
0.0
 10
844.311030
 20
649.246020
 30
0.0
 10
846.515960
 20
649.376070
 30
0.0
 10
861.835270
 20
649.376070
 30
0.0
  0
SPLINE
  5
3a1
100
AcDbEntity
  8
1
 62
7
100
AcDbSpline
 70
8
 71
3
 72
8
 73
4
 74
0
 40
0
 40
0
 40
0
 40
0
 40
1
 40
1
 40
1
 40
1
 10
861.835270
 20
649.376070
 30
0.0
 10
875.402910
 20
649.376070
 30
0.0
 10
880.060130
 20
649.153190
 30
0.0
 10
882.666580
 20
648.379160
 30
0.0
  0
SPLINE
  5
3a2
100
AcDbEntity
  8
1
 62
7
100
AcDbSpline
 70
8
 71
3
 72
8
 73
4
 74
0
 40
0
 40
0
 40
0
 40
0
 40
1
 40
1
 40
1
 40
1
 10
882.666580
 20
648.379160
 30
0.0
 10
887.035390
 20
647.081760
 30
0.0
 10
891.953050
 20
642.742630
 30
0.0
 10
893.974560
 20
638.401470
 30
0.0
  0
SPLINE
  5
3a3
100
AcDbEntity
  8
1
 62
7
100
AcDbSpline
 70
8
 71
3
 72
8
 73
4
 74
0
 40
0
 40
0
 40
0
 40
0
 40
1
 40
1
 40
1
 40
1
 10
893.974560
 20
638.401470
 30
0.0
 10
895.537350
 20
635.045400
 30
0.0
 10
895.538590
 20
635.020560
 30
0.0
 10
895.538590
 20
607.042740
 30
0.0
  0
SPLINE
  5
3a4
100
AcDbEntity
  8
1
 62
7
100
AcDbSpline
 70
8
 71
3
 72
8
 73
4
 74
0
 40
0
 40
0
 40
0
 40
0
 40
1
 40
1
 40
1
 40
1
 10
895.538590
 20
607.042740
 30
0.0
 10
895.538590
 20
579.113610
 30
0.0
 10
895.534590
 20
579.034290
 30
0.0
 10
893.984080
 20
575.704550
 30
0.0
  0
SPLINE
  5
3a5
100
AcDbEntity
  8
1
 62
7
100
AcDbSpline
 70
8
 71
3
 72
8
 73
4
 74
0
 40
0
 40
0
 40
0
 40
0
 40
1
 40
1
 40
1
 40
1
 10
893.984080
 20
575.704550
 30
0.0
 10
892.194540
 20
571.861670
 30
0.0
 10
888.608340
 20
568.455600
 30
0.0
 10
884.252150
 20
566.461450
 30
0.0
  0
SPLINE
  5
3a6
100
AcDbEntity
  8
1
 62
7
100
AcDbSpline
 70
8
 71
3
 72
8
 73
4
 74
0
 40
0
 40
0
 40
0
 40
0
 40
1
 40
1
 40
1
 40
1
 10
884.252150
 20
566.461450
 30
0.0
 10
881.471610
 20
565.188580
 30
0.0
 10
879.738440
 20
565.052220
 30
0.0
 10
863.495240
 20
564.828340
 30
0.0
  0
SPLINE
  5
3a7
100
AcDbEntity
  8
1
 62
7
100
AcDbSpline
 70
8
 71
3
 72
8
 73
4
 74
0
 40
0
 40
0
 40
0
 40
0
 40
1
 40
1
 40
1
 40
1
 10
863.495240
 20
564.828340
 30
0.0
 10
847.642890
 20
564.609850
 30
0.0
 10
845.654990
 20
564.701260
 30
0.0
 10
844.661900
 20
565.694360
 30
0.0
  0
LWPOLYLINE
  5
3a8
100
AcDbEntity
  8
1
 62
7
100
AcDbPolyline
 90
5
 70
0
 10
906.705740
 20
575.542740
 30
0.0
 10
907.065520
 20
567.376070
 30
0.0
 10
930.641900
 20
567.376070
 30
0.0
 10
954.218280
 20
567.376070
 30
0.0
 10
954.218280
 20
572.376070
 30
0.0
  0
SPLINE
  5
3a9
100
AcDbEntity
  8
1
 62
7
100
AcDbSpline
 70
8
 71
3
 72
8
 73
4
 74
0
 40
0
 40
0
 40
0
 40
0
 40
1
 40
1
 40
1
 40
1
 10
882.312660
 20
568.149780
 30
0.0
 10
885.873920
 20
569.216760
 30
0.0
 10
889.924200
 20
572.866990
 30
0.0
 10
892.078270
 20
576.950840
 30
0.0
  0
LWPOLYLINE
  5
3aa
100
AcDbEntity
  8
1
 62
7
100
AcDbPolyline
 90
1
 70
1
 10
844.661900
 20
565.694360
 30
0.0
  0
SPLINE
  5
3ab
100
AcDbEntity
  8
1
 62
7
100
AcDbSpline
 70
8
 71
3
 72
8
 73
4
 74
0
 40
0
 40
0
 40
0
 40
0
 40
1
 40
1
 40
1
 40
1
 10
893.884950
 20
607.042740
 30
0.0
 10
893.884950
 20
632.714110
 30
0.0
 10
893.832850
 20
633.821370
 30
0.0
 10
892.488180
 20
636.709400
 30
0.0
  0
SPLINE
  5
3ac
100
AcDbEntity
  8
1
 62
7
100
AcDbSpline
 70
8
 71
3
 72
8
 73
4
 74
0
 40
0
 40
0
 40
0
 40
0
 40
1
 40
1
 40
1
 40
1
 10
892.488180
 20
636.709400
 30
0.0
 10
890.724950
 20
640.496480
 30
0.0
 10
887.407940
 20
643.806320
 30
0.0
 10
883.551620
 20
645.626630
 30
0.0
  0
SPLINE
  5
3ad
100
AcDbEntity
  8
1
 62
7
100
AcDbSpline
 70
8
 71
3
 72
8
 73
4
 74
0
 40
0
 40
0
 40
0
 40
0
 40
1
 40
1
 40
1
 40
1
 10
883.551620
 20
645.626630
 30
0.0
 10
880.774310
 20
646.937620
 30
0.0
 10
879.252590
 20
647.058750
 30
0.0
 10
863.051620
 20
647.258480
 30
0.0
  0
LWPOLYLINE
  5
3ae
100
AcDbEntity
  8
1
 62
7
100
AcDbPolyline
 90
3
 70
0
 10
892.078270
 20
576.950840
 30
0.0
 10
893.884950
 20
580.376070
 30
0.0
 10
893.884950
 20
607.042740
 30
0.0
  0
SPLINE
  5
3af
100
AcDbEntity
  8
1
 62
7
100
AcDbSpline
 70
8
 71
3
 72
8
 73
4
 74
0
 40
0
 40
0
 40
0
 40
0
 40
1
 40
1
 40
1
 40
1
 10
862.640940
 20
567.376070
 30
0.0
 10
873.682100
 20
567.376070
 30
0.0
 10
880.644210
 20
567.649900
 30
0.0
 10
882.312660
 20
568.149780
 30
0.0
  0
LWPOLYLINE
  5
3b0
100
AcDbEntity
  8
1
 62
7
100
AcDbPolyline
 90
5
 70
0
 10
863.051620
 20
647.258480
 30
0.0
 10
845.551620
 20
647.474220
 30
0.0
 10
845.551620
 20
607.425150
 30
0.0
 10
845.551620
 20
567.376070
 30
0.0
 10
862.640940
 20
567.376070
 30
0.0
  0
SPLINE
  5
3b1
100
AcDbEntity
  8
1
 62
7
100
AcDbSpline
 70
8
 71
3
 72
8
 73
4
 74
0
 40
0
 40
0
 40
0
 40
0
 40
1
 40
1
 40
1
 40
1
 10
857.018280
 20
578.176070
 30
0.0
 10
856.420970
 20
578.773390
 30
0.0
 10
856.218280
 20
586.209370
 30
0.0
 10
856.218280
 20
607.525900
 30
0.0
  0
LWPOLYLINE
  5
3b2
100
AcDbEntity
  8
1
 62
7
100
AcDbPolyline
 90
1
 70
1
 10
882.312660
 20
568.149780
 30
0.0
  0
SPLINE
  5
3b3
100
AcDbEntity
  8
1
 62
7
100
AcDbSpline
 70
8
 71
3
 72
8
 73
4
 74
0
 40
0
 40
0
 40
0
 40
0
 40
1
 40
1
 40
1
 40
1
 10
857.928350
 20
636.725900
 30
0.0
 10
860.626710
 20
637.751820
 30
0.0
 10
876.529540
 20
637.542460
 30
0.0
 10
879.152570
 20
636.446490
 30
0.0
  0
SPLINE
  5
3b4
100
AcDbEntity
  8
1
 62
7
100
AcDbSpline
 70
8
 71
3
 72
8
 73
4
 74
0
 40
0
 40
0
 40
0
 40
0
 40
1
 40
1
 40
1
 40
1
 10
879.152570
 20
636.446490
 30
0.0
 10
883.644430
 20
634.569670
 30
0.0
 10
883.551620
 20
635.194230
 30
0.0
 10
883.551620
 20
606.843120
 30
0.0
  0
LWPOLYLINE
  5
3b5
100
AcDbEntity
  8
1
 62
7
100
AcDbPolyline
 90
3
 70
0
 10
856.218280
 20
607.525900
 30
0.0
 10
856.218280
 20
636.075740
 30
0.0
 10
857.928350
 20
636.725900
 30
0.0
  0
SPLINE
  5
3b6
100
AcDbEntity
  8
1
 62
7
100
AcDbSpline
 70
8
 71
3
 72
8
 73
4
 74
0
 40
0
 40
0
 40
0
 40
0
 40
1
 40
1
 40
1
 40
1
 10
868.736230
 20
577.376070
 30
0.0
 10
861.133380
 20
577.376070
 30
0.0
 10
857.575370
 20
577.618980
 30
0.0
 10
857.018280
 20
578.176070
 30
0.0
  0
LWPOLYLINE
  5
3b7
100
AcDbEntity
  8
1
 62
7
100
AcDbPolyline
 90
5
 70
0
 10
883.551620
 20
606.843120
 30
0.0
 10
883.551620
 20
581.273510
 30
0.0
 10
881.602900
 20
579.324790
 30
0.0
 10
879.654180
 20
577.376070
 30
0.0
 10
868.736230
 20
577.376070
 30
0.0
  0
LWPOLYLINE
  5
3b8
100
AcDbEntity
  8
1
 62
7
100
AcDbPolyline
 90
1
 70
1
 10
857.018280
 20
578.176070
 30
0.0
  0
SPLINE
  5
3b9
100
AcDbEntity
  8
1
 62
7
100
AcDbSpline
 70
8
 71
3
 72
8
 73
4
 74
0
 40
0
 40
0
 40
0
 40
0
 40
1
 40
1
 40
1
 40
1
 10
881.551620
 20
606.722930
 30
0.0
 10
881.551620
 20
630.583260
 30
0.0
 10
881.368070
 20
632.808390
 30
0.0
 10
879.285150
 20
634.199200
 30
0.0
  0
SPLINE
  5
3ba
100
AcDbEntity
  8
1
 62
7
100
AcDbSpline
 70
8
 71
3
 72
8
 73
4
 74
0
 40
0
 40
0
 40
0
 40
0
 40
1
 40
1
 40
1
 40
1
 10
879.285150
 20
634.199200
 30
0.0
 10
878.881710
 20
634.468580
 30
0.0
 10
873.976620
 20
634.693580
 30
0.0
 10
868.384950
 20
634.699200
 30
0.0
  0
LWPOLYLINE
  5
3bb
100
AcDbEntity
  8
1
 62
7
100
AcDbPolyline
 90
3
 70
0
 10
879.915250
 20
581.012430
 30
0.0
 10
881.551620
 20
582.648800
 30
0.0
 10
881.551620
 20
606.722930
 30
0.0
  0
SPLINE
  5
3bc
100
AcDbEntity
  8
1
 62
7
100
AcDbSpline
 70
8
 71
3
 72
8
 73
4
 74
0
 40
0
 40
0
 40
0
 40
0
 40
1
 40
1
 40
1
 40
1
 10
868.248590
 20
579.376060
 30
0.0
 10
878.009160
 20
579.376060
 30
0.0
 10
878.322890
 20
579.420060
 30
0.0
 10
879.915250
 20
581.012420
 30
0.0
  0
LWPOLYLINE
  5
3bd
100
AcDbEntity
  8
1
 62
7
100
AcDbPolyline
 90
5
 70
0
 10
868.384950
 20
634.699200
 30
0.0
 10
858.218280
 20
634.709400
 30
0.0
 10
858.218280
 20
607.042730
 30
0.0
 10
858.218280
 20
579.376060
 30
0.0
 10
868.248590
 20
579.376060
 30
0.0
  0
SPLINE
  5
3be
100
AcDbEntity
  8
1
 62
7
100
AcDbSpline
 70
8
 71
3
 72
8
 73
4
 74
0
 40
0
 40
0
 40
0
 40
0
 40
1
 40
1
 40
1
 40
1
 10
801.649460
 20
565.380460
 30
0.0
 10
795.721170
 20
566.639280
 30
0.0
 10
790.621040
 20
570.828450
 30
0.0
 10
788.094060
 20
576.514670
 30
0.0
  0
SPLINE
  5
3bf
100
AcDbEntity
  8
1
 62
7
100
AcDbSpline
 70
8
 71
3
 72
8
 73
4
 74
0
 40
0
 40
0
 40
0
 40
0
 40
1
 40
1
 40
1
 40
1
 10
788.094060
 20
576.514670
 30
0.0
 10
786.941800
 20
579.107500
 30
0.0
 10
786.846790
 20
581.415790
 30
0.0
 10
786.839530
 20
606.995830
 30
0.0
  0
SPLINE
  5
3c0
100
AcDbEntity
  8
1
 62
7
100
AcDbSpline
 70
8
 71
3
 72
8
 73
4
 74
0
 40
0
 40
0
 40
0
 40
0
 40
1
 40
1
 40
1
 40
1
 10
786.839530
 20
606.995830
 30
0.0
 10
786.831530
 20
633.948350
 30
0.0
 10
786.869530
 20
634.759840
 30
0.0
 10
788.282180
 20
638.043510
 30
0.0
  0
SPLINE
  5
3c1
100
AcDbEntity
  8
1
 62
7
100
AcDbSpline
 70
8
 71
3
 72
8
 73
4
 74
0
 40
0
 40
0
 40
0
 40
0
 40
1
 40
1
 40
1
 40
1
 10
788.282180
 20
638.043510
 30
0.0
 10
790.248080
 20
642.613380
 30
0.0
 10
795.260360
 20
647.060350
 30
0.0
 10
799.997400
 20
648.437440
 30
0.0
  0
SPLINE
  5
3c2
100
AcDbEntity
  8
1
 62
7
100
AcDbSpline
 70
8
 71
3
 72
8
 73
4
 74
0
 40
0
 40
0
 40
0
 40
0
 40
1
 40
1
 40
1
 40
1
 10
799.997400
 20
648.437440
 30
0.0
 10
805.623220
 20
650.072910
 30
0.0
 10
823.423720
 20
649.545790
 30
0.0
 10
827.611210
 20
647.619720
 30
0.0
  0
SPLINE
  5
3c3
100
AcDbEntity
  8
1
 62
7
100
AcDbSpline
 70
8
 71
3
 72
8
 73
4
 74
0
 40
0
 40
0
 40
0
 40
0
 40
1
 40
1
 40
1
 40
1
 10
827.611210
 20
647.619720
 30
0.0
 10
834.141670
 20
644.615980
 30
0.0
 10
838.519680
 20
637.975310
 30
0.0
 10
838.539930
 20
631.042740
 30
0.0
  0
LWPOLYLINE
  5
3c4
100
AcDbEntity
  8
1
 62
7
100
AcDbPolyline
 90
1
 70
1
 10
879.915250
 20
581.012420
 30
0.0
  0
SPLINE
  5
3c5
100
AcDbEntity
  8
1
 62
7
100
AcDbSpline
 70
8
 71
3
 72
8
 73
4
 74
0
 40
0
 40
0
 40
0
 40
0
 40
1
 40
1
 40
1
 40
1
 10
824.543540
 20
629.423950
 30
0.0
 10
823.717860
 20
634.311100
 30
0.0
 10
822.821710
 20
634.710870
 30
0.0
 10
812.718290
 20
634.699200
 30
0.0
  0
SPLINE
  5
3c6
100
AcDbEntity
  8
1
 62
7
100
AcDbSpline
 70
8
 71
3
 72
8
 73
4
 74
0
 40
0
 40
0
 40
0
 40
0
 40
1
 40
1
 40
1
 40
1
 10
812.718290
 20
634.699200
 30
0.0
 10
807.859960
 20
634.693200
 30
0.0
 10
803.554870
 20
634.468580
 30
0.0
 10
803.151430
 20
634.199200
 30
0.0
  0
SPLINE
  5
3c7
100
AcDbEntity
  8
1
 62
7
100
AcDbSpline
 70
8
 71
3
 72
8
 73
4
 74
0
 40
0
 40
0
 40
0
 40
0
 40
1
 40
1
 40
1
 40
1
 10
803.151430
 20
634.199200
 30
0.0
 10
801.068510
 20
632.808390
 30
0.0
 10
800.884960
 20
630.583260
 30
0.0
 10
800.884960
 20
606.722930
 30
0.0
  0
LWPOLYLINE
  5
3c8
100
AcDbEntity
  8
1
 62
7
100
AcDbPolyline
 90
5
 70
0
 10
838.539930
 20
631.042740
 30
0.0
 10
838.551630
 20
627.042740
 30
0.0
 10
831.780720
 20
626.853440
 30
0.0
 10
825.009800
 20
626.664140
 30
0.0
 10
824.543540
 20
629.423950
 30
0.0
  0
SPLINE
  5
3c9
100
AcDbEntity
  8
1
 62
7
100
AcDbSpline
 70
8
 71
3
 72
8
 73
4
 74
0
 40
0
 40
0
 40
0
 40
0
 40
1
 40
1
 40
1
 40
1
 10
802.521320
 20
581.012430
 30
0.0
 10
804.089180
 20
579.444570
 30
0.0
 10
804.516900
 20
579.376070
 30
0.0
 10
812.738450
 20
579.376070
 30
0.0
  0
SPLINE
  5
3ca
100
AcDbEntity
  8
1
 62
7
100
AcDbSpline
 70
8
 71
3
 72
8
 73
4
 74
0
 40
0
 40
0
 40
0
 40
0
 40
1
 40
1
 40
1
 40
1
 10
812.738450
 20
579.376070
 30
0.0
 10
820.919160
 20
579.376070
 30
0.0
 10
821.388850
 20
579.450170
 30
0.0
 10
822.813070
 20
580.966210
 30
0.0
  0
SPLINE
  5
3cb
100
AcDbEntity
  8
1
 62
7
100
AcDbSpline
 70
8
 71
3
 72
8
 73
4
 74
0
 40
0
 40
0
 40
0
 40
0
 40
1
 40
1
 40
1
 40
1
 10
822.813070
 20
580.966210
 30
0.0
 10
823.708020
 20
581.918850
 30
0.0
 10
824.492280
 20
583.856600
 30
0.0
 10
824.769250
 20
585.799550
 30
0.0
  0
LWPOLYLINE
  5
3cc
100
AcDbEntity
  8
1
 62
7
100
AcDbPolyline
 90
3
 70
0
 10
800.884960
 20
606.722930
 30
0.0
 10
800.884960
 20
582.648800
 30
0.0
 10
802.521320
 20
581.012430
 30
0.0
  0
SPLINE
  5
3cd
100
AcDbEntity
  8
1
 62
7
100
AcDbSpline
 70
8
 71
3
 72
8
 73
4
 74
0
 40
0
 40
0
 40
0
 40
0
 40
1
 40
1
 40
1
 40
1
 10
831.124180
 20
589.236320
 30
0.0
 10
838.733770
 20
589.486310
 30
0.0
 10
839.144550
 20
589.167020
 30
0.0
 10
838.726740
 20
583.327570
 30
0.0
  0
SPLINE
  5
3ce
100
AcDbEntity
  8
1
 62
7
100
AcDbSpline
 70
8
 71
3
 72
8
 73
4
 74
0
 40
0
 40
0
 40
0
 40
0
 40
1
 40
1
 40
1
 40
1
 10
838.726740
 20
583.327570
 30
0.0
 10
838.335490
 20
577.859370
 30
0.0
 10
836.295600
 20
573.565000
 30
0.0
 10
832.370960
 20
569.947390
 30
0.0
  0
SPLINE
  5
3cf
100
AcDbEntity
  8
1
 62
7
100
AcDbSpline
 70
8
 71
3
 72
8
 73
4
 74
0
 40
0
 40
0
 40
0
 40
0
 40
1
 40
1
 40
1
 40
1
 10
832.370960
 20
569.947390
 30
0.0
 10
827.851400
 20
565.781410
 30
0.0
 10
825.904910
 20
565.239540
 30
0.0
 10
814.551620
 20
564.986810
 30
0.0
  0
SPLINE
  5
3d0
100
AcDbEntity
  8
1
 62
7
100
AcDbSpline
 70
8
 71
3
 72
8
 73
4
 74
0
 40
0
 40
0
 40
0
 40
0
 40
1
 40
1
 40
1
 40
1
 10
814.551620
 20
564.986810
 30
0.0
 10
809.051620
 20
564.864380
 30
0.0
 10
803.245650
 20
565.041510
 30
0.0
 10
801.649460
 20
565.380460
 30
0.0
  0
LWPOLYLINE
  5
3d1
100
AcDbEntity
  8
1
 62
7
100
AcDbPolyline
 90
3
 70
0
 10
824.769250
 20
585.799550
 30
0.0
 10
825.231550
 20
589.042740
 30
0.0
 10
831.124180
 20
589.236320
 30
0.0
  0
SPLINE
  5
3d2
100
AcDbEntity
  8
1
 62
7
100
AcDbSpline
 70
8
 71
3
 72
8
 73
4
 74
0
 40
0
 40
0
 40
0
 40
0
 40
1
 40
1
 40
1
 40
1
 10
827.485800
 20
568.946040
 30
0.0
 10
832.425340
 20
571.636880
 30
0.0
 10
835.929620
 20
577.019110
 30
0.0
 10
836.631780
 20
582.993400
 30
0.0
  0
LWPOLYLINE
  5
3d3
100
AcDbEntity
  8
1
 62
7
100
AcDbPolyline
 90
1
 70
1
 10
801.649460
 20
565.380460
 30
0.0
  0
SPLINE
  5
3d4
100
AcDbEntity
  8
1
 62
7
100
AcDbSpline
 70
8
 71
3
 72
8
 73
4
 74
0
 40
0
 40
0
 40
0
 40
0
 40
1
 40
1
 40
1
 40
1
 10
826.218280
 20
583.991460
 30
0.0
 10
826.218280
 20
581.876300
 30
0.0
 10
825.786090
 20
580.841320
 30
0.0
 10
824.269560
 20
579.324790
 30
0.0
  0
LWPOLYLINE
  5
3d5
100
AcDbEntity
  8
1
 62
7
100
AcDbPolyline
 90
5
 70
0
 10
836.631780
 20
582.993400
 30
0.0
 10
837.068520
 20
586.709400
 30
0.0
 10
831.643400
 20
586.709400
 30
0.0
 10
826.218280
 20
586.709400
 30
0.0
 10
826.218280
 20
583.991460
 30
0.0
  0
SPLINE
  5
3d6
100
AcDbEntity
  8
1
 62
7
100
AcDbSpline
 70
8
 71
3
 72
8
 73
4
 74
0
 40
0
 40
0
 40
0
 40
0
 40
1
 40
1
 40
1
 40
1
 10
812.769560
 20
577.390870
 30
0.0
 10
802.556230
 20
577.406770
 30
0.0
 10
801.378970
 20
577.744920
 30
0.0
 10
799.629640
 20
581.165560
 30
0.0
  0
SPLINE
  5
3d7
100
AcDbEntity
  8
1
 62
7
100
AcDbSpline
 70
8
 71
3
 72
8
 73
4
 74
0
 40
0
 40
0
 40
0
 40
0
 40
1
 40
1
 40
1
 40
1
 10
799.629640
 20
581.165560
 30
0.0
 10
799.120140
 20
582.161840
 30
0.0
 10
798.884950
 20
590.547350
 30
0.0
 10
798.884950
 20
607.716840
 30
0.0
  0
LWPOLYLINE
  5
3d8
100
AcDbEntity
  8
1
 62
7
100
AcDbPolyline
 90
3
 70
0
 10
824.269560
 20
579.324790
 30
0.0
 10
822.320850
 20
577.376070
 30
0.0
 10
812.769560
 20
577.390870
 30
0.0
  0
SPLINE
  5
3d9
100
AcDbEntity
  8
1
 62
7
100
AcDbSpline
 70
8
 71
3
 72
8
 73
4
 74
0
 40
0
 40
0
 40
0
 40
0
 40
1
 40
1
 40
1
 40
1
 10
800.776570
 20
634.703560
 30
0.0
 10
803.120900
 20
637.047900
 30
0.0
 10
806.489950
 20
637.627320
 30
0.0
 10
815.639870
 20
637.259810
 30
0.0
  0
SPLINE
  5
3da
100
AcDbEntity
  8
1
 62
7
100
AcDbSpline
 70
8
 71
3
 72
8
 73
4
 74
0
 40
0
 40
0
 40
0
 40
0
 40
1
 40
1
 40
1
 40
1
 10
815.639870
 20
637.259810
 30
0.0
 10
822.245830
 20
636.994480
 30
0.0
 10
822.412360
 20
636.947910
 30
0.0
 10
824.296840
 20
634.838810
 30
0.0
  0
SPLINE
  5
3db
100
AcDbEntity
  8
1
 62
7
100
AcDbSpline
 70
8
 71
3
 72
8
 73
4
 74
0
 40
0
 40
0
 40
0
 40
0
 40
1
 40
1
 40
1
 40
1
 10
824.296840
 20
634.838810
 30
0.0
 10
825.504670
 20
633.487020
 30
0.0
 10
826.218280
 20
631.949460
 30
0.0
 10
826.218280
 20
630.698870
 30
0.0
  0
LWPOLYLINE
  5
3dc
100
AcDbEntity
  8
1
 62
7
100
AcDbPolyline
 90
3
 70
0
 10
798.884950
 20
607.716840
 30
0.0
 10
798.884950
 20
632.811950
 30
0.0
 10
800.776570
 20
634.703560
 30
0.0
  0
SPLINE
  5
3dd
100
AcDbEntity
  8
1
 62
7
100
AcDbSpline
 70
8
 71
3
 72
8
 73
4
 74
0
 40
0
 40
0
 40
0
 40
0
 40
1
 40
1
 40
1
 40
1
 10
831.551620
 20
628.709380
 30
0.0
 10
837.529580
 20
628.709380
 30
0.0
 10
837.345360
 20
628.496940
 30
0.0
 10
836.160090
 20
634.023660
 30
0.0
  0
SPLINE
  5
3de
100
AcDbEntity
  8
1
 62
7
100
AcDbSpline
 70
8
 71
3
 72
8
 73
4
 74
0
 40
0
 40
0
 40
0
 40
0
 40
1
 40
1
 40
1
 40
1
 10
836.160090
 20
634.023660
 30
0.0
 10
835.203690
 20
638.483180
 30
0.0
 10
831.352030
 20
643.340560
 30
0.0
 10
827.119290
 20
645.425130
 30
0.0
  0
SPLINE
  5
3df
100
AcDbEntity
  8
1
 62
7
100
AcDbSpline
 70
8
 71
3
 72
8
 73
4
 74
0
 40
0
 40
0
 40
0
 40
0
 40
1
 40
1
 40
1
 40
1
 10
827.119290
 20
645.425130
 30
0.0
 10
824.121830
 20
646.901340
 30
0.0
 10
823.103740
 20
647.018910
 30
0.0
 10
813.218280
 20
647.030360
 30
0.0
  0
SPLINE
  5
3e0
100
AcDbEntity
  8
1
 62
7
100
AcDbSpline
 70
8
 71
3
 72
8
 73
4
 74
0
 40
0
 40
0
 40
0
 40
0
 40
1
 40
1
 40
1
 40
1
 10
813.218280
 20
647.030360
 30
0.0
 10
800.748050
 20
647.044760
 30
0.0
 10
798.098680
 20
646.344180
 30
0.0
 10
793.714680
 20
641.872650
 30
0.0
  0
SPLINE
  5
3e1
100
AcDbEntity
  8
1
 62
7
100
AcDbSpline
 70
8
 71
3
 72
8
 73
4
 74
0
 40
0
 40
0
 40
0
 40
0
 40
1
 40
1
 40
1
 40
1
 10
793.714680
 20
641.872650
 30
0.0
 10
788.934330
 20
636.996840
 30
0.0
 10
788.883060
 20
636.623270
 30
0.0
 10
788.899590
 20
606.792230
 30
0.0
  0
SPLINE
  5
3e2
100
AcDbEntity
  8
1
 62
7
100
AcDbSpline
 70
8
 71
3
 72
8
 73
4
 74
0
 40
0
 40
0
 40
0
 40
0
 40
1
 40
1
 40
1
 40
1
 10
788.899590
 20
606.792230
 30
0.0
 10
788.913490
 20
581.659590
 30
0.0
 10
788.980190
 20
580.230280
 30
0.0
 10
790.272220
 20
577.376050
 30
0.0
  0
SPLINE
  5
3e3
100
AcDbEntity
  8
1
 62
7
100
AcDbSpline
 70
8
 71
3
 72
8
 73
4
 74
0
 40
0
 40
0
 40
0
 40
0
 40
1
 40
1
 40
1
 40
1
 10
790.272220
 20
577.376050
 30
0.0
 10
792.089350
 20
573.361750
 30
0.0
 10
794.533640
 20
570.870220
 30
0.0
 10
798.551620
 20
568.936630
 30
0.0
  0
SPLINE
  5
3e4
100
AcDbEntity
  8
1
 62
7
100
AcDbSpline
 70
8
 71
3
 72
8
 73
4
 74
0
 40
0
 40
0
 40
0
 40
0
 40
1
 40
1
 40
1
 40
1
 10
798.551620
 20
568.936630
 30
0.0
 10
801.738970
 20
567.402770
 30
0.0
 10
802.395860
 20
567.340800
 30
0.0
 10
813.551620
 20
567.521650
 30
0.0
  0
SPLINE
  5
3e5
100
AcDbEntity
  8
1
 62
7
100
AcDbSpline
 70
8
 71
3
 72
8
 73
4
 74
0
 40
0
 40
0
 40
0
 40
0
 40
1
 40
1
 40
1
 40
1
 10
813.551620
 20
567.521650
 30
0.0
 10
823.411590
 20
567.681500
 30
0.0
 10
825.569430
 20
567.902080
 30
0.0
 10
827.485800
 20
568.946020
 30
0.0
  0
LWPOLYLINE
  5
3e6
100
AcDbEntity
  8
1
 62
7
100
AcDbPolyline
 90
3
 70
0
 10
826.218280
 20
630.698870
 30
0.0
 10
826.218280
 20
628.709380
 30
0.0
 10
831.551620
 20
628.709380
 30
0.0
  0
SPLINE
  5
3e7
100
AcDbEntity
  8
1
 62
7
100
AcDbSpline
 70
8
 71
3
 72
8
 73
4
 74
0
 40
0
 40
0
 40
0
 40
0
 40
1
 40
1
 40
1
 40
1
 10
727.046520
 20
565.230750
 30
0.0
 10
726.384940
 20
565.675510
 30
0.0
 10
726.244320
 20
574.573720
 30
0.0
 10
726.379860
 20
607.418560
 30
0.0
  0
LWPOLYLINE
  5
3e8
100
AcDbEntity
  8
1
 62
7
100
AcDbPolyline
 90
1
 70
1
 10
827.485800
 20
568.946020
 30
0.0
  0
SPLINE
  5
3e9
100
AcDbEntity
  8
1
 62
7
100
AcDbSpline
 70
8
 71
3
 72
8
 73
4
 74
0
 40
0
 40
0
 40
0
 40
0
 40
1
 40
1
 40
1
 40
1
 10
768.124150
 20
647.063970
 30
0.0
 10
776.105760
 20
642.643100
 30
0.0
 10
778.452750
 20
637.342180
 30
0.0
 10
778.105500
 20
624.520090
 30
0.0
  0
SPLINE
  5
3ea
100
AcDbEntity
  8
1
 62
7
100
AcDbSpline
 70
8
 71
3
 72
8
 73
4
 74
0
 40
0
 40
0
 40
0
 40
0
 40
1
 40
1
 40
1
 40
1
 10
778.105500
 20
624.520090
 30
0.0
 10
777.913470
 20
617.429370
 30
0.0
 10
777.669390
 20
615.944960
 30
0.0
 10
776.218280
 20
613.042740
 30
0.0
  0
LWPOLYLINE
  5
3eb
100
AcDbEntity
  8
1
 62
7
100
AcDbPolyline
 90
5
 70
0
 10
726.379860
 20
607.418560
 30
0.0
 10
726.551610
 20
649.042740
 30
0.0
 10
745.551610
 20
649.042740
 30
0.0
 10
764.551620
 20
649.042740
 30
0.0
 10
768.124150
 20
647.063970
 30
0.0
  0
SPLINE
  5
3ec
100
AcDbEntity
  8
1
 62
7
100
AcDbSpline
 70
8
 71
3
 72
8
 73
4
 74
0
 40
0
 40
0
 40
0
 40
0
 40
1
 40
1
 40
1
 40
1
 10
776.218280
 20
606.377560
 30
0.0
 10
777.815960
 20
603.183640
 30
0.0
 10
777.884950
 20
602.535100
 30
0.0
 10
777.884950
 20
590.710890
 30
0.0
  0
LWPOLYLINE
  5
3ed
100
AcDbEntity
  8
1
 62
7
100
AcDbPolyline
 90
3
 70
0
 10
776.218280
 20
613.042740
 30
0.0
 10
774.551620
 20
609.709400
 30
0.0
 10
776.218280
 20
606.377560
 30
0.0
  0
SPLINE
  5
3ee
100
AcDbEntity
  8
1
 62
7
100
AcDbSpline
 70
8
 71
3
 72
8
 73
4
 74
0
 40
0
 40
0
 40
0
 40
0
 40
1
 40
1
 40
1
 40
1
 10
775.918980
 20
574.827040
 30
0.0
 10
773.805420
 20
571.011580
 30
0.0
 10
770.537220
 20
568.041510
 30
0.0
 10
766.443750
 20
566.216150
 30
0.0
  0
SPLINE
  5
3ef
100
AcDbEntity
  8
1
 62
7
100
AcDbSpline
 70
8
 71
3
 72
8
 73
4
 74
0
 40
0
 40
0
 40
0
 40
0
 40
1
 40
1
 40
1
 40
1
 10
766.443750
 20
566.216150
 30
0.0
 10
764.276500
 20
565.249730
 30
0.0
 10
761.130550
 20
565.043920
 30
0.0
 10
745.884950
 20
564.871120
 30
0.0
  0
SPLINE
  5
3f0
100
AcDbEntity
  8
1
 62
7
100
AcDbSpline
 70
8
 71
3
 72
8
 73
4
 74
0
 40
0
 40
0
 40
0
 40
0
 40
1
 40
1
 40
1
 40
1
 10
745.884950
 20
564.871120
 30
0.0
 10
735.984950
 20
564.758910
 30
0.0
 10
727.507660
 20
564.920720
 30
0.0
 10
727.046520
 20
565.230750
 30
0.0
  0
LWPOLYLINE
  5
3f1
100
AcDbEntity
  8
1
 62
7
100
AcDbPolyline
 90
3
 70
0
 10
777.884950
 20
590.710890
 30
0.0
 10
777.884950
 20
578.376070
 30
0.0
 10
775.918980
 20
574.827040
 30
0.0
  0
SPLINE
  5
3f2
100
AcDbEntity
  8
1
 62
7
100
AcDbSpline
 70
8
 71
3
 72
8
 73
4
 74
0
 40
0
 40
0
 40
0
 40
0
 40
1
 40
1
 40
1
 40
1
 10
766.578860
 20
568.953980
 30
0.0
 10
770.283080
 20
570.678890
 30
0.0
 10
773.114890
 20
573.632450
 30
0.0
 10
774.973390
 20
577.709400
 30
0.0
  0
SPLINE
  5
3f3
100
AcDbEntity
  8
1
 62
7
100
AcDbSpline
 70
8
 71
3
 72
8
 73
4
 74
0
 40
0
 40
0
 40
0
 40
0
 40
1
 40
1
 40
1
 40
1
 10
774.973390
 20
577.709400
 30
0.0
 10
775.981430
 20
579.920730
 30
0.0
 10
776.191500
 20
582.152940
 30
0.0
 10
776.203640
 20
590.782120
 30
0.0
  0
SPLINE
  5
3f4
100
AcDbEntity
  8
1
 62
7
100
AcDbSpline
 70
8
 71
3
 72
8
 73
4
 74
0
 40
0
 40
0
 40
0
 40
0
 40
1
 40
1
 40
1
 40
1
 10
776.203640
 20
590.782120
 30
0.0
 10
776.218040
 20
601.027060
 30
0.0
 10
776.187440
 20
601.248980
 30
0.0
 10
774.226730
 20
605.115460
 30
0.0
  0
SPLINE
  5
3f5
100
AcDbEntity
  8
1
 62
7
100
AcDbSpline
 70
8
 71
3
 72
8
 73
4
 74
0
 40
0
 40
0
 40
0
 40
0
 40
1
 40
1
 40
1
 40
1
 10
774.226730
 20
605.115460
 30
0.0
 10
773.131370
 20
607.275460
 30
0.0
 10
772.231370
 20
609.424170
 30
0.0
 10
772.226730
 20
609.890360
 30
0.0
  0
SPLINE
  5
3f6
100
AcDbEntity
  8
1
 62
7
100
AcDbSpline
 70
8
 71
3
 72
8
 73
4
 74
0
 40
0
 40
0
 40
0
 40
0
 40
1
 40
1
 40
1
 40
1
 10
772.226730
 20
609.890360
 30
0.0
 10
772.221730
 20
610.356560
 30
0.0
 10
773.043280
 20
611.983200
 30
0.0
 10
774.051620
 20
613.505120
 30
0.0
  0
SPLINE
  5
3f7
100
AcDbEntity
  8
1
 62
7
100
AcDbSpline
 70
8
 71
3
 72
8
 73
4
 74
0
 40
0
 40
0
 40
0
 40
0
 40
1
 40
1
 40
1
 40
1
 10
774.051620
 20
613.505120
 30
0.0
 10
775.763940
 20
616.089610
 30
0.0
 10
775.899660
 20
616.820630
 30
0.0
 10
776.107900
 20
624.580610
 30
0.0
  0
SPLINE
  5
3f8
100
AcDbEntity
  8
1
 62
7
100
AcDbSpline
 70
8
 71
3
 72
8
 73
4
 74
0
 40
0
 40
0
 40
0
 40
0
 40
1
 40
1
 40
1
 40
1
 10
776.107900
 20
624.580610
 30
0.0
 10
776.365630
 20
634.185170
 30
0.0
 10
775.569400
 20
637.204790
 30
0.0
 10
771.624040
 20
641.585280
 30
0.0
  0
SPLINE
  5
3f9
100
AcDbEntity
  8
1
 62
7
100
AcDbSpline
 70
8
 71
3
 72
8
 73
4
 74
0
 40
0
 40
0
 40
0
 40
0
 40
1
 40
1
 40
1
 40
1
 10
771.624040
 20
641.585280
 30
0.0
 10
767.036370
 20
646.678900
 30
0.0
 10
765.568460
 20
647.000500
 30
0.0
 10
745.718280
 20
647.260930
 30
0.0
  0
LWPOLYLINE
  5
3fa
100
AcDbEntity
  8
1
 62
7
100
AcDbPolyline
 90
1
 70
1
 10
727.046520
 20
565.230750
 30
0.0
  0
SPLINE
  5
3fb
100
AcDbEntity
  8
1
 62
7
100
AcDbSpline
 70
8
 71
3
 72
8
 73
4
 74
0
 40
0
 40
0
 40
0
 40
0
 40
1
 40
1
 40
1
 40
1
 10
745.718280
 20
567.383070
 30
0.0
 10
762.675610
 20
567.389070
 30
0.0
 10
763.322490
 20
567.438070
 30
0.0
 10
766.578860
 20
568.954470
 30
0.0
  0
LWPOLYLINE
  5
3fc
100
AcDbEntity
  8
1
 62
7
100
AcDbPolyline
 90
5
 70
0
 10
745.718280
 20
647.260930
 30
0.0
 10
728.218280
 20
647.490520
 30
0.0
 10
728.218280
 20
607.433290
 30
0.0
 10
728.218280
 20
567.376070
 30
0.0
 10
745.718280
 20
567.383070
 30
0.0
  0
SPLINE
  5
3fd
100
AcDbEntity
  8
1
 62
7
100
AcDbSpline
 70
8
 71
3
 72
8
 73
4
 74
0
 40
0
 40
0
 40
0
 40
0
 40
1
 40
1
 40
1
 40
1
 10
738.908400
 20
578.665580
 30
0.0
 10
738.510280
 20
579.409490
 30
0.0
 10
738.218280
 20
584.752830
 30
0.0
 10
738.218280
 20
591.294440
 30
0.0
  0
SPLINE
  5
3fe
100
AcDbEntity
  8
1
 62
7
100
AcDbSpline
 70
8
 71
3
 72
8
 73
4
 74
0
 40
0
 40
0
 40
0
 40
0
 40
1
 40
1
 40
1
 40
1
 10
738.218280
 20
591.294440
 30
0.0
 10
738.218280
 20
605.482280
 30
0.0
 10
737.548350
 20
604.710960
 30
0.0
 10
749.866620
 20
604.705690
 30
0.0
  0
SPLINE
  5
3ff
100
AcDbEntity
  8
1
 62
7
100
AcDbSpline
 70
8
 71
3
 72
8
 73
4
 74
0
 40
0
 40
0
 40
0
 40
0
 40
1
 40
1
 40
1
 40
1
 10
749.866620
 20
604.705690
 30
0.0
 10
764.984070
 20
604.698690
 30
0.0
 10
765.786500
 20
604.095660
 30
0.0
 10
766.110970
 20
592.487400
 30
0.0
  0
SPLINE
  5
400
100
AcDbEntity
  8
1
 62
7
100
AcDbSpline
 70
8
 71
3
 72
8
 73
4
 74
0
 40
0
 40
0
 40
0
 40
0
 40
1
 40
1
 40
1
 40
1
 10
766.110970
 20
592.487400
 30
0.0
 10
766.244210
 20
587.720400
 30
0.0
 10
766.028470
 20
583.371430
 30
0.0
 10
765.585370
 20
581.892510
 30
0.0
  0
SPLINE
  5
401
100
AcDbEntity
  8
1
 62
7
100
AcDbSpline
 70
8
 71
3
 72
8
 73
4
 74
0
 40
0
 40
0
 40
0
 40
0
 40
1
 40
1
 40
1
 40
1
 10
765.585370
 20
581.892510
 30
0.0
 10
764.381410
 20
577.874040
 30
0.0
 10
762.693320
 20
577.376070
 30
0.0
 10
750.274840
 20
577.376070
 30
0.0
  0
SPLINE
  5
402
100
AcDbEntity
  8
1
 62
7
100
AcDbSpline
 70
8
 71
3
 72
8
 73
4
 74
0
 40
0
 40
0
 40
0
 40
0
 40
1
 40
1
 40
1
 40
1
 10
750.274840
 20
577.376070
 30
0.0
 10
740.401790
 20
577.376070
 30
0.0
 10
739.546600
 20
577.473070
 30
0.0
 10
738.908400
 20
578.665580
 30
0.0
  0
LWPOLYLINE
  5
403
100
AcDbEntity
  8
1
 62
7
100
AcDbPolyline
 90
2
 70
0
 10
766.578860
 20
568.954470
 30
0.0
 10
766.578860
 20
568.953980
 30
0.0
  0
SPLINE
  5
404
100
AcDbEntity
  8
1
 62
7
100
AcDbSpline
 70
8
 71
3
 72
8
 73
4
 74
0
 40
0
 40
0
 40
0
 40
0
 40
1
 40
1
 40
1
 40
1
 10
761.542050
 20
580.037620
 30
0.0
 10
763.486560
 20
581.078290
 30
0.0
 10
764.184300
 20
584.473980
 30
0.0
 10
764.028860
 20
592.140100
 30
0.0
  0
SPLINE
  5
405
100
AcDbEntity
  8
1
 62
7
100
AcDbSpline
 70
8
 71
3
 72
8
 73
4
 74
0
 40
0
 40
0
 40
0
 40
0
 40
1
 40
1
 40
1
 40
1
 10
764.028860
 20
592.140100
 30
0.0
 10
763.823330
 20
602.276600
 30
0.0
 10
764.128260
 20
602.042740
 30
0.0
 10
751.114960
 20
602.042740
 30
0.0
  0
LWPOLYLINE
  5
406
100
AcDbEntity
  8
1
 62
7
100
AcDbPolyline
 90
1
 70
1
 10
738.908400
 20
578.665580
 30
0.0
  0
SPLINE
  5
407
100
AcDbEntity
  8
1
 62
7
100
AcDbSpline
 70
8
 71
3
 72
8
 73
4
 74
0
 40
0
 40
0
 40
0
 40
0
 40
1
 40
1
 40
1
 40
1
 10
750.595440
 20
579.376070
 30
0.0
 10
755.936210
 20
579.376070
 30
0.0
 10
760.862190
 20
579.673770
 30
0.0
 10
761.542050
 20
580.037620
 30
0.0
  0
LWPOLYLINE
  5
408
100
AcDbEntity
  8
1
 62
7
100
AcDbPolyline
 90
5
 70
0
 10
751.114960
 20
602.042740
 30
0.0
 10
740.884950
 20
602.042740
 30
0.0
 10
740.884950
 20
590.709400
 30
0.0
 10
740.884950
 20
579.376070
 30
0.0
 10
750.595440
 20
579.376070
 30
0.0
  0
SPLINE
  5
409
100
AcDbEntity
  8
1
 62
7
100
AcDbSpline
 70
8
 71
3
 72
8
 73
4
 74
0
 40
0
 40
0
 40
0
 40
0
 40
1
 40
1
 40
1
 40
1
 10
739.265900
 20
615.757020
 30
0.0
 10
737.815360
 20
617.207560
 30
0.0
 10
737.730130
 20
633.785960
 30
0.0
 10
739.163120
 20
635.748650
 30
0.0
  0
SPLINE
  5
40a
100
AcDbEntity
  8
1
 62
7
100
AcDbSpline
 70
8
 71
3
 72
8
 73
4
 74
0
 40
0
 40
0
 40
0
 40
0
 40
1
 40
1
 40
1
 40
1
 10
739.163120
 20
635.748650
 30
0.0
 10
740.004460
 20
636.901000
 30
0.0
 10
741.118020
 20
637.067030
 30
0.0
 10
749.329780
 20
637.264560
 30
0.0
  0
SPLINE
  5
40b
100
AcDbEntity
  8
1
 62
7
100
AcDbSpline
 70
8
 71
3
 72
8
 73
4
 74
0
 40
0
 40
0
 40
0
 40
0
 40
1
 40
1
 40
1
 40
1
 10
749.329780
 20
637.264560
 30
0.0
 10
764.202080
 20
637.622290
 30
0.0
 10
766.211240
 20
636.299070
 30
0.0
 10
766.215790
 20
626.143490
 30
0.0
  0
SPLINE
  5
40c
100
AcDbEntity
  8
1
 62
7
100
AcDbSpline
 70
8
 71
3
 72
8
 73
4
 74
0
 40
0
 40
0
 40
0
 40
0
 40
1
 40
1
 40
1
 40
1
 10
766.215790
 20
626.143490
 30
0.0
 10
766.218790
 20
619.844470
 30
0.0
 10
765.107230
 20
616.661790
 30
0.0
 10
762.488120
 20
615.468440
 30
0.0
  0
SPLINE
  5
40d
100
AcDbEntity
  8
1
 62
7
100
AcDbSpline
 70
8
 71
3
 72
8
 73
4
 74
0
 40
0
 40
0
 40
0
 40
0
 40
1
 40
1
 40
1
 40
1
 10
762.488120
 20
615.468440
 30
0.0
 10
761.473030
 20
615.005940
 30
0.0
 10
756.816140
 20
614.709400
 30
0.0
 10
750.567870
 20
614.709400
 30
0.0
  0
SPLINE
  5
40e
100
AcDbEntity
  8
1
 62
7
100
AcDbSpline
 70
8
 71
3
 72
8
 73
4
 74
0
 40
0
 40
0
 40
0
 40
0
 40
1
 40
1
 40
1
 40
1
 10
750.567870
 20
614.709400
 30
0.0
 10
742.134620
 20
614.709400
 30
0.0
 10
740.127470
 20
614.895450
 30
0.0
 10
739.265900
 20
615.757020
 30
0.0
  0
LWPOLYLINE
  5
40f
100
AcDbEntity
  8
1
 62
7
100
AcDbPolyline
 90
1
 70
1
 10
761.542050
 20
580.037620
 30
0.0
  0
SPLINE
  5
410
100
AcDbEntity
  8
1
 62
7
100
AcDbSpline
 70
8
 71
3
 72
8
 73
4
 74
0
 40
0
 40
0
 40
0
 40
0
 40
1
 40
1
 40
1
 40
1
 10
761.167630
 20
617.474290
 30
0.0
 10
763.521350
 20
618.546720
 30
0.0
 10
764.476030
 20
621.941680
 30
0.0
 10
764.004730
 20
627.563370
 30
0.0
  0
SPLINE
  5
411
100
AcDbEntity
  8
1
 62
7
100
AcDbSpline
 70
8
 71
3
 72
8
 73
4
 74
0
 40
0
 40
0
 40
0
 40
0
 40
1
 40
1
 40
1
 40
1
 10
764.004730
 20
627.563370
 30
0.0
 10
763.407820
 20
634.683230
 30
0.0
 10
763.360610
 20
634.709400
 30
0.0
 10
751.114960
 20
634.709400
 30
0.0
  0
LWPOLYLINE
  5
412
100
AcDbEntity
  8
1
 62
7
100
AcDbPolyline
 90
1
 70
1
 10
739.265900
 20
615.757020
 30
0.0
  0
SPLINE
  5
413
100
AcDbEntity
  8
1
 62
7
100
AcDbSpline
 70
8
 71
3
 72
8
 73
4
 74
0
 40
0
 40
0
 40
0
 40
0
 40
1
 40
1
 40
1
 40
1
 10
750.186910
 20
616.709400
 30
0.0
 10
755.764670
 20
616.709400
 30
0.0
 10
760.161000
 20
617.015640
 30
0.0
 10
761.167630
 20
617.474290
 30
0.0
  0
LWPOLYLINE
  5
414
100
AcDbEntity
  8
1
 62
7
100
AcDbPolyline
 90
5
 70
0
 10
751.114960
 20
634.709400
 30
0.0
 10
740.884950
 20
634.709400
 30
0.0
 10
740.884950
 20
625.709400
 30
0.0
 10
740.884950
 20
616.709400
 30
0.0
 10
750.186910
 20
616.709400
 30
0.0
  0
SPLINE
  5
415
100
AcDbEntity
  8
1
 62
7
100
AcDbSpline
 70
8
 71
3
 72
8
 73
4
 74
0
 40
0
 40
0
 40
0
 40
0
 40
1
 40
1
 40
1
 40
1
 10
669.718280
 20
565.150920
 30
0.0
 10
668.539200
 20
565.626690
 30
0.0
 10
668.683600
 20
569.650870
 30
0.0
 10
670.240700
 20
579.709400
 30
0.0
  0
SPLINE
  5
416
100
AcDbEntity
  8
1
 62
7
100
AcDbSpline
 70
8
 71
3
 72
8
 73
4
 74
0
 40
0
 40
0
 40
0
 40
0
 40
1
 40
1
 40
1
 40
1
 10
670.240700
 20
579.709400
 30
0.0
 10
670.978600
 20
584.476070
 30
0.0
 10
672.342380
 20
594.526070
 30
0.0
 10
673.271340
 20
602.042740
 30
0.0
  0
SPLINE
  5
417
100
AcDbEntity
  8
1
 62
7
100
AcDbSpline
 70
8
 71
3
 72
8
 73
4
 74
0
 40
0
 40
0
 40
0
 40
0
 40
1
 40
1
 40
1
 40
1
 10
673.271340
 20
602.042740
 30
0.0
 10
674.200300
 20
609.559400
 30
0.0
 10
675.523180
 20
619.309400
 30
0.0
 10
676.211090
 20
623.709400
 30
0.0
  0
SPLINE
  5
418
100
AcDbEntity
  8
1
 62
7
100
AcDbSpline
 70
8
 71
3
 72
8
 73
4
 74
0
 40
0
 40
0
 40
0
 40
0
 40
1
 40
1
 40
1
 40
1
 10
676.211090
 20
623.709400
 30
0.0
 10
676.899000
 20
628.109400
 30
0.0
 10
677.826770
 20
635.009400
 30
0.0
 10
678.272810
 20
639.042740
 30
0.0
  0
SPLINE
  5
419
100
AcDbEntity
  8
1
 62
7
100
AcDbSpline
 70
8
 71
3
 72
8
 73
4
 74
0
 40
0
 40
0
 40
0
 40
0
 40
1
 40
1
 40
1
 40
1
 10
678.272810
 20
639.042740
 30
0.0
 10
679.539310
 20
650.495050
 30
0.0
 10
677.884300
 20
649.376070
 30
0.0
 10
693.556040
 20
649.376070
 30
0.0
  0
SPLINE
  5
41a
100
AcDbEntity
  8
1
 62
7
100
AcDbSpline
 70
8
 71
3
 72
8
 73
4
 74
0
 40
0
 40
0
 40
0
 40
0
 40
1
 40
1
 40
1
 40
1
 10
693.556040
 20
649.376070
 30
0.0
 10
703.648080
 20
649.376070
 30
0.0
 10
707.000410
 20
649.171720
 30
0.0
 10
707.227020
 20
648.542740
 30
0.0
  0
SPLINE
  5
41b
100
AcDbEntity
  8
1
 62
7
100
AcDbSpline
 70
8
 71
3
 72
8
 73
4
 74
0
 40
0
 40
0
 40
0
 40
0
 40
1
 40
1
 40
1
 40
1
 10
707.227020
 20
648.542740
 30
0.0
 10
707.569240
 20
647.592850
 30
0.0
 10
711.739230
 20
618.269610
 30
0.0
 10
712.891630
 20
608.709400
 30
0.0
  0
SPLINE
  5
41c
100
AcDbEntity
  8
1
 62
7
100
AcDbSpline
 70
8
 71
3
 72
8
 73
4
 74
0
 40
0
 40
0
 40
0
 40
0
 40
1
 40
1
 40
1
 40
1
 10
712.891630
 20
608.709400
 30
0.0
 10
713.311510
 20
605.226070
 30
0.0
 10
714.205490
 20
598.776070
 30
0.0
 10
714.878250
 20
594.376070
 30
0.0
  0
SPLINE
  5
41d
100
AcDbEntity
  8
1
 62
7
100
AcDbSpline
 70
8
 71
3
 72
8
 73
4
 74
0
 40
0
 40
0
 40
0
 40
0
 40
1
 40
1
 40
1
 40
1
 10
714.878250
 20
594.376070
 30
0.0
 10
716.861710
 20
581.403720
 30
0.0
 10
718.443610
 20
566.924870
 30
0.0
 10
718.002930
 20
565.776470
 30
0.0
  0
SPLINE
  5
41e
100
AcDbEntity
  8
1
 62
7
100
AcDbSpline
 70
8
 71
3
 72
8
 73
4
 74
0
 40
0
 40
0
 40
0
 40
0
 40
1
 40
1
 40
1
 40
1
 10
718.002930
 20
565.776470
 30
0.0
 10
717.670090
 20
564.909110
 30
0.0
 10
716.497820
 20
564.711310
 30
0.0
 10
711.739200
 20
564.719610
 30
0.0
  0
SPLINE
  5
41f
100
AcDbEntity
  8
1
 62
7
100
AcDbSpline
 70
8
 71
3
 72
8
 73
4
 74
0
 40
0
 40
0
 40
0
 40
0
 40
1
 40
1
 40
1
 40
1
 10
711.739200
 20
564.719610
 30
0.0
 10
708.519360
 20
564.725610
 30
0.0
 10
705.487310
 20
564.981920
 30
0.0
 10
705.001300
 20
565.290050
 30
0.0
  0
SPLINE
  5
420
100
AcDbEntity
  8
1
 62
7
100
AcDbSpline
 70
8
 71
3
 72
8
 73
4
 74
0
 40
0
 40
0
 40
0
 40
0
 40
1
 40
1
 40
1
 40
1
 10
705.001300
 20
565.290050
 30
0.0
 10
704.467290
 20
565.628620
 30
0.0
 10
703.742390
 20
568.723940
 30
0.0
 10
703.169210
 20
573.113180
 30
0.0
  0
SPLINE
  5
421
100
AcDbEntity
  8
1
 62
7
100
AcDbSpline
 70
8
 71
3
 72
8
 73
4
 74
0
 40
0
 40
0
 40
0
 40
0
 40
1
 40
1
 40
1
 40
1
 10
703.169210
 20
573.113180
 30
0.0
 10
702.647560
 20
577.107770
 30
0.0
 10
702.079620
 20
580.751070
 30
0.0
 10
701.907110
 20
581.209400
 30
0.0
  0
SPLINE
  5
422
100
AcDbEntity
  8
1
 62
7
100
AcDbSpline
 70
8
 71
3
 72
8
 73
4
 74
0
 40
0
 40
0
 40
0
 40
0
 40
1
 40
1
 40
1
 40
1
 10
701.907110
 20
581.209400
 30
0.0
 10
701.529710
 20
582.212120
 30
0.0
 10
685.859320
 20
582.413300
 30
0.0
 10
685.247460
 20
581.423290
 30
0.0
  0
SPLINE
  5
423
100
AcDbEntity
  8
1
 62
7
100
AcDbSpline
 70
8
 71
3
 72
8
 73
4
 74
0
 40
0
 40
0
 40
0
 40
0
 40
1
 40
1
 40
1
 40
1
 10
685.247460
 20
581.423290
 30
0.0
 10
685.036900
 20
581.082590
 30
0.0
 10
684.419000
 20
577.425170
 30
0.0
 10
683.874350
 20
573.295690
 30
0.0
  0
SPLINE
  5
424
100
AcDbEntity
  8
1
 62
7
100
AcDbSpline
 70
8
 71
3
 72
8
 73
4
 74
0
 40
0
 40
0
 40
0
 40
0
 40
1
 40
1
 40
1
 40
1
 10
683.874350
 20
573.295690
 30
0.0
 10
683.311370
 20
569.027280
 30
0.0
 10
682.524680
 20
565.559350
 30
0.0
 10
682.051180
 20
565.258690
 30
0.0
  0
SPLINE
  5
425
100
AcDbEntity
  8
1
 62
7
100
AcDbSpline
 70
8
 71
3
 72
8
 73
4
 74
0
 40
0
 40
0
 40
0
 40
0
 40
1
 40
1
 40
1
 40
1
 10
682.051180
 20
565.258690
 30
0.0
 10
681.150770
 20
564.686950
 30
0.0
 10
671.086070
 20
564.599010
 30
0.0
 10
669.718280
 20
565.150920
 30
0.0
  0
LWPOLYLINE
  5
426
100
AcDbEntity
  8
1
 62
7
100
AcDbPolyline
 90
1
 70
1
 10
761.167630
 20
617.474290
 30
0.0
  0
SPLINE
  5
427
100
AcDbEntity
  8
1
 62
7
100
AcDbSpline
 70
8
 71
3
 72
8
 73
4
 74
0
 40
0
 40
0
 40
0
 40
0
 40
1
 40
1
 40
1
 40
1
 10
682.218280
 20
575.042740
 30
0.0
 10
682.768280
 20
579.076070
 30
0.0
 10
683.460990
 20
582.751070
 30
0.0
 10
683.757630
 20
583.209400
 30
0.0
  0
SPLINE
  5
428
100
AcDbEntity
  8
1
 62
7
100
AcDbSpline
 70
8
 71
3
 72
8
 73
4
 74
0
 40
0
 40
0
 40
0
 40
0
 40
1
 40
1
 40
1
 40
1
 10
683.757630
 20
583.209400
 30
0.0
 10
684.146510
 20
583.810260
 30
0.0
 10
686.883170
 20
584.042740
 30
0.0
 10
693.567500
 20
584.042740
 30
0.0
  0
SPLINE
  5
429
100
AcDbEntity
  8
1
 62
7
100
AcDbSpline
 70
8
 71
3
 72
8
 73
4
 74
0
 40
0
 40
0
 40
0
 40
0
 40
1
 40
1
 40
1
 40
1
 10
693.567500
 20
584.042740
 30
0.0
 10
704.339780
 20
584.042740
 30
0.0
 10
703.769510
 20
584.416760
 30
0.0
 10
704.884320
 20
576.620370
 30
0.0
  0
SPLINE
  5
42a
100
AcDbEntity
  8
1
 62
7
100
AcDbSpline
 70
8
 71
3
 72
8
 73
4
 74
0
 40
0
 40
0
 40
0
 40
0
 40
1
 40
1
 40
1
 40
1
 10
704.884320
 20
576.620370
 30
0.0
 10
705.270540
 20
573.919340
 30
0.0
 10
705.742280
 20
570.734400
 30
0.0
 10
705.932620
 20
569.542740
 30
0.0
  0
LWPOLYLINE
  5
42b
100
AcDbEntity
  8
1
 62
7
100
AcDbPolyline
 90
1
 70
1
 10
669.718280
 20
565.150920
 30
0.0
  0
SPLINE
  5
42c
100
AcDbEntity
  8
1
 62
7
100
AcDbSpline
 70
8
 71
3
 72
8
 73
4
 74
0
 40
0
 40
0
 40
0
 40
0
 40
1
 40
1
 40
1
 40
1
 10
715.979630
 20
570.209400
 30
0.0
 10
715.751820
 20
571.767740
 30
0.0
 10
714.656830
 20
580.092740
 30
0.0
 10
713.546310
 20
588.709400
 30
0.0
  0
SPLINE
  5
42d
100
AcDbEntity
  8
1
 62
7
100
AcDbSpline
 70
8
 71
3
 72
8
 73
4
 74
0
 40
0
 40
0
 40
0
 40
0
 40
1
 40
1
 40
1
 40
1
 10
713.546310
 20
588.709400
 30
0.0
 10
712.435800
 20
597.326070
 30
0.0
 10
711.088620
 20
607.076070
 30
0.0
 10
710.552570
 20
610.376070
 30
0.0
  0
SPLINE
  5
42e
100
AcDbEntity
  8
1
 62
7
100
AcDbSpline
 70
8
 71
3
 72
8
 73
4
 74
0
 40
0
 40
0
 40
0
 40
0
 40
1
 40
1
 40
1
 40
1
 10
710.552570
 20
610.376070
 30
0.0
 10
710.016530
 20
613.676070
 30
0.0
 10
708.816320
 20
622.646580
 30
0.0
 10
707.885430
 20
630.310550
 30
0.0
  0
SPLINE
  5
42f
100
AcDbEntity
  8
1
 62
7
100
AcDbSpline
 70
8
 71
3
 72
8
 73
4
 74
0
 40
0
 40
0
 40
0
 40
0
 40
1
 40
1
 40
1
 40
1
 10
707.885430
 20
630.310550
 30
0.0
 10
706.954550
 20
637.974510
 30
0.0
 10
706.016100
 20
644.949510
 30
0.0
 10
705.799990
 20
645.810550
 30
0.0
  0
LWPOLYLINE
  5
430
100
AcDbEntity
  8
1
 62
7
100
AcDbPolyline
 90
5
 70
0
 10
705.932620
 20
569.542740
 30
0.0
 10
706.278700
 20
567.376070
 30
0.0
 10
711.336270
 20
567.376070
 30
0.0
 10
716.393840
 20
567.376070
 30
0.0
 10
715.979630
 20
570.209400
 30
0.0
  0
SPLINE
  5
431
100
AcDbEntity
  8
1
 62
7
100
AcDbSpline
 70
8
 71
3
 72
8
 73
4
 74
0
 40
0
 40
0
 40
0
 40
0
 40
1
 40
1
 40
1
 40
1
 10
693.479340
 20
647.376070
 30
0.0
 10
684.387980
 20
647.376070
 30
0.0
 10
681.548770
 20
647.177910
 30
0.0
 10
681.539660
 20
646.542740
 30
0.0
  0
SPLINE
  5
432
100
AcDbEntity
  8
1
 62
7
100
AcDbSpline
 70
8
 71
3
 72
8
 73
4
 74
0
 40
0
 40
0
 40
0
 40
0
 40
1
 40
1
 40
1
 40
1
 10
681.539660
 20
646.542740
 30
0.0
 10
681.532660
 20
646.084400
 30
0.0
 10
681.078740
 20
642.859400
 30
0.0
 10
680.530020
 20
639.376070
 30
0.0
  0
SPLINE
  5
433
100
AcDbEntity
  8
1
 62
7
100
AcDbSpline
 70
8
 71
3
 72
8
 73
4
 74
0
 40
0
 40
0
 40
0
 40
0
 40
1
 40
1
 40
1
 40
1
 10
680.530020
 20
639.376070
 30
0.0
 10
679.981300
 20
635.892740
 30
0.0
 10
678.482270
 20
624.942740
 30
0.0
 10
677.198840
 20
615.042740
 30
0.0
  0
SPLINE
  5
434
100
AcDbEntity
  8
1
 62
7
100
AcDbSpline
 70
8
 71
3
 72
8
 73
4
 74
0
 40
0
 40
0
 40
0
 40
0
 40
1
 40
1
 40
1
 40
1
 10
677.198840
 20
615.042740
 30
0.0
 10
675.915410
 20
605.142740
 30
0.0
 10
674.727670
 20
596.592740
 30
0.0
 10
674.559410
 20
596.042740
 30
0.0
  0
SPLINE
  5
435
100
AcDbEntity
  8
1
 62
7
100
AcDbSpline
 70
8
 71
3
 72
8
 73
4
 74
0
 40
0
 40
0
 40
0
 40
0
 40
1
 40
1
 40
1
 40
1
 10
674.559410
 20
596.042740
 30
0.0
 10
674.391140
 20
595.492740
 30
0.0
 10
673.646360
 20
589.942740
 30
0.0
 10
672.904340
 20
583.709400
 30
0.0
  0
SPLINE
  5
436
100
AcDbEntity
  8
1
 62
7
100
AcDbSpline
 70
8
 71
3
 72
8
 73
4
 74
0
 40
0
 40
0
 40
0
 40
0
 40
1
 40
1
 40
1
 40
1
 10
672.904340
 20
583.709400
 30
0.0
 10
672.162310
 20
577.476070
 30
0.0
 10
671.375810
 20
571.237940
 30
0.0
 10
671.156550
 20
569.846880
 30
0.0
  0
LWPOLYLINE
  5
437
100
AcDbEntity
  8
1
 62
7
100
AcDbPolyline
 90
3
 70
0
 10
705.799990
 20
645.810550
 30
0.0
 10
705.407070
 20
647.376070
 30
0.0
 10
693.479340
 20
647.376070
 30
0.0
  0
SPLINE
  5
438
100
AcDbEntity
  8
1
 62
7
100
AcDbSpline
 70
8
 71
3
 72
8
 73
4
 74
0
 40
0
 40
0
 40
0
 40
0
 40
1
 40
1
 40
1
 40
1
 10
685.553840
 20
596.038580
 30
0.0
 10
685.036160
 20
597.005870
 30
0.0
 10
685.110060
 20
598.957080
 30
0.0
 10
685.825260
 20
603.205250
 30
0.0
  0
SPLINE
  5
439
100
AcDbEntity
  8
1
 62
7
100
AcDbSpline
 70
8
 71
3
 72
8
 73
4
 74
0
 40
0
 40
0
 40
0
 40
0
 40
1
 40
1
 40
1
 40
1
 10
685.825260
 20
603.205250
 30
0.0
 10
686.365780
 20
606.415870
 30
0.0
 10
687.312220
 20
613.242740
 30
0.0
 10
687.928450
 20
618.376070
 30
0.0
  0
SPLINE
  5
43a
100
AcDbEntity
  8
1
 62
7
100
AcDbSpline
 70
8
 71
3
 72
8
 73
4
 74
0
 40
0
 40
0
 40
0
 40
0
 40
1
 40
1
 40
1
 40
1
 10
687.928450
 20
618.376070
 30
0.0
 10
689.155920
 20
628.601150
 30
0.0
 10
690.119340
 20
630.709400
 30
0.0
 10
693.564500
 20
630.709400
 30
0.0
  0
SPLINE
  5
43b
100
AcDbEntity
  8
1
 62
7
100
AcDbSpline
 70
8
 71
3
 72
8
 73
4
 74
0
 40
0
 40
0
 40
0
 40
0
 40
1
 40
1
 40
1
 40
1
 10
693.564500
 20
630.709400
 30
0.0
 10
696.505300
 20
630.709400
 30
0.0
 10
697.717130
 20
628.614790
 30
0.0
 10
698.690600
 20
621.849020
 30
0.0
  0
SPLINE
  5
43c
100
AcDbEntity
  8
1
 62
7
100
AcDbSpline
 70
8
 71
3
 72
8
 73
4
 74
0
 40
0
 40
0
 40
0
 40
0
 40
1
 40
1
 40
1
 40
1
 10
698.690600
 20
621.849020
 30
0.0
 10
701.683470
 20
601.048160
 30
0.0
 10
702.110900
 20
597.087770
 30
0.0
 10
701.488500
 20
595.924810
 30
0.0
  0
SPLINE
  5
43d
100
AcDbEntity
  8
1
 62
7
100
AcDbSpline
 70
8
 71
3
 72
8
 73
4
 74
0
 40
0
 40
0
 40
0
 40
0
 40
1
 40
1
 40
1
 40
1
 10
701.488500
 20
595.924810
 30
0.0
 10
700.919980
 20
594.862530
 30
0.0
 10
699.920060
 20
594.709400
 30
0.0
 10
693.551610
 20
594.709400
 30
0.0
  0
SPLINE
  5
43e
100
AcDbEntity
  8
1
 62
7
100
AcDbSpline
 70
8
 71
3
 72
8
 73
4
 74
0
 40
0
 40
0
 40
0
 40
0
 40
1
 40
1
 40
1
 40
1
 10
693.551610
 20
594.709400
 30
0.0
 10
686.955100
 20
594.709400
 30
0.0
 10
686.197840
 20
594.835260
 30
0.0
 10
685.553840
 20
596.038580
 30
0.0
  0
LWPOLYLINE
  5
43f
100
AcDbEntity
  8
1
 62
7
100
AcDbPolyline
 90
5
 70
0
 10
671.156550
 20
569.846880
 30
0.0
 10
670.757890
 20
567.317700
 30
0.0
 10
675.988080
 20
567.513550
 30
0.0
 10
681.218280
 20
567.709400
 30
0.0
 10
682.218280
 20
575.042740
 30
0.0
  0
SPLINE
  5
440
100
AcDbEntity
  8
1
 62
7
100
AcDbSpline
 70
8
 71
3
 72
8
 73
4
 74
0
 40
0
 40
0
 40
0
 40
0
 40
1
 40
1
 40
1
 40
1
 10
699.548840
 20
598.209400
 30
0.0
 10
699.544840
 20
600.349790
 30
0.0
 10
696.323810
 20
625.326670
 30
0.0
 10
695.865530
 20
626.770590
 30
0.0
  0
SPLINE
  5
441
100
AcDbEntity
  8
1
 62
7
100
AcDbSpline
 70
8
 71
3
 72
8
 73
4
 74
0
 40
0
 40
0
 40
0
 40
0
 40
1
 40
1
 40
1
 40
1
 10
695.865530
 20
626.770590
 30
0.0
 10
695.400250
 20
628.236560
 30
0.0
 10
693.010710
 20
629.101830
 30
0.0
 10
692.058150
 20
628.149270
 30
0.0
  0
SPLINE
  5
442
100
AcDbEntity
  8
1
 62
7
100
AcDbSpline
 70
8
 71
3
 72
8
 73
4
 74
0
 40
0
 40
0
 40
0
 40
0
 40
1
 40
1
 40
1
 40
1
 10
692.058150
 20
628.149270
 30
0.0
 10
691.313550
 20
627.404670
 30
0.0
 10
688.569730
 20
610.354350
 30
0.0
 10
687.830150
 20
601.876070
 30
0.0
  0
LWPOLYLINE
  5
443
100
AcDbEntity
  8
1
 62
7
100
AcDbPolyline
 90
1
 70
1
 10
685.553840
 20
596.038580
 30
0.0
  0
SPLINE
  5
444
100
AcDbEntity
  8
1
 62
7
100
AcDbSpline
 70
8
 71
3
 72
8
 73
4
 74
0
 40
0
 40
0
 40
0
 40
0
 40
1
 40
1
 40
1
 40
1
 10
693.465530
 20
596.709400
 30
0.0
 10
699.333400
 20
596.709400
 30
0.0
 10
699.551510
 20
596.763200
 30
0.0
 10
699.548840
 20
598.209400
 30
0.0
  0
LWPOLYLINE
  5
445
100
AcDbEntity
  8
1
 62
7
100
AcDbPolyline
 90
3
 70
0
 10
687.830150
 20
601.876070
 30
0.0
 10
687.379450
 20
596.709400
 30
0.0
 10
693.465530
 20
596.709400
 30
0.0
  0
SPLINE
  5
446
100
AcDbEntity
  8
1
 62
7
100
AcDbSpline
 70
8
 71
3
 72
8
 73
4
 74
0
 40
0
 40
0
 40
0
 40
0
 40
1
 40
1
 40
1
 40
1
 10
560.339010
 20
565.411630
 30
0.0
 10
555.977420
 20
566.190680
 30
0.0
 10
554.817090
 20
566.796650
 30
0.0
 10
551.065900
 20
570.254370
 30
0.0
  0
SPLINE
  5
447
100
AcDbEntity
  8
1
 62
7
100
AcDbSpline
 70
8
 71
3
 72
8
 73
4
 74
0
 40
0
 40
0
 40
0
 40
0
 40
1
 40
1
 40
1
 40
1
 10
551.065900
 20
570.254370
 30
0.0
 10
545.069560
 20
575.781610
 30
0.0
 10
545.247460
 20
574.760830
 30
0.0
 10
545.003060
 20
605.042740
 30
0.0
  0
SPLINE
  5
448
100
AcDbEntity
  8
1
 62
7
100
AcDbSpline
 70
8
 71
3
 72
8
 73
4
 74
0
 40
0
 40
0
 40
0
 40
0
 40
1
 40
1
 40
1
 40
1
 10
545.003060
 20
605.042740
 30
0.0
 10
544.861380
 20
622.598130
 30
0.0
 10
545.036060
 20
632.849520
 30
0.0
 10
545.514370
 20
635.046270
 30
0.0
  0
SPLINE
  5
449
100
AcDbEntity
  8
1
 62
7
100
AcDbSpline
 70
8
 71
3
 72
8
 73
4
 74
0
 40
0
 40
0
 40
0
 40
0
 40
1
 40
1
 40
1
 40
1
 10
545.514370
 20
635.046270
 30
0.0
 10
546.496540
 20
639.557330
 30
0.0
 10
550.291200
 20
644.388690
 30
0.0
 10
554.884950
 20
646.976880
 30
0.0
  0
LWPOLYLINE
  5
44a
100
AcDbEntity
  8
1
 62
7
100
AcDbPolyline
 90
1
 70
1
 10
699.548840
 20
598.209400
 30
0.0
  0
SPLINE
  5
44b
100
AcDbEntity
  8
1
 62
7
100
AcDbSpline
 70
8
 71
3
 72
8
 73
4
 74
0
 40
0
 40
0
 40
0
 40
0
 40
1
 40
1
 40
1
 40
1
 10
570.884950
 20
649.042740
 30
0.0
 10
582.682110
 20
649.042740
 30
0.0
 10
583.358260
 20
648.971240
 30
0.0
 10
586.438120
 20
647.398010
 30
0.0
  0
SPLINE
  5
44c
100
AcDbEntity
  8
1
 62
7
100
AcDbSpline
 70
8
 71
3
 72
8
 73
4
 74
0
 40
0
 40
0
 40
0
 40
0
 40
1
 40
1
 40
1
 40
1
 10
586.438120
 20
647.398010
 30
0.0
 10
590.377220
 20
645.385880
 30
0.0
 10
593.867200
 20
641.633260
 30
0.0
 10
595.653430
 20
637.489180
 30
0.0
  0
SPLINE
  5
44d
100
AcDbEntity
  8
1
 62
7
100
AcDbSpline
 70
8
 71
3
 72
8
 73
4
 74
0
 40
0
 40
0
 40
0
 40
0
 40
1
 40
1
 40
1
 40
1
 10
595.653430
 20
637.489180
 30
0.0
 10
596.925090
 20
634.538910
 30
0.0
 10
596.995560
 20
632.951720
 30
0.0
 10
597.000530
 20
607.146220
 30
0.0
  0
LWPOLYLINE
  5
44e
100
AcDbEntity
  8
1
 62
7
100
AcDbPolyline
 90
3
 70
0
 10
554.884950
 20
646.976880
 30
0.0
 10
558.551610
 20
649.042740
 30
0.0
 10
570.884950
 20
649.042740
 30
0.0
  0
SPLINE
  5
44f
100
AcDbEntity
  8
1
 62
7
100
AcDbSpline
 70
8
 71
3
 72
8
 73
4
 74
0
 40
0
 40
0
 40
0
 40
0
 40
1
 40
1
 40
1
 40
1
 10
594.921850
 20
575.683810
 30
0.0
 10
592.711850
 20
571.194660
 30
0.0
 10
589.531460
 20
568.144860
 30
0.0
 10
585.110170
 20
566.275000
 30
0.0
  0
SPLINE
  5
450
100
AcDbEntity
  8
1
 62
7
100
AcDbSpline
 70
8
 71
3
 72
8
 73
4
 74
0
 40
0
 40
0
 40
0
 40
0
 40
1
 40
1
 40
1
 40
1
 10
585.110170
 20
566.275000
 30
0.0
 10
582.048170
 20
564.980000
 30
0.0
 10
565.905230
 20
564.417370
 30
0.0
 10
560.338770
 20
565.411630
 30
0.0
  0
LWPOLYLINE
  5
451
100
AcDbEntity
  8
1
 62
7
100
AcDbPolyline
 90
3
 70
0
 10
597.000530
 20
607.146220
 30
0.0
 10
597.005530
 20
579.916370
 30
0.0
 10
594.921850
 20
575.683810
 30
0.0
  0
SPLINE
  5
452
100
AcDbEntity
  8
1
 62
7
100
AcDbSpline
 70
8
 71
3
 72
8
 73
4
 74
0
 40
0
 40
0
 40
0
 40
0
 40
1
 40
1
 40
1
 40
1
 10
585.245520
 20
568.953980
 30
0.0
 10
588.949740
 20
570.678890
 30
0.0
 10
591.781560
 20
573.632450
 30
0.0
 10
593.640050
 20
577.709400
 30
0.0
  0
SPLINE
  5
453
100
AcDbEntity
  8
1
 62
7
100
AcDbSpline
 70
8
 71
3
 72
8
 73
4
 74
0
 40
0
 40
0
 40
0
 40
0
 40
1
 40
1
 40
1
 40
1
 10
593.640050
 20
577.709400
 30
0.0
 10
594.750250
 20
580.144830
 30
0.0
 10
594.856610
 20
582.659600
 30
0.0
 10
594.866590
 20
606.709400
 30
0.0
  0
SPLINE
  5
454
100
AcDbEntity
  8
1
 62
7
100
AcDbSpline
 70
8
 71
3
 72
8
 73
4
 74
0
 40
0
 40
0
 40
0
 40
0
 40
1
 40
1
 40
1
 40
1
 10
594.866590
 20
606.709400
 30
0.0
 10
594.873590
 20
622.586290
 30
0.0
 10
594.607720
 20
634.014090
 30
0.0
 10
594.198070
 20
635.488980
 30
0.0
  0
SPLINE
  5
455
100
AcDbEntity
  8
1
 62
7
100
AcDbSpline
 70
8
 71
3
 72
8
 73
4
 74
0
 40
0
 40
0
 40
0
 40
0
 40
1
 40
1
 40
1
 40
1
 10
594.198070
 20
635.488980
 30
0.0
 10
593.208770
 20
639.050830
 30
0.0
 10
588.153840
 20
644.366610
 30
0.0
 10
584.366360
 20
645.828030
 30
0.0
  0
SPLINE
  5
456
100
AcDbEntity
  8
1
 62
7
100
AcDbSpline
 70
8
 71
3
 72
8
 73
4
 74
0
 40
0
 40
0
 40
0
 40
0
 40
1
 40
1
 40
1
 40
1
 10
584.366360
 20
645.828030
 30
0.0
 10
581.781710
 20
646.825330
 30
0.0
 10
579.309190
 20
647.039100
 30
0.0
 10
570.551610
 20
647.022410
 30
0.0
  0
SPLINE
  5
457
100
AcDbEntity
  8
1
 62
7
100
AcDbSpline
 70
8
 71
3
 72
8
 73
4
 74
0
 40
0
 40
0
 40
0
 40
0
 40
1
 40
1
 40
1
 40
1
 10
570.551610
 20
647.022410
 30
0.0
 10
558.592910
 20
646.999610
 30
0.0
 10
556.967100
 20
646.587040
 30
0.0
 10
552.330850
 20
642.398470
 30
0.0
  0
SPLINE
  5
458
100
AcDbEntity
  8
1
 62
7
100
AcDbSpline
 70
8
 71
3
 72
8
 73
4
 74
0
 40
0
 40
0
 40
0
 40
0
 40
1
 40
1
 40
1
 40
1
 10
552.330850
 20
642.398470
 30
0.0
 10
547.292850
 20
637.846930
 30
0.0
 10
547.218280
 20
637.326400
 30
0.0
 10
547.218280
 20
606.709400
 30
0.0
  0
LWPOLYLINE
  5
459
100
AcDbEntity
  8
1
 62
7
100
AcDbPolyline
 90
2
 70
0
 10
560.338770
 20
565.411630
 30
0.0
 10
560.339010
 20
565.411630
 30
0.0
  0
SPLINE
  5
45a
100
AcDbEntity
  8
1
 62
7
100
AcDbSpline
 70
8
 71
3
 72
8
 73
4
 74
0
 40
0
 40
0
 40
0
 40
0
 40
1
 40
1
 40
1
 40
1
 10
548.903840
 20
576.434280
 30
0.0
 10
549.830900
 20
574.632960
 30
0.0
 10
551.669150
 20
572.285250
 30
0.0
 10
552.988840
 20
571.217130
 30
0.0
  0
SPLINE
  5
45b
100
AcDbEntity
  8
1
 62
7
100
AcDbSpline
 70
8
 71
3
 72
8
 73
4
 74
0
 40
0
 40
0
 40
0
 40
0
 40
1
 40
1
 40
1
 40
1
 10
552.988840
 20
571.217130
 30
0.0
 10
557.014300
 20
567.959050
 30
0.0
 10
559.516170
 20
567.436800
 30
0.0
 10
571.218280
 20
567.411850
 30
0.0
  0
SPLINE
  5
45c
100
AcDbEntity
  8
1
 62
7
100
AcDbSpline
 70
8
 71
3
 72
8
 73
4
 74
0
 40
0
 40
0
 40
0
 40
0
 40
1
 40
1
 40
1
 40
1
 10
571.218280
 20
567.411850
 30
0.0
 10
581.038800
 20
567.390950
 30
0.0
 10
582.151530
 20
567.513230
 30
0.0
 10
585.245520
 20
568.953980
 30
0.0
  0
LWPOLYLINE
  5
45d
100
AcDbEntity
  8
1
 62
7
100
AcDbPolyline
 90
3
 70
0
 10
547.218280
 20
606.709400
 30
0.0
 10
547.218280
 20
579.709400
 30
0.0
 10
548.903840
 20
576.434280
 30
0.0
  0
LWPOLYLINE
  5
45e
100
AcDbEntity
  8
1
 62
7
100
AcDbPolyline
 90
1
 70
1
 10
585.245520
 20
568.953980
 30
0.0
  0
SPLINE
  5
45f
100
AcDbEntity
  8
1
 62
7
100
AcDbSpline
 70
8
 71
3
 72
8
 73
4
 74
0
 40
0
 40
0
 40
0
 40
0
 40
1
 40
1
 40
1
 40
1
 10
557.028100
 20
606.003800
 30
0.0
 10
556.781800
 20
638.043160
 30
0.0
 10
556.294260
 20
636.827110
 30
0.0
 10
569.551610
 20
637.240890
 30
0.0
  0
SPLINE
  5
460
100
AcDbEntity
  8
1
 62
7
100
AcDbSpline
 70
8
 71
3
 72
8
 73
4
 74
0
 40
0
 40
0
 40
0
 40
0
 40
1
 40
1
 40
1
 40
1
 10
569.551610
 20
637.240890
 30
0.0
 10
579.079350
 20
637.538260
 30
0.0
 10
582.041760
 20
636.730020
 30
0.0
 10
583.717240
 20
633.376070
 30
0.0
  0
SPLINE
  5
461
100
AcDbEntity
  8
1
 62
7
100
AcDbSpline
 70
8
 71
3
 72
8
 73
4
 74
0
 40
0
 40
0
 40
0
 40
0
 40
1
 40
1
 40
1
 40
1
 10
583.717240
 20
633.376070
 30
0.0
 10
584.761390
 20
631.285930
 30
0.0
 10
584.882980
 20
628.569090
 30
0.0
 10
584.883910
 20
607.308890
 30
0.0
  0
SPLINE
  5
462
100
AcDbEntity
  8
1
 62
7
100
AcDbSpline
 70
8
 71
3
 72
8
 73
4
 74
0
 40
0
 40
0
 40
0
 40
0
 40
1
 40
1
 40
1
 40
1
 10
584.883910
 20
607.308890
 30
0.0
 10
584.884570
 20
592.101520
 30
0.0
 10
584.627520
 20
582.836590
 30
0.0
 10
584.168400
 20
581.519540
 30
0.0
  0
SPLINE
  5
463
100
AcDbEntity
  8
1
 62
7
100
AcDbSpline
 70
8
 71
3
 72
8
 73
4
 74
0
 40
0
 40
0
 40
0
 40
0
 40
1
 40
1
 40
1
 40
1
 10
584.168400
 20
581.519540
 30
0.0
 10
582.895110
 20
577.866980
 30
0.0
 10
581.325350
 20
577.376070
 30
0.0
 10
570.918920
 20
577.376070
 30
0.0
  0
LWPOLYLINE
  5
464
100
AcDbEntity
  8
1
 62
7
100
AcDbPolyline
 90
3
 70
0
 10
559.395460
 20
579.320760
 30
0.0
 10
557.218280
 20
581.265460
 30
0.0
 10
557.028100
 20
606.003800
 30
0.0
  0
LWPOLYLINE
  5
465
100
AcDbEntity
  8
1
 62
7
100
AcDbPolyline
 90
3
 70
0
 10
570.918920
 20
577.376070
 30
0.0
 10
561.572650
 20
577.376070
 30
0.0
 10
559.395460
 20
579.320760
 30
0.0
  0
SPLINE
  5
466
100
AcDbEntity
  8
1
 62
7
100
AcDbSpline
 70
8
 71
3
 72
8
 73
4
 74
0
 40
0
 40
0
 40
0
 40
0
 40
1
 40
1
 40
1
 40
1
 10
582.884950
 20
606.922530
 30
0.0
 10
582.884950
 20
637.300700
 30
0.0
 10
583.988090
 20
634.709400
 30
0.0
 10
571.055720
 20
634.709400
 30
0.0
  0
SPLINE
  5
467
100
AcDbEntity
  8
1
 62
7
100
AcDbSpline
 70
8
 71
3
 72
8
 73
4
 74
0
 40
0
 40
0
 40
0
 40
0
 40
1
 40
1
 40
1
 40
1
 10
571.055720
 20
634.709400
 30
0.0
 10
563.555460
 20
634.709400
 30
0.0
 10
561.779400
 20
634.518880
 30
0.0
 10
560.770770
 20
633.606080
 30
0.0
  0
SPLINE
  5
468
100
AcDbEntity
  8
1
 62
7
100
AcDbSpline
 70
8
 71
3
 72
8
 73
4
 74
0
 40
0
 40
0
 40
0
 40
0
 40
1
 40
1
 40
1
 40
1
 10
560.770770
 20
633.606080
 30
0.0
 10
559.630580
 20
632.574220
 30
0.0
 10
559.551610
 20
630.868510
 30
0.0
 10
559.551610
 20
607.272750
 30
0.0
  0
SPLINE
  5
469
100
AcDbEntity
  8
1
 62
7
100
AcDbSpline
 70
8
 71
3
 72
8
 73
4
 74
0
 40
0
 40
0
 40
0
 40
0
 40
1
 40
1
 40
1
 40
1
 10
559.551610
 20
607.272750
 30
0.0
 10
559.551610
 20
582.931630
 30
0.0
 10
559.598610
 20
581.995760
 30
0.0
 10
560.884950
 20
580.709400
 30
0.0
  0
SPLINE
  5
46a
100
AcDbEntity
  8
1
 62
7
100
AcDbSpline
 70
8
 71
3
 72
8
 73
4
 74
0
 40
0
 40
0
 40
0
 40
0
 40
1
 40
1
 40
1
 40
1
 10
560.884950
 20
580.709400
 30
0.0
 10
562.082000
 20
579.512350
 30
0.0
 10
563.107170
 20
579.376070
 30
0.0
 10
570.915250
 20
579.376070
 30
0.0
  0
SPLINE
  5
46b
100
AcDbEntity
  8
1
 62
7
100
AcDbSpline
 70
8
 71
3
 72
8
 73
4
 74
0
 40
0
 40
0
 40
0
 40
0
 40
1
 40
1
 40
1
 40
1
 10
570.915250
 20
579.376070
 30
0.0
 10
579.260180
 20
579.376070
 30
0.0
 10
579.678460
 20
579.442270
 30
0.0
 10
581.248580
 20
581.012430
 30
0.0
  0
LWPOLYLINE
  5
46c
100
AcDbEntity
  8
1
 62
7
100
AcDbPolyline
 90
3
 70
0
 10
581.248580
 20
581.012430
 30
0.0
 10
582.884950
 20
582.648800
 30
0.0
 10
582.884950
 20
606.922530
 30
0.0
  0
SPLINE
  5
46d
100
AcDbEntity
  8
1
 62
7
100
AcDbSpline
 70
8
 71
3
 72
8
 73
4
 74
0
 40
0
 40
0
 40
0
 40
0
 40
1
 40
1
 40
1
 40
1
 10
498.799400
 20
565.344120
 30
0.0
 10
490.770780
 20
566.813950
 30
0.0
 10
484.452200
 20
573.571340
 30
0.0
 10
483.690090
 20
581.502750
 30
0.0
  0
LWPOLYLINE
  5
46e
100
AcDbEntity
  8
1
 62
7
100
AcDbPolyline
 90
1
 70
1
 10
581.248580
 20
581.012430
 30
0.0
  0
SPLINE
  5
46f
100
AcDbEntity
  8
1
 62
7
100
AcDbSpline
 70
8
 71
3
 72
8
 73
4
 74
0
 40
0
 40
0
 40
0
 40
0
 40
1
 40
1
 40
1
 40
1
 10
490.454090
 20
584.709400
 30
0.0
 10
497.459130
 20
584.709400
 30
0.0
 10
497.530210
 20
584.693500
 30
0.0
 10
497.948420
 20
583.027190
 30
0.0
  0
SPLINE
  5
470
100
AcDbEntity
  8
1
 62
7
100
AcDbSpline
 70
8
 71
3
 72
8
 73
4
 74
0
 40
0
 40
0
 40
0
 40
0
 40
1
 40
1
 40
1
 40
1
 10
497.948420
 20
583.027190
 30
0.0
 10
498.732770
 20
579.902090
 30
0.0
 10
500.425810
 20
579.376070
 30
0.0
 10
509.699950
 20
579.376070
 30
0.0
  0
SPLINE
  5
471
100
AcDbEntity
  8
1
 62
7
100
AcDbSpline
 70
8
 71
3
 72
8
 73
4
 74
0
 40
0
 40
0
 40
0
 40
0
 40
1
 40
1
 40
1
 40
1
 10
509.699950
 20
579.376070
 30
0.0
 10
521.163750
 20
579.376070
 30
0.0
 10
520.991700
 20
579.206900
 30
0.0
 10
520.738630
 20
590.229760
 30
0.0
  0
LWPOLYLINE
  5
472
100
AcDbEntity
  8
1
 62
7
100
AcDbPolyline
 90
3
 70
0
 10
483.690090
 20
581.502750
 30
0.0
 10
483.381970
 20
584.709400
 30
0.0
 10
490.454090
 20
584.709400
 30
0.0
  0
SPLINE
  5
473
100
AcDbEntity
  8
1
 62
7
100
AcDbSpline
 70
8
 71
3
 72
8
 73
4
 74
0
 40
0
 40
0
 40
0
 40
0
 40
1
 40
1
 40
1
 40
1
 10
508.884940
 20
598.731260
 30
0.0
 10
495.787040
 20
599.130020
 30
0.0
 10
493.708120
 20
599.680440
 30
0.0
 10
489.330000
 20
603.908620
 30
0.0
  0
SPLINE
  5
474
100
AcDbEntity
  8
1
 62
7
100
AcDbSpline
 70
8
 71
3
 72
8
 73
4
 74
0
 40
0
 40
0
 40
0
 40
0
 40
1
 40
1
 40
1
 40
1
 10
489.330000
 20
603.908620
 30
0.0
 10
484.248010
 20
608.816560
 30
0.0
 10
483.059290
 20
613.068170
 30
0.0
 10
483.366800
 20
625.236660
 30
0.0
  0
SPLINE
  5
475
100
AcDbEntity
  8
1
 62
7
100
AcDbSpline
 70
8
 71
3
 72
8
 73
4
 74
0
 40
0
 40
0
 40
0
 40
0
 40
1
 40
1
 40
1
 40
1
 10
483.366800
 20
625.236660
 30
0.0
 10
483.651070
 20
636.485020
 30
0.0
 10
484.802500
 20
639.979610
 30
0.0
 10
489.664900
 20
644.351320
 30
0.0
  0
SPLINE
  5
476
100
AcDbEntity
  8
1
 62
7
100
AcDbSpline
 70
8
 71
3
 72
8
 73
4
 74
0
 40
0
 40
0
 40
0
 40
0
 40
1
 40
1
 40
1
 40
1
 10
489.664900
 20
644.351320
 30
0.0
 10
494.655860
 20
648.838620
 30
0.0
 10
497.854190
 20
649.569610
 30
0.0
 10
511.119730
 20
649.254860
 30
0.0
  0
SPLINE
  5
477
100
AcDbEntity
  8
1
 62
7
100
AcDbSpline
 70
8
 71
3
 72
8
 73
4
 74
0
 40
0
 40
0
 40
0
 40
0
 40
1
 40
1
 40
1
 40
1
 10
511.119730
 20
649.254860
 30
0.0
 10
519.982590
 20
649.044580
 30
0.0
 10
522.297270
 20
648.780960
 30
0.0
 10
524.218280
 20
647.763080
 30
0.0
  0
SPLINE
  5
478
100
AcDbEntity
  8
1
 62
7
100
AcDbSpline
 70
8
 71
3
 72
8
 73
4
 74
0
 40
0
 40
0
 40
0
 40
0
 40
1
 40
1
 40
1
 40
1
 10
524.218280
 20
647.763080
 30
0.0
 10
528.651470
 20
645.414060
 30
0.0
 10
531.482630
 20
642.649970
 30
0.0
 10
533.349640
 20
638.848010
 30
0.0
  0
LWPOLYLINE
  5
479
100
AcDbEntity
  8
1
 62
7
100
AcDbPolyline
 90
3
 70
0
 10
520.738630
 20
590.229760
 30
0.0
 10
520.551610
 20
598.376070
 30
0.0
 10
508.884940
 20
598.731260
 30
0.0
  0
SPLINE
  5
47a
100
AcDbEntity
  8
1
 62
7
100
AcDbSpline
 70
8
 71
3
 72
8
 73
4
 74
0
 40
0
 40
0
 40
0
 40
0
 40
1
 40
1
 40
1
 40
1
 10
535.413870
 20
608.479510
 30
0.0
 10
535.640590
 20
577.688830
 30
0.0
 10
535.516320
 20
576.752710
 30
0.0
 10
530.488390
 20
571.377450
 30
0.0
  0
SPLINE
  5
47b
100
AcDbEntity
  8
1
 62
7
100
AcDbSpline
 70
8
 71
3
 72
8
 73
4
 74
0
 40
0
 40
0
 40
0
 40
0
 40
1
 40
1
 40
1
 40
1
 10
530.488390
 20
571.377450
 30
0.0
 10
525.775850
 20
566.339360
 30
0.0
 10
522.410320
 20
565.222160
 30
0.0
 10
511.218280
 20
564.980640
 30
0.0
  0
SPLINE
  5
47c
100
AcDbEntity
  8
1
 62
7
100
AcDbSpline
 70
8
 71
3
 72
8
 73
4
 74
0
 40
0
 40
0
 40
0
 40
0
 40
1
 40
1
 40
1
 40
1
 10
511.218280
 20
564.980640
 30
0.0
 10
506.084940
 20
564.869870
 30
0.0
 10
500.496450
 20
565.033440
 30
0.0
 10
498.799400
 20
565.344120
 30
0.0
  0
LWPOLYLINE
  5
47d
100
AcDbEntity
  8
1
 62
7
100
AcDbPolyline
 90
3
 70
0
 10
533.349640
 20
638.848010
 30
0.0
 10
535.218280
 20
635.042740
 30
0.0
 10
535.413870
 20
608.479510
 30
0.0
  0
SPLINE
  5
47e
100
AcDbEntity
  8
1
 62
7
100
AcDbSpline
 70
8
 71
3
 72
8
 73
4
 74
0
 40
0
 40
0
 40
0
 40
0
 40
1
 40
1
 40
1
 40
1
 10
524.041050
 20
568.888430
 30
0.0
 10
527.618220
 20
570.842210
 30
0.0
 10
530.679080
 20
574.415220
 30
0.0
 10
532.155030
 20
578.360050
 30
0.0
  0
SPLINE
  5
47f
100
AcDbEntity
  8
1
 62
7
100
AcDbSpline
 70
8
 71
3
 72
8
 73
4
 74
0
 40
0
 40
0
 40
0
 40
0
 40
1
 40
1
 40
1
 40
1
 10
532.155030
 20
578.360050
 30
0.0
 10
533.481140
 20
581.904390
 30
0.0
 10
533.551610
 20
583.349210
 30
0.0
 10
533.551610
 20
606.991190
 30
0.0
  0
SPLINE
  5
480
100
AcDbEntity
  8
1
 62
7
100
AcDbSpline
 70
8
 71
3
 72
8
 73
4
 74
0
 40
0
 40
0
 40
0
 40
0
 40
1
 40
1
 40
1
 40
1
 10
533.551610
 20
606.991190
 30
0.0
 10
533.551610
 20
628.312170
 30
0.0
 10
533.393500
 20
632.379170
 30
0.0
 10
532.451210
 20
635.296810
 30
0.0
  0
SPLINE
  5
481
100
AcDbEntity
  8
1
 62
7
100
AcDbSpline
 70
8
 71
3
 72
8
 73
4
 74
0
 40
0
 40
0
 40
0
 40
0
 40
1
 40
1
 40
1
 40
1
 10
532.451210
 20
635.296810
 30
0.0
 10
531.046010
 20
639.647760
 30
0.0
 10
527.741330
 20
643.502020
 30
0.0
 10
523.716500
 20
645.484130
 30
0.0
  0
SPLINE
  5
482
100
AcDbEntity
  8
1
 62
7
100
AcDbSpline
 70
8
 71
3
 72
8
 73
4
 74
0
 40
0
 40
0
 40
0
 40
0
 40
1
 40
1
 40
1
 40
1
 10
523.716500
 20
645.484130
 30
0.0
 10
520.798780
 20
646.921020
 30
0.0
 10
519.718590
 20
647.042740
 30
0.0
 10
509.884940
 20
647.042740
 30
0.0
  0
SPLINE
  5
483
100
AcDbEntity
  8
1
 62
7
100
AcDbSpline
 70
8
 71
3
 72
8
 73
4
 74
0
 40
0
 40
0
 40
0
 40
0
 40
1
 40
1
 40
1
 40
1
 10
509.884940
 20
647.042740
 30
0.0
 10
501.161790
 20
647.042740
 30
0.0
 10
498.644680
 20
646.821410
 30
0.0
 10
496.070200
 20
645.828030
 30
0.0
  0
SPLINE
  5
484
100
AcDbEntity
  8
1
 62
7
100
AcDbSpline
 70
8
 71
3
 72
8
 73
4
 74
0
 40
0
 40
0
 40
0
 40
0
 40
1
 40
1
 40
1
 40
1
 10
496.070200
 20
645.828030
 30
0.0
 10
492.318890
 20
644.380570
 30
0.0
 10
487.246650
 20
639.076520
 30
0.0
 10
486.173670
 20
635.479240
 30
0.0
  0
SPLINE
  5
485
100
AcDbEntity
  8
1
 62
7
100
AcDbSpline
 70
8
 71
3
 72
8
 73
4
 74
0
 40
0
 40
0
 40
0
 40
0
 40
1
 40
1
 40
1
 40
1
 10
486.173670
 20
635.479240
 30
0.0
 10
485.737390
 20
634.016540
 30
0.0
 10
485.534460
 20
628.888460
 30
0.0
 10
485.665940
 20
622.648520
 30
0.0
  0
LWPOLYLINE
  5
486
100
AcDbEntity
  8
1
 62
7
100
AcDbPolyline
 90
1
 70
1
 10
498.799400
 20
565.344120
 30
0.0
  0
SPLINE
  5
487
100
AcDbEntity
  8
1
 62
7
100
AcDbSpline
 70
8
 71
3
 72
8
 73
4
 74
0
 40
0
 40
0
 40
0
 40
0
 40
1
 40
1
 40
1
 40
1
 10
488.343430
 20
608.554630
 30
0.0
 10
490.301850
 20
605.607490
 30
0.0
 10
491.645650
 20
604.433340
 30
0.0
 10
494.949910
 20
602.782180
 30
0.0
  0
SPLINE
  5
488
100
AcDbEntity
  8
1
 62
7
100
AcDbSpline
 70
8
 71
3
 72
8
 73
4
 74
0
 40
0
 40
0
 40
0
 40
0
 40
1
 40
1
 40
1
 40
1
 10
494.949910
 20
602.782180
 30
0.0
 10
499.097660
 20
600.709530
 30
0.0
 10
499.098570
 20
600.709400
 30
0.0
 10
510.309390
 20
600.709400
 30
0.0
  0
SPLINE
  5
489
100
AcDbEntity
  8
1
 62
7
100
AcDbSpline
 70
8
 71
3
 72
8
 73
4
 74
0
 40
0
 40
0
 40
0
 40
0
 40
1
 40
1
 40
1
 40
1
 10
510.309390
 20
600.709400
 30
0.0
 10
524.383900
 20
600.709400
 30
0.0
 10
523.805250
 20
601.210330
 30
0.0
 10
523.454500
 20
589.329970
 30
0.0
  0
LWPOLYLINE
  5
48a
100
AcDbEntity
  8
1
 62
7
100
AcDbPolyline
 90
3
 70
0
 10
485.665940
 20
622.648520
 30
0.0
 10
485.884940
 20
612.254310
 30
0.0
 10
488.343430
 20
608.554630
 30
0.0
  0
SPLINE
  5
48b
100
AcDbEntity
  8
1
 62
7
100
AcDbSpline
 70
8
 71
3
 72
8
 73
4
 74
0
 40
0
 40
0
 40
0
 40
0
 40
1
 40
1
 40
1
 40
1
 10
509.374430
 20
577.390870
 30
0.0
 10
499.204000
 20
577.406770
 30
0.0
 10
498.047570
 20
577.743810
 30
0.0
 10
496.272850
 20
581.209380
 30
0.0
  0
SPLINE
  5
48c
100
AcDbEntity
  8
1
 62
7
100
AcDbSpline
 70
8
 71
3
 72
8
 73
4
 74
0
 40
0
 40
0
 40
0
 40
0
 40
1
 40
1
 40
1
 40
1
 10
496.272850
 20
581.209380
 30
0.0
 10
495.579980
 20
582.562380
 30
0.0
 10
495.016970
 20
582.709380
 30
0.0
 10
490.528160
 20
582.709380
 30
0.0
  0
SPLINE
  5
48d
100
AcDbEntity
  8
1
 62
7
100
AcDbSpline
 70
8
 71
3
 72
8
 73
4
 74
0
 40
0
 40
0
 40
0
 40
0
 40
1
 40
1
 40
1
 40
1
 10
490.528160
 20
582.709380
 30
0.0
 10
484.812660
 20
582.709380
 30
0.0
 10
484.640490
 20
582.453540
 30
0.0
 10
486.938890
 20
577.376050
 30
0.0
  0
SPLINE
  5
48e
100
AcDbEntity
  8
1
 62
7
100
AcDbSpline
 70
8
 71
3
 72
8
 73
4
 74
0
 40
0
 40
0
 40
0
 40
0
 40
1
 40
1
 40
1
 40
1
 10
486.938890
 20
577.376050
 30
0.0
 10
488.756010
 20
573.361750
 30
0.0
 10
491.200310
 20
570.870220
 30
0.0
 10
495.218280
 20
568.936630
 30
0.0
  0
SPLINE
  5
48f
100
AcDbEntity
  8
1
 62
7
100
AcDbSpline
 70
8
 71
3
 72
8
 73
4
 74
0
 40
0
 40
0
 40
0
 40
0
 40
1
 40
1
 40
1
 40
1
 10
495.218280
 20
568.936630
 30
0.0
 10
498.405640
 20
567.402770
 30
0.0
 10
499.062530
 20
567.340800
 30
0.0
 10
510.218280
 20
567.521650
 30
0.0
  0
SPLINE
  5
490
100
AcDbEntity
  8
1
 62
7
100
AcDbSpline
 70
8
 71
3
 72
8
 73
4
 74
0
 40
0
 40
0
 40
0
 40
0
 40
1
 40
1
 40
1
 40
1
 10
510.218280
 20
567.521650
 30
0.0
 10
519.865820
 20
567.678050
 30
0.0
 10
522.258100
 20
567.914600
 30
0.0
 10
524.041050
 20
568.888410
 30
0.0
  0
LWPOLYLINE
  5
491
100
AcDbEntity
  8
1
 62
7
100
AcDbPolyline
 90
5
 70
0
 10
523.454500
 20
589.329970
 30
0.0
 10
523.216390
 20
581.265020
 30
0.0
 10
521.040150
 20
579.320540
 30
0.0
 10
518.863910
 20
577.376070
 30
0.0
 10
509.374430
 20
577.390870
 30
0.0
  0
SPLINE
  5
492
100
AcDbEntity
  8
1
 62
7
100
AcDbSpline
 70
8
 71
3
 72
8
 73
4
 74
0
 40
0
 40
0
 40
0
 40
0
 40
1
 40
1
 40
1
 40
1
 10
499.884940
 20
611.339640
 30
0.0
 10
499.151610
 20
611.639790
 30
0.0
 10
497.951610
 20
612.551300
 30
0.0
 10
497.218280
 20
613.365220
 30
0.0
  0
SPLINE
  5
493
100
AcDbEntity
  8
1
 62
7
100
AcDbSpline
 70
8
 71
3
 72
8
 73
4
 74
0
 40
0
 40
0
 40
0
 40
0
 40
1
 40
1
 40
1
 40
1
 10
497.218280
 20
613.365220
 30
0.0
 10
496.057930
 20
614.653090
 30
0.0
 10
495.861020
 20
615.939060
 30
0.0
 10
495.700530
 20
623.277240
 30
0.0
  0
SPLINE
  5
494
100
AcDbEntity
  8
1
 62
7
100
AcDbSpline
 70
8
 71
3
 72
8
 73
4
 74
0
 40
0
 40
0
 40
0
 40
0
 40
1
 40
1
 40
1
 40
1
 10
495.700530
 20
623.277240
 30
0.0
 10
495.491360
 20
632.841570
 30
0.0
 10
495.948630
 20
634.377410
 30
0.0
 10
499.560890
 20
636.243070
 30
0.0
  0
SPLINE
  5
495
100
AcDbEntity
  8
1
 62
7
100
AcDbSpline
 70
8
 71
3
 72
8
 73
4
 74
0
 40
0
 40
0
 40
0
 40
0
 40
1
 40
1
 40
1
 40
1
 10
499.560890
 20
636.243070
 30
0.0
 10
501.514750
 20
637.252200
 30
0.0
 10
503.212360
 20
637.409070
 30
0.0
 10
510.218280
 20
637.227900
 30
0.0
  0
SPLINE
  5
496
100
AcDbEntity
  8
1
 62
7
100
AcDbSpline
 70
8
 71
3
 72
8
 73
4
 74
0
 40
0
 40
0
 40
0
 40
0
 40
1
 40
1
 40
1
 40
1
 10
510.218280
 20
637.227900
 30
0.0
 10
522.698420
 20
636.905160
 30
0.0
 10
523.551610
 20
635.947180
 30
0.0
 10
523.551610
 20
622.256990
 30
0.0
  0
SPLINE
  5
497
100
AcDbEntity
  8
1
 62
7
100
AcDbSpline
 70
8
 71
3
 72
8
 73
4
 74
0
 40
0
 40
0
 40
0
 40
0
 40
1
 40
1
 40
1
 40
1
 10
523.551610
 20
622.256990
 30
0.0
 10
523.551610
 20
610.159350
 30
0.0
 10
524.123370
 20
610.698360
 30
0.0
 10
511.347140
 20
610.751660
 30
0.0
  0
SPLINE
  5
498
100
AcDbEntity
  8
1
 62
7
100
AcDbSpline
 70
8
 71
3
 72
8
 73
4
 74
0
 40
0
 40
0
 40
0
 40
0
 40
1
 40
1
 40
1
 40
1
 10
511.347140
 20
610.751660
 30
0.0
 10
505.776270
 20
610.774860
 30
0.0
 10
500.618280
 20
611.039490
 30
0.0
 10
499.884940
 20
611.339640
 30
0.0
  0
LWPOLYLINE
  5
499
100
AcDbEntity
  8
1
 62
7
100
AcDbPolyline
 90
1
 70
1
 10
524.041050
 20
568.888410
 30
0.0
  0
SPLINE
  5
49a
100
AcDbEntity
  8
1
 62
7
100
AcDbSpline
 70
8
 71
3
 72
8
 73
4
 74
0
 40
0
 40
0
 40
0
 40
0
 40
1
 40
1
 40
1
 40
1
 10
519.718280
 20
613.130930
 30
0.0
 10
520.757540
 20
613.429340
 30
0.0
 10
520.884940
 20
614.480290
 30
0.0
 10
520.884940
 20
622.754330
 30
0.0
  0
SPLINE
  5
49b
100
AcDbEntity
  8
1
 62
7
100
AcDbSpline
 70
8
 71
3
 72
8
 73
4
 74
0
 40
0
 40
0
 40
0
 40
0
 40
1
 40
1
 40
1
 40
1
 10
520.884940
 20
622.754330
 30
0.0
 10
520.884940
 20
635.126240
 30
0.0
 10
521.290030
 20
634.709400
 30
0.0
 10
509.266660
 20
634.709400
 30
0.0
  0
SPLINE
  5
49c
100
AcDbEntity
  8
1
 62
7
100
AcDbSpline
 70
8
 71
3
 72
8
 73
4
 74
0
 40
0
 40
0
 40
0
 40
0
 40
1
 40
1
 40
1
 40
1
 10
509.266660
 20
634.709400
 30
0.0
 10
500.390140
 20
634.709400
 30
0.0
 10
500.303460
 20
634.694700
 30
0.0
 10
498.933330
 20
632.952830
 30
0.0
  0
SPLINE
  5
49d
100
AcDbEntity
  8
1
 62
7
100
AcDbSpline
 70
8
 71
3
 72
8
 73
4
 74
0
 40
0
 40
0
 40
0
 40
0
 40
1
 40
1
 40
1
 40
1
 10
498.933330
 20
632.952830
 30
0.0
 10
497.738250
 20
631.433530
 30
0.0
 10
497.551610
 20
630.267090
 30
0.0
 10
497.551610
 20
624.317530
 30
0.0
  0
SPLINE
  5
49e
100
AcDbEntity
  8
1
 62
7
100
AcDbSpline
 70
8
 71
3
 72
8
 73
4
 74
0
 40
0
 40
0
 40
0
 40
0
 40
1
 40
1
 40
1
 40
1
 10
497.551610
 20
624.317530
 30
0.0
 10
497.551610
 20
616.364430
 30
0.0
 10
498.255340
 20
614.251270
 30
0.0
 10
501.163100
 20
613.473020
 30
0.0
  0
SPLINE
  5
49f
100
AcDbEntity
  8
1
 62
7
100
AcDbSpline
 70
8
 71
3
 72
8
 73
4
 74
0
 40
0
 40
0
 40
0
 40
0
 40
1
 40
1
 40
1
 40
1
 10
501.163100
 20
613.473020
 30
0.0
 10
503.431670
 20
612.865840
 30
0.0
 10
517.868150
 20
612.599680
 30
0.0
 10
519.718280
 20
613.130930
 30
0.0
  0
LWPOLYLINE
  5
4a0
100
AcDbEntity
  8
1
 62
7
100
AcDbPolyline
 90
1
 70
1
 10
499.884940
 20
611.339640
 30
0.0
  0
SPLINE
  5
4a1
100
AcDbEntity
  8
1
 62
7
100
AcDbSpline
 70
8
 71
3
 72
8
 73
4
 74
0
 40
0
 40
0
 40
0
 40
0
 40
1
 40
1
 40
1
 40
1
 10
436.982790
 20
565.382930
 30
0.0
 10
431.237700
 20
566.597960
 30
0.0
 10
425.585380
 20
571.140800
 30
0.0
 10
423.066590
 20
576.567560
 30
0.0
  0
SPLINE
  5
4a2
100
AcDbEntity
  8
1
 62
7
100
AcDbSpline
 70
8
 71
3
 72
8
 73
4
 74
0
 40
0
 40
0
 40
0
 40
0
 40
1
 40
1
 40
1
 40
1
 10
423.066590
 20
576.567560
 30
0.0
 10
422.119710
 20
578.607630
 30
0.0
 10
421.914870
 20
581.093610
 30
0.0
 10
421.901350
 20
590.709400
 30
0.0
  0
SPLINE
  5
4a3
100
AcDbEntity
  8
1
 62
7
100
AcDbSpline
 70
8
 71
3
 72
8
 73
4
 74
0
 40
0
 40
0
 40
0
 40
0
 40
1
 40
1
 40
1
 40
1
 10
421.901350
 20
590.709400
 30
0.0
 10
421.885250
 20
602.183240
 30
0.0
 10
421.915850
 20
602.437010
 30
0.0
 10
423.753200
 20
606.062960
 30
0.0
  0
LWPOLYLINE
  5
4a4
100
AcDbEntity
  8
1
 62
7
100
AcDbPolyline
 90
1
 70
1
 10
519.718280
 20
613.130930
 30
0.0
  0
SPLINE
  5
4a5
100
AcDbEntity
  8
1
 62
7
100
AcDbSpline
 70
8
 71
3
 72
8
 73
4
 74
0
 40
0
 40
0
 40
0
 40
0
 40
1
 40
1
 40
1
 40
1
 10
423.753200
 20
613.062960
 30
0.0
 10
421.953370
 20
616.254730
 30
0.0
 10
421.884940
 20
616.717910
 30
0.0
 10
421.884940
 20
625.709400
 30
0.0
  0
SPLINE
  5
4a6
100
AcDbEntity
  8
1
 62
7
100
AcDbSpline
 70
8
 71
3
 72
8
 73
4
 74
0
 40
0
 40
0
 40
0
 40
0
 40
1
 40
1
 40
1
 40
1
 10
421.884940
 20
625.709400
 30
0.0
 10
421.884940
 20
636.366550
 30
0.0
 10
422.691900
 20
639.058240
 30
0.0
 10
427.227980
 20
643.531720
 30
0.0
  0
SPLINE
  5
4a7
100
AcDbEntity
  8
1
 62
7
100
AcDbSpline
 70
8
 71
3
 72
8
 73
4
 74
0
 40
0
 40
0
 40
0
 40
0
 40
1
 40
1
 40
1
 40
1
 10
427.227980
 20
643.531720
 30
0.0
 10
432.281610
 20
648.515600
 30
0.0
 10
434.289350
 20
649.042740
 30
0.0
 10
448.218280
 20
649.042740
 30
0.0
  0
SPLINE
  5
4a8
100
AcDbEntity
  8
1
 62
7
100
AcDbSpline
 70
8
 71
3
 72
8
 73
4
 74
0
 40
0
 40
0
 40
0
 40
0
 40
1
 40
1
 40
1
 40
1
 10
448.218280
 20
649.042740
 30
0.0
 10
458.852740
 20
649.042740
 30
0.0
 10
460.855550
 20
648.876840
 30
0.0
 10
462.758100
 20
647.838360
 30
0.0
  0
SPLINE
  5
4a9
100
AcDbEntity
  8
1
 62
7
100
AcDbSpline
 70
8
 71
3
 72
8
 73
4
 74
0
 40
0
 40
0
 40
0
 40
0
 40
1
 40
1
 40
1
 40
1
 10
462.758100
 20
647.838360
 30
0.0
 10
466.393220
 20
645.854180
 30
0.0
 10
470.211350
 20
642.003870
 30
0.0
 10
472.099350
 20
638.418370
 30
0.0
  0
SPLINE
  5
4aa
100
AcDbEntity
  8
1
 62
7
100
AcDbSpline
 70
8
 71
3
 72
8
 73
4
 74
0
 40
0
 40
0
 40
0
 40
0
 40
1
 40
1
 40
1
 40
1
 10
472.099350
 20
638.418370
 30
0.0
 10
473.769630
 20
635.246350
 30
0.0
 10
473.877100
 20
634.499860
 30
0.0
 10
473.880900
 20
626.042740
 30
0.0
  0
SPLINE
  5
4ab
100
AcDbEntity
  8
1
 62
7
100
AcDbSpline
 70
8
 71
3
 72
8
 73
4
 74
0
 40
0
 40
0
 40
0
 40
0
 40
1
 40
1
 40
1
 40
1
 10
473.880900
 20
626.042740
 30
0.0
 10
473.884900
 20
617.564290
 30
0.0
 10
473.778430
 20
616.825850
 30
0.0
 10
472.046960
 20
613.300120
 30
0.0
  0
LWPOLYLINE
  5
4ac
100
AcDbEntity
  8
1
 62
7
100
AcDbPolyline
 90
3
 70
0
 10
423.753200
 20
606.062960
 30
0.0
 10
425.621450
 20
609.749850
 30
0.0
 10
423.753200
 20
613.062960
 30
0.0
  0
SPLINE
  5
4ad
100
AcDbEntity
  8
1
 62
7
100
AcDbSpline
 70
8
 71
3
 72
8
 73
4
 74
0
 40
0
 40
0
 40
0
 40
0
 40
1
 40
1
 40
1
 40
1
 10
472.046960
 20
605.633450
 30
0.0
 10
473.820350
 20
601.847310
 30
0.0
 10
473.884940
 20
601.322830
 30
0.0
 10
473.884940
 20
590.709400
 30
0.0
  0
SPLINE
  5
4ae
100
AcDbEntity
  8
1
 62
7
100
AcDbSpline
 70
8
 71
3
 72
8
 73
4
 74
0
 40
0
 40
0
 40
0
 40
0
 40
1
 40
1
 40
1
 40
1
 10
473.884940
 20
590.709400
 30
0.0
 10
473.884940
 20
580.020580
 30
0.0
 10
473.832340
 20
579.602250
 30
0.0
 10
472.024890
 20
575.921670
 30
0.0
  0
SPLINE
  5
4af
100
AcDbEntity
  8
1
 62
7
100
AcDbSpline
 70
8
 71
3
 72
8
 73
4
 74
0
 40
0
 40
0
 40
0
 40
0
 40
1
 40
1
 40
1
 40
1
 10
472.024890
 20
575.921670
 30
0.0
 10
469.899390
 20
571.593410
 30
0.0
 10
466.633810
 20
568.447290
 30
0.0
 10
462.252150
 20
566.506420
 30
0.0
  0
SPLINE
  5
4b0
100
AcDbEntity
  8
1
 62
7
100
AcDbSpline
 70
8
 71
3
 72
8
 73
4
 74
0
 40
0
 40
0
 40
0
 40
0
 40
1
 40
1
 40
1
 40
1
 10
462.252150
 20
566.506420
 30
0.0
 10
459.756350
 20
565.400910
 30
0.0
 10
457.503850
 20
565.127680
 30
0.0
 10
449.551610
 20
564.965860
 30
0.0
  0
SPLINE
  5
4b1
100
AcDbEntity
  8
1
 62
7
100
AcDbSpline
 70
8
 71
3
 72
8
 73
4
 74
0
 40
0
 40
0
 40
0
 40
0
 40
1
 40
1
 40
1
 40
1
 10
449.551610
 20
564.965860
 30
0.0
 10
444.234940
 20
564.857670
 30
0.0
 10
438.578970
 20
565.045360
 30
0.0
 10
436.982790
 20
565.382930
 30
0.0
  0
LWPOLYLINE
  5
4b2
100
AcDbEntity
  8
1
 62
7
100
AcDbPolyline
 90
3
 70
0
 10
472.046960
 20
613.300120
 30
0.0
 10
470.208980
 20
609.557500
 30
0.0
 10
472.046960
 20
605.633450
 30
0.0
  0
SPLINE
  5
4b3
100
AcDbEntity
  8
1
 62
7
100
AcDbSpline
 70
8
 71
3
 72
8
 73
4
 74
0
 40
0
 40
0
 40
0
 40
0
 40
1
 40
1
 40
1
 40
1
 10
460.347050
 20
568.160080
 30
0.0
 10
463.782160
 20
569.189270
 30
0.0
 10
468.423320
 20
573.334850
 30
0.0
 10
470.162440
 20
576.927400
 30
0.0
  0
SPLINE
  5
4b4
100
AcDbEntity
  8
1
 62
7
100
AcDbSpline
 70
8
 71
3
 72
8
 73
4
 74
0
 40
0
 40
0
 40
0
 40
0
 40
1
 40
1
 40
1
 40
1
 10
470.162440
 20
576.927400
 30
0.0
 10
471.398300
 20
579.480350
 30
0.0
 10
471.551610
 20
581.012070
 30
0.0
 10
471.551610
 20
590.806900
 30
0.0
  0
SPLINE
  5
4b5
100
AcDbEntity
  8
1
 62
7
100
AcDbSpline
 70
8
 71
3
 72
8
 73
4
 74
0
 40
0
 40
0
 40
0
 40
0
 40
1
 40
1
 40
1
 40
1
 10
471.551610
 20
590.806900
 30
0.0
 10
471.551610
 20
601.225350
 30
0.0
 10
471.462210
 20
601.992940
 30
0.0
 10
469.887730
 20
605.096420
 30
0.0
  0
SPLINE
  5
4b6
100
AcDbEntity
  8
1
 62
7
100
AcDbSpline
 70
8
 71
3
 72
8
 73
4
 74
0
 40
0
 40
0
 40
0
 40
0
 40
1
 40
1
 40
1
 40
1
 10
469.887730
 20
605.096420
 30
0.0
 10
467.838690
 20
609.135270
 30
0.0
 10
467.815900
 20
610.238330
 30
0.0
 10
469.718280
 20
613.297380
 30
0.0
  0
SPLINE
  5
4b7
100
AcDbEntity
  8
1
 62
7
100
AcDbSpline
 70
8
 71
3
 72
8
 73
4
 74
0
 40
0
 40
0
 40
0
 40
0
 40
1
 40
1
 40
1
 40
1
 10
469.718280
 20
613.297380
 30
0.0
 10
471.037980
 20
615.419480
 30
0.0
 10
471.246350
 20
616.778610
 30
0.0
 10
471.451850
 20
624.604710
 30
0.0
  0
SPLINE
  5
4b8
100
AcDbEntity
  8
1
 62
7
100
AcDbSpline
 70
8
 71
3
 72
8
 73
4
 74
0
 40
0
 40
0
 40
0
 40
0
 40
1
 40
1
 40
1
 40
1
 10
471.451850
 20
624.604710
 30
0.0
 10
471.722540
 20
634.913620
 30
0.0
 10
471.046490
 20
637.535810
 30
0.0
 10
467.053400
 20
641.664970
 30
0.0
  0
SPLINE
  5
4b9
100
AcDbEntity
  8
1
 62
7
100
AcDbSpline
 70
8
 71
3
 72
8
 73
4
 74
0
 40
0
 40
0
 40
0
 40
0
 40
1
 40
1
 40
1
 40
1
 10
467.053400
 20
641.664970
 30
0.0
 10
462.923560
 20
645.935540
 30
0.0
 10
459.860990
 20
646.929440
 30
0.0
 10
449.853780
 20
647.246780
 30
0.0
  0
SPLINE
  5
4ba
100
AcDbEntity
  8
1
 62
7
100
AcDbSpline
 70
8
 71
3
 72
8
 73
4
 74
0
 40
0
 40
0
 40
0
 40
0
 40
1
 40
1
 40
1
 40
1
 10
449.853780
 20
647.246780
 30
0.0
 10
435.604400
 20
647.698630
 30
0.0
 10
429.564730
 20
645.290310
 30
0.0
 10
425.836360
 20
637.669790
 30
0.0
  0
SPLINE
  5
4bb
100
AcDbEntity
  8
1
 62
7
100
AcDbSpline
 70
8
 71
3
 72
8
 73
4
 74
0
 40
0
 40
0
 40
0
 40
0
 40
1
 40
1
 40
1
 40
1
 10
425.836360
 20
637.669790
 30
0.0
 10
424.183140
 20
634.290740
 30
0.0
 10
424.057630
 20
633.435230
 30
0.0
 10
424.146490
 20
626.151250
 30
0.0
  0
SPLINE
  5
4bc
100
AcDbEntity
  8
1
 62
7
100
AcDbSpline
 70
8
 71
3
 72
8
 73
4
 74
0
 40
0
 40
0
 40
0
 40
0
 40
1
 40
1
 40
1
 40
1
 10
424.146490
 20
626.151250
 30
0.0
 10
424.246090
 20
617.987600
 30
0.0
 10
424.575130
 20
616.059010
 30
0.0
 10
426.576060
 20
611.911110
 30
0.0
  0
SPLINE
  5
4bd
100
AcDbEntity
  8
1
 62
7
100
AcDbSpline
 70
8
 71
3
 72
8
 73
4
 74
0
 40
0
 40
0
 40
0
 40
0
 40
1
 40
1
 40
1
 40
1
 10
426.576060
 20
611.911110
 30
0.0
 10
427.760520
 20
609.455730
 30
0.0
 10
427.757610
 20
609.429820
 30
0.0
 10
425.826970
 20
605.244440
 30
0.0
  0
SPLINE
  5
4be
100
AcDbEntity
  8
1
 62
7
100
AcDbSpline
 70
8
 71
3
 72
8
 73
4
 74
0
 40
0
 40
0
 40
0
 40
0
 40
1
 40
1
 40
1
 40
1
 10
425.826970
 20
605.244440
 30
0.0
 10
423.949840
 20
601.175080
 30
0.0
 10
423.890090
 20
600.725250
 30
0.0
 10
423.929870
 20
590.962740
 30
0.0
  0
SPLINE
  5
4bf
100
AcDbEntity
  8
1
 62
7
100
AcDbSpline
 70
8
 71
3
 72
8
 73
4
 74
0
 40
0
 40
0
 40
0
 40
0
 40
1
 40
1
 40
1
 40
1
 10
423.929870
 20
590.962740
 30
0.0
 10
423.961570
 20
583.182420
 30
0.0
 10
424.228070
 20
580.209440
 30
0.0
 10
425.098010
 20
577.931530
 30
0.0
  0
SPLINE
  5
4c0
100
AcDbEntity
  8
1
 62
7
100
AcDbSpline
 70
8
 71
3
 72
8
 73
4
 74
0
 40
0
 40
0
 40
0
 40
0
 40
1
 40
1
 40
1
 40
1
 10
425.098010
 20
577.931530
 30
0.0
 10
426.494160
 20
574.275780
 30
0.0
 10
431.015630
 20
569.739930
 30
0.0
 10
434.554700
 20
568.444780
 30
0.0
  0
SPLINE
  5
4c1
100
AcDbEntity
  8
1
 62
7
100
AcDbSpline
 70
8
 71
3
 72
8
 73
4
 74
0
 40
0
 40
0
 40
0
 40
0
 40
1
 40
1
 40
1
 40
1
 10
434.554700
 20
568.444780
 30
0.0
 10
437.932610
 20
567.208600
 30
0.0
 10
456.487690
 20
567.003790
 30
0.0
 10
460.347050
 20
568.160080
 30
0.0
  0
LWPOLYLINE
  5
4c2
100
AcDbEntity
  8
1
 62
7
100
AcDbPolyline
 90
1
 70
1
 10
436.982790
 20
565.382930
 30
0.0
  0
LWPOLYLINE
  5
4c3
100
AcDbEntity
  8
1
 62
7
100
AcDbPolyline
 90
1
 70
1
 10
460.347050
 20
568.160080
 30
0.0
  0
SPLINE
  5
4c4
100
AcDbEntity
  8
1
 62
7
100
AcDbSpline
 70
8
 71
3
 72
8
 73
4
 74
0
 40
0
 40
0
 40
0
 40
0
 40
1
 40
1
 40
1
 40
1
 10
461.433070
 20
590.252360
 30
0.0
 10
461.218600
 20
580.605050
 30
0.0
 10
461.215510
 20
580.588360
 30
0.0
 10
459.347770
 20
578.983410
 30
0.0
  0
SPLINE
  5
4c5
100
AcDbEntity
  8
1
 62
7
100
AcDbSpline
 70
8
 71
3
 72
8
 73
4
 74
0
 40
0
 40
0
 40
0
 40
0
 40
1
 40
1
 40
1
 40
1
 10
459.347770
 20
578.983410
 30
0.0
 10
457.556780
 20
577.444400
 30
0.0
 10
457.065690
 20
577.376070
 30
0.0
 10
447.796490
 20
577.376070
 30
0.0
  0
LWPOLYLINE
  5
4c6
100
AcDbEntity
  8
1
 62
7
100
AcDbPolyline
 90
11
 70
0
 10
436.166990
 20
579.324790
 30
0.0
 10
434.218280
 20
581.273510
 30
0.0
 10
434.218280
 20
590.647600
 30
0.0
 10
434.218280
 20
600.021700
 30
0.0
 10
436.164330
 20
602.198890
 30
0.0
 10
438.110370
 20
604.376070
 30
0.0
 10
447.886080
 20
604.376070
 30
0.0
 10
457.661790
 20
604.376070
 30
0.0
 10
459.654830
 20
602.145020
 30
0.0
 10
461.647860
 20
599.913980
 30
0.0
 10
461.433070
 20
590.252360
 30
0.0
  0
SPLINE
  5
4c7
100
AcDbEntity
  8
1
 62
7
100
AcDbSpline
 70
8
 71
3
 72
8
 73
4
 74
0
 40
0
 40
0
 40
0
 40
0
 40
1
 40
1
 40
1
 40
1
 10
457.915250
 20
581.012430
 30
0.0
 10
459.474240
 20
582.571420
 30
0.0
 10
459.551610
 20
583.034350
 30
0.0
 10
459.551610
 20
590.802800
 30
0.0
  0
SPLINE
  5
4c8
100
AcDbEntity
  8
1
 62
7
100
AcDbSpline
 70
8
 71
3
 72
8
 73
4
 74
0
 40
0
 40
0
 40
0
 40
0
 40
1
 40
1
 40
1
 40
1
 10
459.551610
 20
590.802800
 30
0.0
 10
459.551610
 20
598.257170
 30
0.0
 10
459.427240
 20
599.089190
 30
0.0
 10
458.102070
 20
600.499770
 30
0.0
  0
SPLINE
  5
4c9
100
AcDbEntity
  8
1
 62
7
100
AcDbSpline
 70
8
 71
3
 72
8
 73
4
 74
0
 40
0
 40
0
 40
0
 40
0
 40
1
 40
1
 40
1
 40
1
 10
458.102070
 20
600.499770
 30
0.0
 10
456.727520
 20
601.962900
 30
0.0
 10
456.192880
 20
602.042740
 30
0.0
 10
447.768730
 20
602.042740
 30
0.0
  0
SPLINE
  5
4ca
100
AcDbEntity
  8
1
 62
7
100
AcDbSpline
 70
8
 71
3
 72
8
 73
4
 74
0
 40
0
 40
0
 40
0
 40
0
 40
1
 40
1
 40
1
 40
1
 10
447.768730
 20
602.042740
 30
0.0
 10
435.904540
 20
602.042740
 30
0.0
 10
436.218280
 20
602.349260
 30
0.0
 10
436.218280
 20
590.757790
 30
0.0
  0
SPLINE
  5
4cb
100
AcDbEntity
  8
1
 62
7
100
AcDbSpline
 70
8
 71
3
 72
8
 73
4
 74
0
 40
0
 40
0
 40
0
 40
0
 40
1
 40
1
 40
1
 40
1
 10
436.218280
 20
590.757790
 30
0.0
 10
436.218280
 20
582.241380
 30
0.0
 10
436.239080
 20
582.123180
 30
0.0
 10
437.974850
 20
580.757790
 30
0.0
  0
SPLINE
  5
4cc
100
AcDbEntity
  8
1
 62
7
100
AcDbSpline
 70
8
 71
3
 72
8
 73
4
 74
0
 40
0
 40
0
 40
0
 40
0
 40
1
 40
1
 40
1
 40
1
 10
437.974850
 20
580.757790
 30
0.0
 10
439.537610
 20
579.528520
 30
0.0
 10
440.644310
 20
579.376070
 30
0.0
 10
448.005150
 20
579.376070
 30
0.0
  0
SPLINE
  5
4cd
100
AcDbEntity
  8
1
 62
7
100
AcDbSpline
 70
8
 71
3
 72
8
 73
4
 74
0
 40
0
 40
0
 40
0
 40
0
 40
1
 40
1
 40
1
 40
1
 10
448.005150
 20
579.376070
 30
0.0
 10
455.900720
 20
579.376070
 30
0.0
 10
456.353680
 20
579.450870
 30
0.0
 10
457.915250
 20
581.012430
 30
0.0
  0
LWPOLYLINE
  5
4ce
100
AcDbEntity
  8
1
 62
7
100
AcDbPolyline
 90
3
 70
0
 10
447.796490
 20
577.376070
 30
0.0
 10
438.115710
 20
577.376070
 30
0.0
 10
436.166990
 20
579.324790
 30
0.0
  0
SPLINE
  5
4cf
100
AcDbEntity
  8
1
 62
7
100
AcDbSpline
 70
8
 71
3
 72
8
 73
4
 74
0
 40
0
 40
0
 40
0
 40
0
 40
1
 40
1
 40
1
 40
1
 10
437.789610
 20
615.345750
 30
0.0
 10
434.892440
 20
616.565000
 30
0.0
 10
434.218280
 20
618.547380
 30
0.0
 10
434.218280
 20
625.847220
 30
0.0
  0
SPLINE
  5
4d0
100
AcDbEntity
  8
1
 62
7
100
AcDbSpline
 70
8
 71
3
 72
8
 73
4
 74
0
 40
0
 40
0
 40
0
 40
0
 40
1
 40
1
 40
1
 40
1
 10
434.218280
 20
625.847220
 30
0.0
 10
434.218280
 20
632.463670
 30
0.0
 10
434.282180
 20
632.759880
 30
0.0
 10
436.163380
 20
634.865550
 30
0.0
  0
LWPOLYLINE
  5
4d1
100
AcDbEntity
  8
1
 62
7
100
AcDbPolyline
 90
1
 70
1
 10
457.915250
 20
581.012430
 30
0.0
  0
SPLINE
  5
4d2
100
AcDbEntity
  8
1
 62
7
100
AcDbSpline
 70
8
 71
3
 72
8
 73
4
 74
0
 40
0
 40
0
 40
0
 40
0
 40
1
 40
1
 40
1
 40
1
 10
446.362880
 20
637.274270
 30
0.0
 10
460.034560
 20
637.657760
 30
0.0
 10
461.808870
 20
636.223680
 30
0.0
 10
461.446300
 20
625.083110
 30
0.0
  0
SPLINE
  5
4d3
100
AcDbEntity
  8
1
 62
7
100
AcDbSpline
 70
8
 71
3
 72
8
 73
4
 74
0
 40
0
 40
0
 40
0
 40
0
 40
1
 40
1
 40
1
 40
1
 10
461.446300
 20
625.083110
 30
0.0
 10
461.121430
 20
615.100840
 30
0.0
 10
461.106210
 20
615.088670
 30
0.0
 10
448.701650
 20
614.893620
 30
0.0
  0
SPLINE
  5
4d4
100
AcDbEntity
  8
1
 62
7
100
AcDbSpline
 70
8
 71
3
 72
8
 73
4
 74
0
 40
0
 40
0
 40
0
 40
0
 40
1
 40
1
 40
1
 40
1
 10
448.701650
 20
614.893620
 30
0.0
 10
443.485790
 20
614.811620
 30
0.0
 10
438.575380
 20
615.015070
 30
0.0
 10
437.789610
 20
615.345750
 30
0.0
  0
LWPOLYLINE
  5
4d5
100
AcDbEntity
  8
1
 62
7
100
AcDbPolyline
 90
3
 70
0
 10
436.163380
 20
634.865550
 30
0.0
 10
438.108480
 20
637.042740
 30
0.0
 10
446.362880
 20
637.274270
 30
0.0
  0
SPLINE
  5
4d6
100
AcDbEntity
  8
1
 62
7
100
AcDbSpline
 70
8
 71
3
 72
8
 73
4
 74
0
 40
0
 40
0
 40
0
 40
0
 40
1
 40
1
 40
1
 40
1
 10
457.915250
 20
618.345770
 30
0.0
 10
459.402730
 20
619.833250
 30
0.0
 10
459.551610
 20
620.511720
 30
0.0
 10
459.551610
 20
625.802800
 30
0.0
  0
SPLINE
  5
4d7
100
AcDbEntity
  8
1
 62
7
100
AcDbSpline
 70
8
 71
3
 72
8
 73
4
 74
0
 40
0
 40
0
 40
0
 40
0
 40
1
 40
1
 40
1
 40
1
 10
459.551610
 20
625.802800
 30
0.0
 10
459.551610
 20
630.861480
 30
0.0
 10
459.361850
 20
631.825460
 30
0.0
 10
458.102070
 20
633.166440
 30
0.0
  0
SPLINE
  5
4d8
100
AcDbEntity
  8
1
 62
7
100
AcDbSpline
 70
8
 71
3
 72
8
 73
4
 74
0
 40
0
 40
0
 40
0
 40
0
 40
1
 40
1
 40
1
 40
1
 10
458.102070
 20
633.166440
 30
0.0
 10
456.727520
 20
634.629570
 30
0.0
 10
456.192880
 20
634.709400
 30
0.0
 10
447.768730
 20
634.709400
 30
0.0
  0
SPLINE
  5
4d9
100
AcDbEntity
  8
1
 62
7
100
AcDbSpline
 70
8
 71
3
 72
8
 73
4
 74
0
 40
0
 40
0
 40
0
 40
0
 40
1
 40
1
 40
1
 40
1
 10
447.768730
 20
634.709400
 30
0.0
 10
436.274400
 20
634.709400
 30
0.0
 10
436.218280
 20
634.665900
 30
0.0
 10
436.218280
 20
625.757790
 30
0.0
  0
SPLINE
  5
4da
100
AcDbEntity
  8
1
 62
7
100
AcDbSpline
 70
8
 71
3
 72
8
 73
4
 74
0
 40
0
 40
0
 40
0
 40
0
 40
1
 40
1
 40
1
 40
1
 10
436.218280
 20
625.757790
 30
0.0
 10
436.218280
 20
619.762110
 30
0.0
 10
436.299080
 20
619.409250
 30
0.0
 10
437.974850
 20
618.091120
 30
0.0
  0
SPLINE
  5
4db
100
AcDbEntity
  8
1
 62
7
100
AcDbSpline
 70
8
 71
3
 72
8
 73
4
 74
0
 40
0
 40
0
 40
0
 40
0
 40
1
 40
1
 40
1
 40
1
 10
437.974850
 20
618.091120
 30
0.0
 10
439.537610
 20
616.861860
 30
0.0
 10
440.644310
 20
616.709400
 30
0.0
 10
448.005150
 20
616.709400
 30
0.0
  0
SPLINE
  5
4dc
100
AcDbEntity
  8
1
 62
7
100
AcDbSpline
 70
8
 71
3
 72
8
 73
4
 74
0
 40
0
 40
0
 40
0
 40
0
 40
1
 40
1
 40
1
 40
1
 10
448.005150
 20
616.709400
 30
0.0
 10
455.900720
 20
616.709400
 30
0.0
 10
456.353680
 20
616.784200
 30
0.0
 10
457.915250
 20
618.345770
 30
0.0
  0
LWPOLYLINE
  5
4dd
100
AcDbEntity
  8
1
 62
7
100
AcDbPolyline
 90
1
 70
1
 10
437.789610
 20
615.345750
 30
0.0
  0
SPLINE
  5
4de
100
AcDbEntity
  8
1
 62
7
100
AcDbSpline
 70
8
 71
3
 72
8
 73
4
 74
0
 40
0
 40
0
 40
0
 40
0
 40
1
 40
1
 40
1
 40
1
 10
376.384940
 20
565.150920
 30
0.0
 10
375.054370
 20
565.687820
 30
0.0
 10
375.379550
 20
567.490600
 30
0.0
 10
378.252890
 20
575.506680
 30
0.0
  0
SPLINE
  5
4df
100
AcDbEntity
  8
1
 62
7
100
AcDbSpline
 70
8
 71
3
 72
8
 73
4
 74
0
 40
0
 40
0
 40
0
 40
0
 40
1
 40
1
 40
1
 40
1
 10
378.252890
 20
575.506680
 30
0.0
 10
381.093810
 20
583.432320
 30
0.0
 10
387.357430
 20
601.194280
 30
0.0
 10
394.162420
 20
620.621810
 30
0.0
  0
SPLINE
  5
4e0
100
AcDbEntity
  8
1
 62
7
100
AcDbSpline
 70
8
 71
3
 72
8
 73
4
 74
0
 40
0
 40
0
 40
0
 40
0
 40
1
 40
1
 40
1
 40
1
 10
394.162420
 20
620.621810
 30
0.0
 10
396.393140
 20
626.990310
 30
0.0
 10
398.218280
 20
632.773120
 30
0.0
 10
398.218280
 20
633.472510
 30
0.0
  0
SPLINE
  5
4e1
100
AcDbEntity
  8
1
 62
7
100
AcDbSpline
 70
8
 71
3
 72
8
 73
4
 74
0
 40
0
 40
0
 40
0
 40
0
 40
1
 40
1
 40
1
 40
1
 10
398.218280
 20
633.472510
 30
0.0
 10
398.218280
 20
634.676020
 30
0.0
 10
397.673680
 20
634.734270
 30
0.0
 10
388.051610
 20
634.560100
 30
0.0
  0
LWPOLYLINE
  5
4e2
100
AcDbEntity
  8
1
 62
7
100
AcDbPolyline
 90
1
 70
1
 10
457.915250
 20
618.345770
 30
0.0
  0
SPLINE
  5
4e3
100
AcDbEntity
  8
1
 62
7
100
AcDbSpline
 70
8
 71
3
 72
8
 73
4
 74
0
 40
0
 40
0
 40
0
 40
0
 40
1
 40
1
 40
1
 40
1
 10
388.509930
 20
649.217750
 30
0.0
 10
402.053680
 20
649.313950
 30
0.0
 10
413.396680
 20
649.131050
 30
0.0
 10
413.716600
 20
648.811080
 30
0.0
  0
SPLINE
  5
4e4
100
AcDbEntity
  8
1
 62
7
100
AcDbSpline
 70
8
 71
3
 72
8
 73
4
 74
0
 40
0
 40
0
 40
0
 40
0
 40
1
 40
1
 40
1
 40
1
 10
413.716600
 20
648.811080
 30
0.0
 10
414.036520
 20
648.491160
 30
0.0
 10
414.298280
 20
644.936390
 30
0.0
 10
414.298280
 20
640.911590
 30
0.0
  0
SPLINE
  5
4e5
100
AcDbEntity
  8
1
 62
7
100
AcDbSpline
 70
8
 71
3
 72
8
 73
4
 74
0
 40
0
 40
0
 40
0
 40
0
 40
1
 40
1
 40
1
 40
1
 10
414.298280
 20
640.911590
 30
0.0
 10
414.298280
 20
632.956190
 30
0.0
 10
414.758650
 20
634.687440
 30
0.0
 10
406.355540
 20
611.042740
 30
0.0
  0
SPLINE
  5
4e6
100
AcDbEntity
  8
1
 62
7
100
AcDbSpline
 70
8
 71
3
 72
8
 73
4
 74
0
 40
0
 40
0
 40
0
 40
0
 40
1
 40
1
 40
1
 40
1
 10
406.355540
 20
611.042740
 30
0.0
 10
404.922130
 20
607.009400
 30
0.0
 10
400.814340
 20
595.309400
 30
0.0
 10
397.227110
 20
585.042740
 30
0.0
  0
SPLINE
  5
4e7
100
AcDbEntity
  8
1
 62
7
100
AcDbSpline
 70
8
 71
3
 72
8
 73
4
 74
0
 40
0
 40
0
 40
0
 40
0
 40
1
 40
1
 40
1
 40
1
 10
397.227110
 20
585.042740
 30
0.0
 10
393.639890
 20
574.776070
 30
0.0
 10
390.238060
 20
566.001070
 30
0.0
 10
389.667490
 20
565.542740
 30
0.0
  0
SPLINE
  5
4e8
100
AcDbEntity
  8
1
 62
7
100
AcDbSpline
 70
8
 71
3
 72
8
 73
4
 74
0
 40
0
 40
0
 40
0
 40
0
 40
1
 40
1
 40
1
 40
1
 10
389.667490
 20
565.542740
 30
0.0
 10
388.649070
 20
564.724640
 30
0.0
 10
378.204910
 20
564.416550
 30
0.0
 10
376.384940
 20
565.150920
 30
0.0
  0
LWPOLYLINE
  5
4e9
100
AcDbEntity
  8
1
 62
7
100
AcDbPolyline
 90
9
 70
0
 10
388.051610
 20
634.560100
 30
0.0
 10
377.884940
 20
634.376070
 30
0.0
 10
377.551610
 20
630.709400
 30
0.0
 10
377.218280
 20
627.042740
 30
0.0
 10
370.551610
 20
627.042740
 30
0.0
 10
363.884940
 20
627.042740
 30
0.0
 10
363.884940
 20
638.042740
 30
0.0
 10
363.884940
 20
649.042740
 30
0.0
 10
388.509930
 20
649.217750
 30
0.0
  0
SPLINE
  5
4ea
100
AcDbEntity
  8
1
 62
7
100
AcDbSpline
 70
8
 71
3
 72
8
 73
4
 74
0
 40
0
 40
0
 40
0
 40
0
 40
1
 40
1
 40
1
 40
1
 10
391.498000
 20
575.542740
 30
0.0
 10
396.879960
 20
590.744860
 30
0.0
 10
400.025730
 20
599.659270
 30
0.0
 10
406.130830
 20
617.008850
 30
0.0
  0
SPLINE
  5
4eb
100
AcDbEntity
  8
1
 62
7
100
AcDbSpline
 70
8
 71
3
 72
8
 73
4
 74
0
 40
0
 40
0
 40
0
 40
0
 40
1
 40
1
 40
1
 40
1
 10
406.130830
 20
617.008850
 30
0.0
 10
412.212170
 20
634.290950
 30
0.0
 10
412.218280
 20
634.314860
 30
0.0
 10
412.218280
 20
640.842190
 30
0.0
  0
LWPOLYLINE
  5
4ec
100
AcDbEntity
  8
1
 62
7
100
AcDbPolyline
 90
1
 70
1
 10
376.384940
 20
565.150920
 30
0.0
  0
SPLINE
  5
4ed
100
AcDbEntity
  8
1
 62
7
100
AcDbSpline
 70
8
 71
3
 72
8
 73
4
 74
0
 40
0
 40
0
 40
0
 40
0
 40
1
 40
1
 40
1
 40
1
 10
376.218280
 20
632.392570
 30
0.0
 10
376.218280
 20
635.732790
 30
0.0
 10
376.377510
 20
636.136280
 30
0.0
 10
377.928340
 20
636.725900
 30
0.0
  0
SPLINE
  5
4ee
100
AcDbEntity
  8
1
 62
7
100
AcDbSpline
 70
8
 71
3
 72
8
 73
4
 74
0
 40
0
 40
0
 40
0
 40
0
 40
1
 40
1
 40
1
 40
1
 10
377.928340
 20
636.725900
 30
0.0
 10
380.366790
 20
637.653000
 30
0.0
 10
396.438280
 20
637.551000
 30
0.0
 10
398.536230
 20
636.595110
 30
0.0
  0
SPLINE
  5
4ef
100
AcDbEntity
  8
1
 62
7
100
AcDbSpline
 70
8
 71
3
 72
8
 73
4
 74
0
 40
0
 40
0
 40
0
 40
0
 40
1
 40
1
 40
1
 40
1
 10
398.536230
 20
636.595110
 30
0.0
 10
399.478940
 20
636.165580
 30
0.0
 10
400.403130
 20
635.190580
 30
0.0
 10
400.589990
 20
634.428440
 30
0.0
  0
SPLINE
  5
4f0
100
AcDbEntity
  8
1
 62
7
100
AcDbSpline
 70
8
 71
3
 72
8
 73
4
 74
0
 40
0
 40
0
 40
0
 40
0
 40
1
 40
1
 40
1
 40
1
 10
400.589990
 20
634.428440
 30
0.0
 10
400.779070
 20
633.657230
 30
0.0
 10
399.252170
 20
628.312620
 30
0.0
 10
397.146750
 20
622.376070
 30
0.0
  0
SPLINE
  5
4f1
100
AcDbEntity
  8
1
 62
7
100
AcDbSpline
 70
8
 71
3
 72
8
 73
4
 74
0
 40
0
 40
0
 40
0
 40
0
 40
1
 40
1
 40
1
 40
1
 10
397.146750
 20
622.376070
 30
0.0
 10
395.066120
 20
616.509400
 30
0.0
 10
392.245820
 20
608.559400
 30
0.0
 10
390.879420
 20
604.709400
 30
0.0
  0
SPLINE
  5
4f2
100
AcDbEntity
  8
1
 62
7
100
AcDbSpline
 70
8
 71
3
 72
8
 73
4
 74
0
 40
0
 40
0
 40
0
 40
0
 40
1
 40
1
 40
1
 40
1
 10
390.879420
 20
604.709400
 30
0.0
 10
389.513020
 20
600.859400
 30
0.0
 10
386.284180
 20
591.709400
 30
0.0
 10
383.704220
 20
584.376070
 30
0.0
  0
SPLINE
  5
4f3
100
AcDbEntity
  8
1
 62
7
100
AcDbSpline
 70
8
 71
3
 72
8
 73
4
 74
0
 40
0
 40
0
 40
0
 40
0
 40
1
 40
1
 40
1
 40
1
 10
383.704220
 20
584.376070
 30
0.0
 10
381.124260
 20
577.042740
 30
0.0
 10
378.691910
 20
570.217740
 30
0.0
 10
378.299000
 20
569.209400
 30
0.0
  0
LWPOLYLINE
  5
4f4
100
AcDbEntity
  8
1
 62
7
100
AcDbPolyline
 90
9
 70
0
 10
412.218280
 20
640.842190
 30
0.0
 10
412.218280
 20
647.376070
 30
0.0
 10
388.884940
 20
647.376070
 30
0.0
 10
365.551610
 20
647.376070
 30
0.0
 10
365.551610
 20
638.042740
 30
0.0
 10
365.551610
 20
628.709400
 30
0.0
 10
370.884940
 20
628.709400
 30
0.0
 10
376.218280
 20
628.709400
 30
0.0
 10
376.218280
 20
632.392570
 30
0.0
  0
SPLINE
  5
4f5
100
AcDbEntity
  8
1
 62
7
100
AcDbSpline
 70
8
 71
3
 72
8
 73
4
 74
0
 40
0
 40
0
 40
0
 40
0
 40
1
 40
1
 40
1
 40
1
 10
320.316120
 20
565.386700
 30
0.0
 10
314.353170
 20
566.640050
 30
0.0
 10
309.385550
 20
570.744680
 30
0.0
 10
306.612830
 20
576.709400
 30
0.0
  0
SPLINE
  5
4f6
100
AcDbEntity
  8
1
 62
7
100
AcDbSpline
 70
8
 71
3
 72
8
 73
4
 74
0
 40
0
 40
0
 40
0
 40
0
 40
1
 40
1
 40
1
 40
1
 10
306.612830
 20
576.709400
 30
0.0
 10
305.269320
 20
579.599590
 30
0.0
 10
305.218270
 20
580.709950
 30
0.0
 10
305.218270
 20
607.042740
 30
0.0
  0
LWPOLYLINE
  5
4f7
100
AcDbEntity
  8
1
 62
7
100
AcDbPolyline
 90
5
 70
0
 10
378.299000
 20
569.209400
 30
0.0
 10
377.584610
 20
567.376070
 30
0.0
 10
383.095700
 20
567.376070
 30
0.0
 10
388.606780
 20
567.376070
 30
0.0
 10
391.498000
 20
575.542740
 30
0.0
  0
SPLINE
  5
4f8
100
AcDbEntity
  8
1
 62
7
100
AcDbSpline
 70
8
 71
3
 72
8
 73
4
 74
0
 40
0
 40
0
 40
0
 40
0
 40
1
 40
1
 40
1
 40
1
 10
306.808810
 20
637.895690
 30
0.0
 10
308.950950
 20
642.635930
 30
0.0
 10
313.926480
 20
647.060190
 30
0.0
 10
318.664060
 20
648.437440
 30
0.0
  0
SPLINE
  5
4f9
100
AcDbEntity
  8
1
 62
7
100
AcDbSpline
 70
8
 71
3
 72
8
 73
4
 74
0
 40
0
 40
0
 40
0
 40
0
 40
1
 40
1
 40
1
 40
1
 10
318.664060
 20
648.437440
 30
0.0
 10
321.470190
 20
649.253210
 30
0.0
 10
324.659920
 20
649.441070
 30
0.0
 10
332.754780
 20
649.267320
 30
0.0
  0
SPLINE
  5
4fa
100
AcDbEntity
  8
1
 62
7
100
AcDbSpline
 70
8
 71
3
 72
8
 73
4
 74
0
 40
0
 40
0
 40
0
 40
0
 40
1
 40
1
 40
1
 40
1
 10
332.754780
 20
649.267320
 30
0.0
 10
342.011420
 20
649.068640
 30
0.0
 10
343.571970
 20
648.868460
 30
0.0
 10
346.284850
 20
647.531720
 30
0.0
  0
SPLINE
  5
4fb
100
AcDbEntity
  8
1
 62
7
100
AcDbSpline
 70
8
 71
3
 72
8
 73
4
 74
0
 40
0
 40
0
 40
0
 40
0
 40
1
 40
1
 40
1
 40
1
 10
346.284850
 20
647.531720
 30
0.0
 10
352.332250
 20
644.551940
 30
0.0
 10
356.645890
 20
638.598810
 30
0.0
 10
357.025110
 20
632.709400
 30
0.0
  0
LWPOLYLINE
  5
4fc
100
AcDbEntity
  8
1
 62
7
100
AcDbPolyline
 90
3
 70
0
 10
305.218270
 20
607.042740
 30
0.0
 10
305.218270
 20
634.376070
 30
0.0
 10
306.808810
 20
637.895690
 30
0.0
  0
SPLINE
  5
4fd
100
AcDbEntity
  8
1
 62
7
100
AcDbSpline
 70
8
 71
3
 72
8
 73
4
 74
0
 40
0
 40
0
 40
0
 40
0
 40
1
 40
1
 40
1
 40
1
 10
342.788370
 20
631.366530
 30
0.0
 10
342.397680
 20
632.487260
 30
0.0
 10
341.529310
 20
633.697880
 30
0.0
 10
340.858650
 20
634.056810
 30
0.0
  0
SPLINE
  5
4fe
100
AcDbEntity
  8
1
 62
7
100
AcDbSpline
 70
8
 71
3
 72
8
 73
4
 74
0
 40
0
 40
0
 40
0
 40
0
 40
1
 40
1
 40
1
 40
1
 10
340.858650
 20
634.056810
 30
0.0
 10
340.187990
 20
634.415740
 30
0.0
 10
335.741320
 20
634.709400
 30
0.0
 10
330.977160
 20
634.709400
 30
0.0
  0
SPLINE
  5
4ff
100
AcDbEntity
  8
1
 62
7
100
AcDbSpline
 70
8
 71
3
 72
8
 73
4
 74
0
 40
0
 40
0
 40
0
 40
0
 40
1
 40
1
 40
1
 40
1
 10
330.977160
 20
634.709400
 30
0.0
 10
322.381880
 20
634.709400
 30
0.0
 10
322.304230
 20
634.695600
 30
0.0
 10
320.913170
 20
632.927210
 30
0.0
  0
SPLINE
  5
500
100
AcDbEntity
  8
1
 62
7
100
AcDbSpline
 70
8
 71
3
 72
8
 73
4
 74
0
 40
0
 40
0
 40
0
 40
0
 40
1
 40
1
 40
1
 40
1
 10
320.913170
 20
632.927210
 30
0.0
 10
319.642630
 20
631.311970
 30
0.0
 10
319.528800
 20
630.421980
 30
0.0
 10
319.698120
 20
623.427210
 30
0.0
  0
LWPOLYLINE
  5
501
100
AcDbEntity
  8
1
 62
7
100
AcDbPolyline
 90
5
 70
0
 10
357.025110
 20
632.709400
 30
0.0
 10
357.218280
 20
629.709400
 30
0.0
 10
350.358490
 20
629.519120
 30
0.0
 10
343.498710
 20
629.328840
 30
0.0
 10
342.788370
 20
631.366530
 30
0.0
  0
SPLINE
  5
502
100
AcDbEntity
  8
1
 62
7
100
AcDbSpline
 70
8
 71
3
 72
8
 73
4
 74
0
 40
0
 40
0
 40
0
 40
0
 40
1
 40
1
 40
1
 40
1
 10
332.218280
 20
615.376070
 30
0.0
 10
344.140360
 20
615.053850
 30
0.0
 10
344.654150
 20
614.982450
 30
0.0
 10
347.626840
 20
613.234890
 30
0.0
  0
SPLINE
  5
503
100
AcDbEntity
  8
1
 62
7
100
AcDbSpline
 70
8
 71
3
 72
8
 73
4
 74
0
 40
0
 40
0
 40
0
 40
0
 40
1
 40
1
 40
1
 40
1
 10
347.626840
 20
613.234890
 30
0.0
 10
351.223870
 20
611.120280
 30
0.0
 10
354.426070
 20
607.667930
 30
0.0
 10
356.021370
 20
604.184590
 30
0.0
  0
SPLINE
  5
504
100
AcDbEntity
  8
1
 62
7
100
AcDbSpline
 70
8
 71
3
 72
8
 73
4
 74
0
 40
0
 40
0
 40
0
 40
0
 40
1
 40
1
 40
1
 40
1
 10
356.021370
 20
604.184590
 30
0.0
 10
356.942010
 20
602.174380
 30
0.0
 10
357.160900
 20
599.580390
 30
0.0
 10
357.186620
 20
590.376070
 30
0.0
  0
SPLINE
  5
505
100
AcDbEntity
  8
1
 62
7
100
AcDbSpline
 70
8
 71
3
 72
8
 73
4
 74
0
 40
0
 40
0
 40
0
 40
0
 40
1
 40
1
 40
1
 40
1
 10
357.186620
 20
590.376070
 30
0.0
 10
357.217420
 20
579.354880
 30
0.0
 10
357.169420
 20
578.950930
 30
0.0
 10
355.444470
 20
575.709400
 30
0.0
  0
SPLINE
  5
506
100
AcDbEntity
  8
1
 62
7
100
AcDbSpline
 70
8
 71
3
 72
8
 73
4
 74
0
 40
0
 40
0
 40
0
 40
0
 40
1
 40
1
 40
1
 40
1
 10
355.444470
 20
575.709400
 30
0.0
 10
353.170120
 20
571.435450
 30
0.0
 10
350.076740
 20
568.494660
 30
0.0
 10
345.884940
 20
566.621450
 30
0.0
  0
SPLINE
  5
507
100
AcDbEntity
  8
1
 62
7
100
AcDbSpline
 70
8
 71
3
 72
8
 73
4
 74
0
 40
0
 40
0
 40
0
 40
0
 40
1
 40
1
 40
1
 40
1
 10
345.884940
 20
566.621450
 30
0.0
 10
343.014230
 20
565.338600
 30
0.0
 10
341.210010
 20
565.107220
 30
0.0
 10
332.884940
 20
564.954280
 30
0.0
  0
SPLINE
  5
508
100
AcDbEntity
  8
1
 62
7
100
AcDbSpline
 70
8
 71
3
 72
8
 73
4
 74
0
 40
0
 40
0
 40
0
 40
0
 40
1
 40
1
 40
1
 40
1
 10
332.884940
 20
564.954280
 30
0.0
 10
327.568280
 20
564.856580
 30
0.0
 10
321.912300
 20
565.051180
 30
0.0
 10
320.316120
 20
565.386700
 30
0.0
  0
LWPOLYLINE
  5
509
100
AcDbEntity
  8
1
 62
7
100
AcDbPolyline
 90
3
 70
0
 10
319.698120
 20
623.427210
 30
0.0
 10
319.884940
 20
615.709400
 30
0.0
 10
332.218280
 20
615.376070
 30
0.0
  0
SPLINE
  5
50a
100
AcDbEntity
  8
1
 62
7
100
AcDbSpline
 70
8
 71
3
 72
8
 73
4
 74
0
 40
0
 40
0
 40
0
 40
0
 40
1
 40
1
 40
1
 40
1
 10
344.301120
 20
568.403680
 30
0.0
 10
348.067220
 20
569.730330
 30
0.0
 10
352.561730
 20
574.160640
 30
0.0
 10
354.048200
 20
578.011540
 30
0.0
  0
SPLINE
  5
50b
100
AcDbEntity
  8
1
 62
7
100
AcDbSpline
 70
8
 71
3
 72
8
 73
4
 74
0
 40
0
 40
0
 40
0
 40
0
 40
1
 40
1
 40
1
 40
1
 10
354.048200
 20
578.011540
 30
0.0
 10
355.516380
 20
581.815000
 30
0.0
 10
355.708660
 20
597.421520
 30
0.0
 10
354.342980
 20
601.936500
 30
0.0
  0
SPLINE
  5
50c
100
AcDbEntity
  8
1
 62
7
100
AcDbSpline
 70
8
 71
3
 72
8
 73
4
 74
0
 40
0
 40
0
 40
0
 40
0
 40
1
 40
1
 40
1
 40
1
 10
354.342980
 20
601.936500
 30
0.0
 10
353.178610
 20
605.785910
 30
0.0
 10
348.995210
 20
610.199510
 30
0.0
 10
344.702980
 20
612.106950
 30
0.0
  0
SPLINE
  5
50d
100
AcDbEntity
  8
1
 62
7
100
AcDbSpline
 70
8
 71
3
 72
8
 73
4
 74
0
 40
0
 40
0
 40
0
 40
0
 40
1
 40
1
 40
1
 40
1
 10
344.702980
 20
612.106950
 30
0.0
 10
341.604890
 20
613.483720
 30
0.0
 10
339.960880
 20
613.684660
 30
0.0
 10
329.884940
 20
613.918140
 30
0.0
  0
SPLINE
  5
50e
100
AcDbEntity
  8
1
 62
7
100
AcDbSpline
 70
8
 71
3
 72
8
 73
4
 74
0
 40
0
 40
0
 40
0
 40
0
 40
1
 40
1
 40
1
 40
1
 10
329.884940
 20
613.918140
 30
0.0
 10
322.358610
 20
614.092540
 30
0.0
 10
318.387080
 20
614.437500
 30
0.0
 10
318.061820
 20
614.945080
 30
0.0
  0
SPLINE
  5
50f
100
AcDbEntity
  8
1
 62
7
100
AcDbSpline
 70
8
 71
3
 72
8
 73
4
 74
0
 40
0
 40
0
 40
0
 40
0
 40
1
 40
1
 40
1
 40
1
 10
318.061820
 20
614.945080
 30
0.0
 10
317.792430
 20
615.365460
 30
0.0
 10
317.567430
 20
619.467650
 30
0.0
 10
317.561820
 20
624.061070
 30
0.0
  0
SPLINE
  5
510
100
AcDbEntity
  8
1
 62
7
100
AcDbSpline
 70
8
 71
3
 72
8
 73
4
 74
0
 40
0
 40
0
 40
0
 40
0
 40
1
 40
1
 40
1
 40
1
 10
317.561820
 20
624.061070
 30
0.0
 10
317.547020
 20
636.159940
 30
0.0
 10
318.794340
 20
637.376070
 30
0.0
 10
331.218280
 20
637.376070
 30
0.0
  0
SPLINE
  5
511
100
AcDbEntity
  8
1
 62
7
100
AcDbSpline
 70
8
 71
3
 72
8
 73
4
 74
0
 40
0
 40
0
 40
0
 40
0
 40
1
 40
1
 40
1
 40
1
 10
331.218280
 20
637.376070
 30
0.0
 10
339.344230
 20
637.376070
 30
0.0
 10
342.333970
 20
636.452730
 30
0.0
 10
344.066710
 20
633.407990
 30
0.0
  0
SPLINE
  5
512
100
AcDbEntity
  8
1
 62
7
100
AcDbSpline
 70
8
 71
3
 72
8
 73
4
 74
0
 40
0
 40
0
 40
0
 40
0
 40
1
 40
1
 40
1
 40
1
 10
344.066710
 20
633.407990
 30
0.0
 10
345.182620
 20
631.447160
 30
0.0
 10
345.367940
 20
631.384370
 30
0.0
 10
350.051610
 20
631.380290
 30
0.0
  0
SPLINE
  5
513
100
AcDbEntity
  8
1
 62
7
100
AcDbSpline
 70
8
 71
3
 72
8
 73
4
 74
0
 40
0
 40
0
 40
0
 40
0
 40
1
 40
1
 40
1
 40
1
 10
350.051610
 20
631.380290
 30
0.0
 10
354.664340
 20
631.376290
 30
0.0
 10
354.884940
 20
631.446690
 30
0.0
 10
354.884940
 20
632.923190
 30
0.0
  0
SPLINE
  5
514
100
AcDbEntity
  8
1
 62
7
100
AcDbSpline
 70
8
 71
3
 72
8
 73
4
 74
0
 40
0
 40
0
 40
0
 40
0
 40
1
 40
1
 40
1
 40
1
 10
354.884940
 20
632.923190
 30
0.0
 10
354.884940
 20
636.010150
 30
0.0
 10
351.377610
 20
641.602920
 30
0.0
 10
348.044970
 20
643.830180
 30
0.0
  0
SPLINE
  5
515
100
AcDbEntity
  8
1
 62
7
100
AcDbSpline
 70
8
 71
3
 72
8
 73
4
 74
0
 40
0
 40
0
 40
0
 40
0
 40
1
 40
1
 40
1
 40
1
 10
348.044970
 20
643.830180
 30
0.0
 10
343.701100
 20
646.733270
 30
0.0
 10
338.952530
 20
647.581220
 30
0.0
 10
328.919410
 20
647.245450
 30
0.0
  0
SPLINE
  5
516
100
AcDbEntity
  8
1
 62
7
100
AcDbSpline
 70
8
 71
3
 72
8
 73
4
 74
0
 40
0
 40
0
 40
0
 40
0
 40
1
 40
1
 40
1
 40
1
 10
328.919410
 20
647.245450
 30
0.0
 10
319.461560
 20
646.928930
 30
0.0
 10
316.167600
 20
645.889490
 30
0.0
 10
312.269560
 20
641.991460
 30
0.0
  0
SPLINE
  5
517
100
AcDbEntity
  8
1
 62
7
100
AcDbSpline
 70
8
 71
3
 72
8
 73
4
 74
0
 40
0
 40
0
 40
0
 40
0
 40
1
 40
1
 40
1
 40
1
 10
312.269560
 20
641.991460
 30
0.0
 10
307.428500
 20
637.150400
 30
0.0
 10
307.418720
 20
637.079240
 30
0.0
 10
307.450490
 20
606.919110
 30
0.0
  0
SPLINE
  5
518
100
AcDbEntity
  8
1
 62
7
100
AcDbSpline
 70
8
 71
3
 72
8
 73
4
 74
0
 40
0
 40
0
 40
0
 40
0
 40
1
 40
1
 40
1
 40
1
 10
307.450490
 20
606.919110
 30
0.0
 10
307.478090
 20
580.758520
 30
0.0
 10
307.521790
 20
579.858670
 30
0.0
 10
308.904420
 20
577.002500
 30
0.0
  0
SPLINE
  5
519
100
AcDbEntity
  8
1
 62
7
100
AcDbSpline
 70
8
 71
3
 72
8
 73
4
 74
0
 40
0
 40
0
 40
0
 40
0
 40
1
 40
1
 40
1
 40
1
 10
308.904420
 20
577.002500
 30
0.0
 10
310.574560
 20
573.552450
 30
0.0
 10
315.244400
 20
569.212780
 30
0.0
 10
318.361650
 20
568.213920
 30
0.0
  0
SPLINE
  5
51a
100
AcDbEntity
  8
1
 62
7
100
AcDbSpline
 70
8
 71
3
 72
8
 73
4
 74
0
 40
0
 40
0
 40
0
 40
0
 40
1
 40
1
 40
1
 40
1
 10
318.361650
 20
568.213920
 30
0.0
 10
321.981160
 20
567.054120
 30
0.0
 10
340.862120
 20
567.192240
 30
0.0
 10
344.301120
 20
568.403680
 30
0.0
  0
LWPOLYLINE
  5
51b
100
AcDbEntity
  8
1
 62
7
100
AcDbPolyline
 90
1
 70
1
 10
320.316120
 20
565.386700
 30
0.0
  0
LWPOLYLINE
  5
51c
100
AcDbEntity
  8
1
 62
7
100
AcDbPolyline
 90
1
 70
1
 10
344.301120
 20
568.403680
 30
0.0
  0
SPLINE
  5
51d
100
AcDbEntity
  8
1
 62
7
100
AcDbSpline
 70
8
 71
3
 72
8
 73
4
 74
0
 40
0
 40
0
 40
0
 40
0
 40
1
 40
1
 40
1
 40
1
 10
317.670750
 20
591.024530
 30
0.0
 10
317.519130
 20
598.410300
 30
0.0
 10
317.689050
 20
601.738380
 30
0.0
 10
318.252380
 20
602.417160
 30
0.0
  0
SPLINE
  5
51e
100
AcDbEntity
  8
1
 62
7
100
AcDbSpline
 70
8
 71
3
 72
8
 73
4
 74
0
 40
0
 40
0
 40
0
 40
0
 40
1
 40
1
 40
1
 40
1
 10
318.252380
 20
602.417160
 30
0.0
 10
318.885620
 20
603.180170
 30
0.0
 10
321.289270
 20
603.376070
 30
0.0
 10
330.017850
 20
603.376070
 30
0.0
  0
LWPOLYLINE
  5
51f
100
AcDbEntity
  8
1
 62
7
100
AcDbPolyline
 90
3
 70
0
 10
319.755450
 20
578.983440
 30
0.0
 10
317.884940
 20
580.590810
 30
0.0
 10
317.670750
 20
591.024530
 30
0.0
  0
SPLINE
  5
520
100
AcDbEntity
  8
1
 62
7
100
AcDbSpline
 70
8
 71
3
 72
8
 73
4
 74
0
 40
0
 40
0
 40
0
 40
0
 40
1
 40
1
 40
1
 40
1
 10
331.306730
 20
577.376070
 30
0.0
 10
322.037460
 20
577.376070
 30
0.0
 10
321.546450
 20
577.444370
 30
0.0
 10
319.755450
 20
578.983440
 30
0.0
  0
LWPOLYLINE
  5
521
100
AcDbEntity
  8
1
 62
7
100
AcDbPolyline
 90
9
 70
0
 10
330.017850
 20
603.376070
 30
0.0
 10
340.987510
 20
603.376070
 30
0.0
 10
342.936220
 20
601.427350
 30
0.0
 10
344.884940
 20
599.478640
 30
0.0
 10
344.884940
 20
590.376070
 30
0.0
 10
344.884940
 20
581.273510
 30
0.0
 10
342.936220
 20
579.324790
 30
0.0
 10
340.987510
 20
577.376070
 30
0.0
 10
331.306730
 20
577.376070
 30
0.0
  0
SPLINE
  5
522
100
AcDbEntity
  8
1
 62
7
100
AcDbSpline
 70
8
 71
3
 72
8
 73
4
 74
0
 40
0
 40
0
 40
0
 40
0
 40
1
 40
1
 40
1
 40
1
 10
341.341970
 20
580.825610
 30
0.0
 10
342.792000
 20
582.187850
 30
0.0
 10
342.884940
 20
582.767190
 30
0.0
 10
342.884940
 20
590.443890
 30
0.0
  0
SPLINE
  5
523
100
AcDbEntity
  8
1
 62
7
100
AcDbSpline
 70
8
 71
3
 72
8
 73
4
 74
0
 40
0
 40
0
 40
0
 40
0
 40
1
 40
1
 40
1
 40
1
 10
342.884940
 20
590.443890
 30
0.0
 10
342.884940
 20
598.500050
 30
0.0
 10
342.860440
 20
598.631910
 30
0.0
 10
341.106530
 20
600.011530
 30
0.0
  0
SPLINE
  5
524
100
AcDbEntity
  8
1
 62
7
100
AcDbSpline
 70
8
 71
3
 72
8
 73
4
 74
0
 40
0
 40
0
 40
0
 40
0
 40
1
 40
1
 40
1
 40
1
 10
341.106530
 20
600.011530
 30
0.0
 10
339.456960
 20
601.309090
 30
0.0
 10
338.623790
 20
601.397120
 30
0.0
 10
329.606530
 20
601.226590
 30
0.0
  0
LWPOLYLINE
  5
525
100
AcDbEntity
  8
1
 62
7
100
AcDbPolyline
 90
1
 70
1
 10
319.755450
 20
578.983440
 30
0.0
  0
SPLINE
  5
526
100
AcDbEntity
  8
1
 62
7
100
AcDbSpline
 70
8
 71
3
 72
8
 73
4
 74
0
 40
0
 40
0
 40
0
 40
0
 40
1
 40
1
 40
1
 40
1
 10
319.700200
 20
591.988960
 30
0.0
 10
319.529960
 20
583.645960
 30
0.0
 10
319.625400
 20
582.795470
 30
0.0
 10
320.915250
 20
581.155630
 30
0.0
  0
SPLINE
  5
527
100
AcDbEntity
  8
1
 62
7
100
AcDbSpline
 70
8
 71
3
 72
8
 73
4
 74
0
 40
0
 40
0
 40
0
 40
0
 40
1
 40
1
 40
1
 40
1
 10
320.915250
 20
581.155630
 30
0.0
 10
322.304900
 20
579.388970
 30
0.0
 10
322.378410
 20
579.376070
 30
0.0
 10
331.057030
 20
579.376070
 30
0.0
  0
SPLINE
  5
528
100
AcDbEntity
  8
1
 62
7
100
AcDbSpline
 70
8
 71
3
 72
8
 73
4
 74
0
 40
0
 40
0
 40
0
 40
0
 40
1
 40
1
 40
1
 40
1
 10
331.057030
 20
579.376070
 30
0.0
 10
339.115090
 20
579.376070
 30
0.0
 10
339.919720
 20
579.489470
 30
0.0
 10
341.341970
 20
580.825610
 30
0.0
  0
LWPOLYLINE
  5
529
100
AcDbEntity
  8
1
 62
7
100
AcDbPolyline
 90
3
 70
0
 10
329.606530
 20
601.226590
 30
0.0
 10
319.884940
 20
601.042740
 30
0.0
 10
319.700200
 20
591.988960
 30
0.0
  0
SPLINE
  5
52a
100
AcDbEntity
  8
1
 62
7
100
AcDbSpline
 70
8
 71
3
 72
8
 73
4
 74
0
 40
0
 40
0
 40
0
 40
0
 40
1
 40
1
 40
1
 40
1
 10
262.799390
 20
565.344120
 30
0.0
 10
257.153790
 20
566.377680
 30
0.0
 10
252.329910
 20
569.922240
 30
0.0
 10
249.719980
 20
574.954790
 30
0.0
  0
SPLINE
  5
52b
100
AcDbEntity
  8
1
 62
7
100
AcDbSpline
 70
8
 71
3
 72
8
 73
4
 74
0
 40
0
 40
0
 40
0
 40
0
 40
1
 40
1
 40
1
 40
1
 10
249.719980
 20
574.954790
 30
0.0
 10
248.172980
 20
577.937770
 30
0.0
 10
247.941780
 20
579.187440
 30
0.0
 10
247.915300
 20
584.709400
 30
0.0
  0
LWPOLYLINE
  5
52c
100
AcDbEntity
  8
1
 62
7
100
AcDbPolyline
 90
1
 70
1
 10
341.341970
 20
580.825610
 30
0.0
  0
SPLINE
  5
52d
100
AcDbEntity
  8
1
 62
7
100
AcDbSpline
 70
8
 71
3
 72
8
 73
4
 74
0
 40
0
 40
0
 40
0
 40
0
 40
1
 40
1
 40
1
 40
1
 10
253.216000
 20
591.240410
 30
0.0
 10
261.310330
 20
591.540530
 30
0.0
 10
261.344590
 20
591.520500
 30
0.0
 10
261.677400
 20
586.293890
 30
0.0
  0
SPLINE
  5
52e
100
AcDbEntity
  8
1
 62
7
100
AcDbSpline
 70
8
 71
3
 72
8
 73
4
 74
0
 40
0
 40
0
 40
0
 40
0
 40
1
 40
1
 40
1
 40
1
 10
261.677400
 20
586.293890
 30
0.0
 10
262.093350
 20
579.761550
 30
0.0
 10
262.759120
 20
579.376070
 30
0.0
 10
273.625420
 20
579.376070
 30
0.0
  0
SPLINE
  5
52f
100
AcDbEntity
  8
1
 62
7
100
AcDbSpline
 70
8
 71
3
 72
8
 73
4
 74
0
 40
0
 40
0
 40
0
 40
0
 40
1
 40
1
 40
1
 40
1
 10
273.625420
 20
579.376070
 30
0.0
 10
285.454140
 20
579.376070
 30
0.0
 10
284.884900
 20
578.656650
 30
0.0
 10
284.884900
 20
593.606080
 30
0.0
  0
SPLINE
  5
530
100
AcDbEntity
  8
1
 62
7
100
AcDbSpline
 70
8
 71
3
 72
8
 73
4
 74
0
 40
0
 40
0
 40
0
 40
0
 40
1
 40
1
 40
1
 40
1
 10
284.884900
 20
593.606080
 30
0.0
 10
284.884900
 20
604.511340
 30
0.0
 10
284.805100
 20
605.241700
 30
0.0
 10
283.482840
 20
606.439410
 30
0.0
  0
SPLINE
  5
531
100
AcDbEntity
  8
1
 62
7
100
AcDbSpline
 70
8
 71
3
 72
8
 73
4
 74
0
 40
0
 40
0
 40
0
 40
0
 40
1
 40
1
 40
1
 40
1
 10
283.482840
 20
606.439410
 30
0.0
 10
282.192960
 20
607.607790
 30
0.0
 10
280.698610
 20
607.725270
 30
0.0
 10
264.806580
 20
607.907690
 30
0.0
  0
LWPOLYLINE
  5
532
100
AcDbEntity
  8
1
 62
7
100
AcDbPolyline
 90
3
 70
0
 10
247.915300
 20
584.709400
 30
0.0
 10
247.884900
 20
591.042740
 30
0.0
 10
253.216000
 20
591.240410
 30
0.0
  0
SPLINE
  5
533
100
AcDbEntity
  8
1
 62
7
100
AcDbSpline
 70
8
 71
3
 72
8
 73
4
 74
0
 40
0
 40
0
 40
0
 40
0
 40
1
 40
1
 40
1
 40
1
 10
299.408220
 20
642.209400
 30
0.0
 10
299.512720
 20
638.451070
 30
0.0
 10
299.512720
 20
635.313010
 30
0.0
 10
299.408220
 20
635.235940
 30
0.0
  0
SPLINE
  5
534
100
AcDbEntity
  8
1
 62
7
100
AcDbSpline
 70
8
 71
3
 72
8
 73
4
 74
0
 40
0
 40
0
 40
0
 40
0
 40
1
 40
1
 40
1
 40
1
 10
299.408220
 20
635.235940
 30
0.0
 10
299.303730
 20
635.158840
 30
0.0
 10
290.818230
 20
634.933870
 30
0.0
 10
280.551570
 20
634.735940
 30
0.0
  0
LWPOLYLINE
  5
535
100
AcDbEntity
  8
1
 62
7
100
AcDbPolyline
 90
7
 70
0
 10
264.806580
 20
607.907690
 30
0.0
 10
247.532390
 20
608.105980
 30
0.0
 10
247.708650
 20
628.574360
 30
0.0
 10
247.884900
 20
649.042740
 30
0.0
 10
273.551570
 20
649.042740
 30
0.0
 10
299.218230
 20
649.042740
 30
0.0
 10
299.408220
 20
642.209400
 30
0.0
  0
SPLINE
  5
536
100
AcDbEntity
  8
1
 62
7
100
AcDbSpline
 70
8
 71
3
 72
8
 73
4
 74
0
 40
0
 40
0
 40
0
 40
0
 40
1
 40
1
 40
1
 40
1
 10
261.689050
 20
629.146210
 30
0.0
 10
261.566150
 20
625.864170
 30
0.0
 10
261.782750
 20
623.567440
 30
0.0
 10
262.270680
 20
622.979540
 30
0.0
  0
SPLINE
  5
537
100
AcDbEntity
  8
1
 62
7
100
AcDbSpline
 70
8
 71
3
 72
8
 73
4
 74
0
 40
0
 40
0
 40
0
 40
0
 40
1
 40
1
 40
1
 40
1
 10
262.270680
 20
622.979540
 30
0.0
 10
262.878050
 20
622.247710
 30
0.0
 10
265.338190
 20
622.042740
 30
0.0
 10
273.514440
 20
622.042740
 30
0.0
  0
SPLINE
  5
538
100
AcDbEntity
  8
1
 62
7
100
AcDbSpline
 70
8
 71
3
 72
8
 73
4
 74
0
 40
0
 40
0
 40
0
 40
0
 40
1
 40
1
 40
1
 40
1
 10
273.514440
 20
622.042740
 30
0.0
 10
285.670790
 20
622.042740
 30
0.0
 10
288.544990
 20
621.350350
 30
0.0
 10
293.125420
 20
617.318490
 30
0.0
  0
SPLINE
  5
539
100
AcDbEntity
  8
1
 62
7
100
AcDbSpline
 70
8
 71
3
 72
8
 73
4
 74
0
 40
0
 40
0
 40
0
 40
0
 40
1
 40
1
 40
1
 40
1
 10
293.125420
 20
617.318490
 30
0.0
 10
294.765050
 20
615.875230
 30
0.0
 10
296.806690
 20
613.272760
 30
0.0
 10
297.662400
 20
611.535230
 30
0.0
  0
SPLINE
  5
53a
100
AcDbEntity
  8
1
 62
7
100
AcDbSpline
 70
8
 71
3
 72
8
 73
4
 74
0
 40
0
 40
0
 40
0
 40
0
 40
1
 40
1
 40
1
 40
1
 10
297.662400
 20
611.535230
 30
0.0
 10
299.094720
 20
608.626860
 30
0.0
 10
299.236780
 20
607.370520
 30
0.0
 10
299.451820
 20
595.709400
 30
0.0
  0
SPLINE
  5
53b
100
AcDbEntity
  8
1
 62
7
100
AcDbSpline
 70
8
 71
3
 72
8
 73
4
 74
0
 40
0
 40
0
 40
0
 40
0
 40
1
 40
1
 40
1
 40
1
 10
299.451820
 20
595.709400
 30
0.0
 10
299.708690
 20
581.779900
 30
0.0
 10
299.165910
 20
577.760030
 30
0.0
 10
296.471090
 20
573.633920
 30
0.0
  0
SPLINE
  5
53c
100
AcDbEntity
  8
1
 62
7
100
AcDbSpline
 70
8
 71
3
 72
8
 73
4
 74
0
 40
0
 40
0
 40
0
 40
0
 40
1
 40
1
 40
1
 40
1
 10
296.471090
 20
573.633920
 30
0.0
 10
294.507550
 20
570.627490
 30
0.0
 10
290.231540
 20
567.253730
 30
0.0
 10
286.884900
 20
566.070430
 30
0.0
  0
SPLINE
  5
53d
100
AcDbEntity
  8
1
 62
7
100
AcDbSpline
 70
8
 71
3
 72
8
 73
4
 74
0
 40
0
 40
0
 40
0
 40
0
 40
1
 40
1
 40
1
 40
1
 10
286.884900
 20
566.070430
 30
0.0
 10
284.055240
 20
565.069920
 30
0.0
 10
267.091330
 20
564.558370
 30
0.0
 10
262.799350
 20
565.344120
 30
0.0
  0
LWPOLYLINE
  5
53e
100
AcDbEntity
  8
1
 62
7
100
AcDbPolyline
 90
3
 70
0
 10
280.551570
 20
634.735940
 30
0.0
 10
261.884900
 20
634.376070
 30
0.0
 10
261.689050
 20
629.146210
 30
0.0
  0
SPLINE
  5
53f
100
AcDbEntity
  8
1
 62
7
100
AcDbSpline
 70
8
 71
3
 72
8
 73
4
 74
0
 40
0
 40
0
 40
0
 40
0
 40
1
 40
1
 40
1
 40
1
 10
286.386300
 20
568.327240
 30
0.0
 10
290.464990
 20
569.782780
 30
0.0
 10
293.307270
 20
572.428700
 30
0.0
 10
295.494920
 20
576.806580
 30
0.0
  0
LWPOLYLINE
  5
540
100
AcDbEntity
  8
1
 62
7
100
AcDbPolyline
 90
1
 70
1
 10
262.799350
 20
565.344120
 30
0.0
  0
SPLINE
  5
541
100
AcDbEntity
  8
1
 62
7
100
AcDbSpline
 70
8
 71
3
 72
8
 73
4
 74
0
 40
0
 40
0
 40
0
 40
0
 40
1
 40
1
 40
1
 40
1
 10
297.544610
 20
593.649220
 30
0.0
 10
297.538610
 20
605.603930
 30
0.0
 10
297.443180
 20
606.578300
 30
0.0
 10
295.973690
 20
609.709400
 30
0.0
  0
SPLINE
  5
542
100
AcDbEntity
  8
1
 62
7
100
AcDbSpline
 70
8
 71
3
 72
8
 73
4
 74
0
 40
0
 40
0
 40
0
 40
0
 40
1
 40
1
 40
1
 40
1
 10
295.973690
 20
609.709400
 30
0.0
 10
294.246680
 20
613.389200
 30
0.0
 10
291.936880
 20
615.945420
 30
0.0
 10
288.288800
 20
618.214150
 30
0.0
  0
SPLINE
  5
543
100
AcDbEntity
  8
1
 62
7
100
AcDbSpline
 70
8
 71
3
 72
8
 73
4
 74
0
 40
0
 40
0
 40
0
 40
0
 40
1
 40
1
 40
1
 40
1
 10
288.288800
 20
618.214150
 30
0.0
 10
286.081910
 20
619.586600
 30
0.0
 10
284.855730
 20
619.736780
 30
0.0
 10
273.358530
 20
620.042740
 30
0.0
  0
SPLINE
  5
544
100
AcDbEntity
  8
1
 62
7
100
AcDbSpline
 70
8
 71
3
 72
8
 73
4
 74
0
 40
0
 40
0
 40
0
 40
0
 40
1
 40
1
 40
1
 40
1
 10
273.358530
 20
620.042740
 30
0.0
 10
263.207120
 20
620.312880
 30
0.0
 10
260.713080
 20
620.565640
 30
0.0
 10
260.202070
 20
621.376070
 30
0.0
  0
SPLINE
  5
545
100
AcDbEntity
  8
1
 62
7
100
AcDbSpline
 70
8
 71
3
 72
8
 73
4
 74
0
 40
0
 40
0
 40
0
 40
0
 40
1
 40
1
 40
1
 40
1
 10
260.202070
 20
621.376070
 30
0.0
 10
259.855280
 20
621.926070
 30
0.0
 10
259.566940
 20
625.284060
 30
0.0
 10
259.561330
 20
628.838270
 30
0.0
  0
SPLINE
  5
546
100
AcDbEntity
  8
1
 62
7
100
AcDbSpline
 70
8
 71
3
 72
8
 73
4
 74
0
 40
0
 40
0
 40
0
 40
0
 40
1
 40
1
 40
1
 40
1
 10
259.561330
 20
628.838270
 30
0.0
 10
259.547030
 20
637.898060
 30
0.0
 10
258.295410
 20
637.376070
 30
0.0
 10
280.032790
 20
637.376070
 30
0.0
  0
LWPOLYLINE
  5
547
100
AcDbEntity
  8
1
 62
7
100
AcDbPolyline
 90
3
 70
0
 10
295.494920
 20
576.806580
 30
0.0
 10
297.551610
 20
580.922370
 30
0.0
 10
297.544610
 20
593.649220
 30
0.0
  0
SPLINE
  5
548
100
AcDbEntity
  8
1
 62
7
100
AcDbSpline
 70
8
 71
3
 72
8
 73
4
 74
0
 40
0
 40
0
 40
0
 40
0
 40
1
 40
1
 40
1
 40
1
 10
285.041090
 20
579.321390
 30
0.0
 10
282.864510
 20
577.376610
 30
0.0
 10
282.861430
 20
577.376070
 30
0.0
 10
273.905790
 20
577.376070
 30
0.0
  0
SPLINE
  5
549
100
AcDbEntity
  8
1
 62
7
100
AcDbSpline
 70
8
 71
3
 72
8
 73
4
 74
0
 40
0
 40
0
 40
0
 40
0
 40
1
 40
1
 40
1
 40
1
 10
273.905790
 20
577.376070
 30
0.0
 10
268.380400
 20
577.376070
 30
0.0
 10
264.277840
 20
577.681270
 30
0.0
 10
263.199650
 20
578.172530
 30
0.0
  0
SPLINE
  5
54a
100
AcDbEntity
  8
1
 62
7
100
AcDbSpline
 70
8
 71
3
 72
8
 73
4
 74
0
 40
0
 40
0
 40
0
 40
0
 40
1
 40
1
 40
1
 40
1
 10
263.199650
 20
578.172530
 30
0.0
 10
260.820430
 20
579.256570
 30
0.0
 10
259.551610
 20
581.982400
 30
0.0
 10
259.551610
 20
586.009630
 30
0.0
  0
LWPOLYLINE
  5
54b
100
AcDbEntity
  8
1
 62
7
100
AcDbPolyline
 90
15
 70
0
 10
280.032790
 20
637.376070
 30
0.0
 10
297.551120
 20
637.376070
 30
0.0
 10
297.551120
 20
642.376070
 30
0.0
 10
297.551120
 20
647.376070
 30
0.0
 10
273.551120
 20
647.376070
 30
0.0
 10
249.551120
 20
647.376070
 30
0.0
 10
249.551120
 20
628.741470
 30
0.0
 10
249.551120
 20
610.106880
 30
0.0
 10
266.537130
 20
609.908140
 30
0.0
 10
283.523140
 20
609.709400
 30
0.0
 10
285.370460
 20
607.860920
 30
0.0
 10
287.218270
 20
606.012430
 30
0.0
 10
287.218270
 20
593.639570
 30
0.0
 10
287.218270
 20
581.266700
 30
0.0
 10
285.041090
 20
579.321390
 30
0.0
  0
SPLINE
  5
54c
100
AcDbEntity
  8
1
 62
7
100
AcDbSpline
 70
8
 71
3
 72
8
 73
4
 74
0
 40
0
 40
0
 40
0
 40
0
 40
1
 40
1
 40
1
 40
1
 10
249.566210
 20
584.876070
 30
0.0
 10
249.590110
 20
577.525850
 30
0.0
 10
253.040450
 20
571.818050
 30
0.0
 10
259.190990
 20
568.953980
 30
0.0
  0
SPLINE
  5
54d
100
AcDbEntity
  8
1
 62
7
100
AcDbSpline
 70
8
 71
3
 72
8
 73
4
 74
0
 40
0
 40
0
 40
0
 40
0
 40
1
 40
1
 40
1
 40
1
 10
259.190990
 20
568.953980
 30
0.0
 10
262.284980
 20
567.513230
 30
0.0
 10
263.397720
 20
567.390900
 30
0.0
 10
273.218230
 20
567.411850
 30
0.0
  0
SPLINE
  5
54e
100
AcDbEntity
  8
1
 62
7
100
AcDbSpline
 70
8
 71
3
 72
8
 73
4
 74
0
 40
0
 40
0
 40
0
 40
0
 40
1
 40
1
 40
1
 40
1
 10
273.218230
 20
567.411850
 30
0.0
 10
280.386220
 20
567.427150
 30
0.0
 10
284.705350
 20
567.727380
 30
0.0
 10
286.386260
 20
568.327240
 30
0.0
  0
LWPOLYLINE
  5
54f
100
AcDbEntity
  8
1
 62
7
100
AcDbPolyline
 90
5
 70
0
 10
259.551610
 20
586.009630
 30
0.0
 10
259.551610
 20
589.376070
 30
0.0
 10
254.551610
 20
589.376070
 30
0.0
 10
249.551610
 20
589.376070
 30
0.0
 10
249.566210
 20
584.876070
 30
0.0
  0
SPLINE
  5
550
100
AcDbEntity
  8
1
 62
7
100
AcDbSpline
 70
8
 71
3
 72
8
 73
4
 74
0
 40
0
 40
0
 40
0
 40
0
 40
1
 40
1
 40
1
 40
1
 10
223.115280
 20
565.219610
 30
0.0
 10
222.660300
 20
565.509150
 30
0.0
 10
222.182170
 20
568.556030
 30
0.0
 10
221.945840
 20
572.671770
 30
0.0
  0
SPLINE
  5
551
100
AcDbEntity
  8
1
 62
7
100
AcDbSpline
 70
8
 71
3
 72
8
 73
4
 74
0
 40
0
 40
0
 40
0
 40
0
 40
1
 40
1
 40
1
 40
1
 10
221.945840
 20
572.671770
 30
0.0
 10
221.700180
 20
576.950080
 30
0.0
 10
221.239010
 20
579.823910
 30
0.0
 10
220.749570
 20
580.126400
 30
0.0
  0
SPLINE
  5
552
100
AcDbEntity
  8
1
 62
7
100
AcDbSpline
 70
8
 71
3
 72
8
 73
4
 74
0
 40
0
 40
0
 40
0
 40
0
 40
1
 40
1
 40
1
 40
1
 10
220.749570
 20
580.126400
 30
0.0
 10
220.311510
 20
580.397140
 30
0.0
 10
214.237750
 20
580.620110
 30
0.0
 10
207.252350
 20
580.621890
 30
0.0
  0
SPLINE
  5
553
100
AcDbEntity
  8
1
 62
7
100
AcDbSpline
 70
8
 71
3
 72
8
 73
4
 74
0
 40
0
 40
0
 40
0
 40
0
 40
1
 40
1
 40
1
 40
1
 10
207.252350
 20
580.621890
 30
0.0
 10
200.266940
 20
580.623890
 30
0.0
 10
193.576610
 20
580.644090
 30
0.0
 10
192.384940
 20
580.667290
 30
0.0
  0
LWPOLYLINE
  5
554
100
AcDbEntity
  8
1
 62
7
100
AcDbPolyline
 90
1
 70
1
 10
286.386260
 20
568.327240
 30
0.0
  0
SPLINE
  5
555
100
AcDbEntity
  8
1
 62
7
100
AcDbSpline
 70
8
 71
3
 72
8
 73
4
 74
0
 40
0
 40
0
 40
0
 40
0
 40
1
 40
1
 40
1
 40
1
 10
238.658770
 20
594.838260
 30
0.0
 10
240.713860
 20
594.638850
 30
0.0
 10
240.771510
 20
594.542580
 30
0.0
 10
240.992100
 20
590.942010
 30
0.0
  0
SPLINE
  5
556
100
AcDbEntity
  8
1
 62
7
100
AcDbSpline
 70
8
 71
3
 72
8
 73
4
 74
0
 40
0
 40
0
 40
0
 40
0
 40
1
 40
1
 40
1
 40
1
 10
240.992100
 20
590.942010
 30
0.0
 10
241.116500
 20
588.911530
 30
0.0
 10
241.116230
 20
585.806850
 30
0.0
 10
240.991510
 20
584.042730
 30
0.0
  0
SPLINE
  5
557
100
AcDbEntity
  8
1
 62
7
100
AcDbSpline
 70
8
 71
3
 72
8
 73
4
 74
0
 40
0
 40
0
 40
0
 40
0
 40
1
 40
1
 40
1
 40
1
 10
240.991510
 20
584.042730
 30
0.0
 10
240.775080
 20
580.981450
 30
0.0
 10
240.661120
 20
580.815790
 30
0.0
 10
238.491510
 20
580.408770
 30
0.0
  0
LWPOLYLINE
  5
558
100
AcDbEntity
  8
1
 62
7
100
AcDbPolyline
 90
11
 70
0
 10
192.384940
 20
580.667290
 30
0.0
 10
190.218270
 20
580.709390
 30
0.0
 10
190.218270
 20
595.034870
 30
0.0
 10
190.218270
 20
609.360340
 30
0.0
 10
206.296150
 20
629.390660
 30
0.0
 10
222.374020
 20
649.420990
 30
0.0
 10
229.129480
 20
649.231860
 30
0.0
 10
235.884940
 20
649.042730
 30
0.0
 10
236.218270
 20
622.042730
 30
0.0
 10
236.551610
 20
595.042730
 30
0.0
 10
238.658770
 20
594.838260
 30
0.0
  0
SPLINE
  5
559
100
AcDbEntity
  8
1
 62
7
100
AcDbSpline
 70
8
 71
3
 72
8
 73
4
 74
0
 40
0
 40
0
 40
0
 40
0
 40
1
 40
1
 40
1
 40
1
 10
236.218270
 20
572.750510
 30
0.0
 10
236.218270
 20
566.771050
 30
0.0
 10
236.035660
 20
565.448640
 30
0.0
 10
235.163750
 20
565.114050
 30
0.0
  0
SPLINE
  5
55a
100
AcDbEntity
  8
1
 62
7
100
AcDbSpline
 70
8
 71
3
 72
8
 73
4
 74
0
 40
0
 40
0
 40
0
 40
0
 40
1
 40
1
 40
1
 40
1
 10
235.163750
 20
565.114050
 30
0.0
 10
233.678160
 20
564.543980
 30
0.0
 10
224.044340
 20
564.628380
 30
0.0
 10
223.115280
 20
565.219600
 30
0.0
  0
LWPOLYLINE
  5
55b
100
AcDbEntity
  8
1
 62
7
100
AcDbPolyline
 90
3
 70
0
 10
238.491510
 20
580.408770
 30
0.0
 10
236.218270
 20
579.982310
 30
0.0
 10
236.218270
 20
572.750510
 30
0.0
  0
SPLINE
  5
55c
100
AcDbEntity
  8
1
 62
7
100
AcDbSpline
 70
8
 71
3
 72
8
 73
4
 74
0
 40
0
 40
0
 40
0
 40
0
 40
1
 40
1
 40
1
 40
1
 10
234.218270
 20
573.995120
 30
0.0
 10
234.218270
 20
581.019760
 30
0.0
 10
234.873820
 20
582.709400
 30
0.0
 10
237.599230
 20
582.709400
 30
0.0
  0
SPLINE
  5
55d
100
AcDbEntity
  8
1
 62
7
100
AcDbSpline
 70
8
 71
3
 72
8
 73
4
 74
0
 40
0
 40
0
 40
0
 40
0
 40
1
 40
1
 40
1
 40
1
 10
237.599230
 20
582.709400
 30
0.0
 10
238.754780
 20
582.709400
 30
0.0
 10
238.884940
 20
583.215580
 30
0.0
 10
238.884940
 20
587.709400
 30
0.0
  0
SPLINE
  5
55e
100
AcDbEntity
  8
1
 62
7
100
AcDbSpline
 70
8
 71
3
 72
8
 73
4
 74
0
 40
0
 40
0
 40
0
 40
0
 40
1
 40
1
 40
1
 40
1
 10
238.884940
 20
587.709400
 30
0.0
 10
238.884940
 20
592.482350
 30
0.0
 10
238.815340
 20
592.709400
 30
0.0
 10
237.351610
 20
592.709400
 30
0.0
  0
SPLINE
  5
55f
100
AcDbEntity
  8
1
 62
7
100
AcDbSpline
 70
8
 71
3
 72
8
 73
4
 74
0
 40
0
 40
0
 40
0
 40
0
 40
1
 40
1
 40
1
 40
1
 10
237.351610
 20
592.709400
 30
0.0
 10
234.222370
 20
592.709400
 30
0.0
 10
234.218270
 20
592.746200
 30
0.0
 10
234.218270
 20
620.842740
 30
0.0
  0
LWPOLYLINE
  5
560
100
AcDbEntity
  8
1
 62
7
100
AcDbPolyline
 90
1
 70
1
 10
223.115280
 20
565.219600
 30
0.0
  0
SPLINE
  5
561
100
AcDbEntity
  8
1
 62
7
100
AcDbSpline
 70
8
 71
3
 72
8
 73
4
 74
0
 40
0
 40
0
 40
0
 40
0
 40
1
 40
1
 40
1
 40
1
 10
216.744820
 20
638.889350
 30
0.0
 10
212.971890
 20
634.221660
 30
0.0
 10
209.080760
 20
629.346660
 30
0.0
 10
208.097880
 20
628.056020
 30
0.0
  0
SPLINE
  5
562
100
AcDbEntity
  8
1
 62
7
100
AcDbSpline
 70
8
 71
3
 72
8
 73
4
 74
0
 40
0
 40
0
 40
0
 40
0
 40
1
 40
1
 40
1
 40
1
 10
208.097880
 20
628.056020
 30
0.0
 10
207.114990
 20
626.765380
 30
0.0
 10
203.147160
 20
621.809400
 30
0.0
 10
199.280480
 20
617.042740
 30
0.0
  0
LWPOLYLINE
  5
563
100
AcDbEntity
  8
1
 62
7
100
AcDbPolyline
 90
5
 70
0
 10
234.218270
 20
620.842740
 30
0.0
 10
234.218270
 20
647.376070
 30
0.0
 10
228.911490
 20
647.376070
 30
0.0
 10
223.604710
 20
647.376070
 30
0.0
 10
216.744820
 20
638.889350
 30
0.0
  0
SPLINE
  5
564
100
AcDbEntity
  8
1
 62
7
100
AcDbSpline
 70
8
 71
3
 72
8
 73
4
 74
0
 40
0
 40
0
 40
0
 40
0
 40
1
 40
1
 40
1
 40
1
 10
206.757580
 20
582.709400
 30
0.0
 10
217.620230
 20
582.709400
 30
0.0
 10
221.595950
 20
582.490680
 30
0.0
 10
222.479730
 20
581.844450
 30
0.0
  0
SPLINE
  5
565
100
AcDbEntity
  8
1
 62
7
100
AcDbSpline
 70
8
 71
3
 72
8
 73
4
 74
0
 40
0
 40
0
 40
0
 40
0
 40
1
 40
1
 40
1
 40
1
 10
222.479730
 20
581.844450
 30
0.0
 10
223.428870
 20
581.150410
 30
0.0
 10
223.736690
 20
579.635400
 30
0.0
 10
224.037420
 20
574.177780
 30
0.0
  0
LWPOLYLINE
  5
566
100
AcDbEntity
  8
1
 62
7
100
AcDbPolyline
 90
5
 70
0
 10
199.280480
 20
617.042740
 30
0.0
 10
192.250130
 20
608.376070
 30
0.0
 10
192.234230
 20
595.542740
 30
0.0
 10
192.218330
 20
582.709400
 30
0.0
 10
206.757580
 20
582.709400
 30
0.0
  0
SPLINE
  5
567
100
AcDbEntity
  8
1
 62
7
100
AcDbSpline
 70
8
 71
3
 72
8
 73
4
 74
0
 40
0
 40
0
 40
0
 40
0
 40
1
 40
1
 40
1
 40
1
 10
203.265890
 20
593.757020
 30
0.0
 10
202.521820
 20
594.501100
 30
0.0
 10
202.219260
 20
596.094720
 30
0.0
 10
202.221690
 20
599.257020
 30
0.0
  0
SPLINE
  5
568
100
AcDbEntity
  8
1
 62
7
100
AcDbSpline
 70
8
 71
3
 72
8
 73
4
 74
0
 40
0
 40
0
 40
0
 40
0
 40
1
 40
1
 40
1
 40
1
 10
202.221690
 20
599.257020
 30
0.0
 10
202.225690
 20
604.684380
 30
0.0
 10
202.509440
 20
605.184240
 30
0.0
 10
212.830480
 20
617.956200
 30
0.0
  0
SPLINE
  5
569
100
AcDbEntity
  8
1
 62
7
100
AcDbSpline
 70
8
 71
3
 72
8
 73
4
 74
0
 40
0
 40
0
 40
0
 40
0
 40
1
 40
1
 40
1
 40
1
 10
212.830480
 20
617.956200
 30
0.0
 10
218.455570
 20
624.917080
 30
0.0
 10
220.826050
 20
627.376070
 30
0.0
 10
221.911260
 20
627.376070
 30
0.0
  0
SPLINE
  5
56a
100
AcDbEntity
  8
1
 62
7
100
AcDbSpline
 70
8
 71
3
 72
8
 73
4
 74
0
 40
0
 40
0
 40
0
 40
0
 40
1
 40
1
 40
1
 40
1
 10
221.911260
 20
627.376070
 30
0.0
 10
223.295950
 20
627.376070
 30
0.0
 10
223.403710
 20
627.004760
 30
0.0
 10
223.797530
 20
620.876070
 30
0.0
  0
SPLINE
  5
56b
100
AcDbEntity
  8
1
 62
7
100
AcDbSpline
 70
8
 71
3
 72
8
 73
4
 74
0
 40
0
 40
0
 40
0
 40
0
 40
1
 40
1
 40
1
 40
1
 10
223.797530
 20
620.876070
 30
0.0
 10
224.441170
 20
610.859950
 30
0.0
 10
223.800530
 20
593.944730
 30
0.0
 10
222.751940
 20
593.279770
 30
0.0
  0
SPLINE
  5
56c
100
AcDbEntity
  8
1
 62
7
100
AcDbSpline
 70
8
 71
3
 72
8
 73
4
 74
0
 40
0
 40
0
 40
0
 40
0
 40
1
 40
1
 40
1
 40
1
 10
222.751940
 20
593.279770
 30
0.0
 10
222.275090
 20
592.977300
 30
0.0
 10
217.931370
 20
592.725230
 30
0.0
 10
213.099230
 20
592.719610
 30
0.0
  0
SPLINE
  5
56d
100
AcDbEntity
  8
1
 62
7
100
AcDbSpline
 70
8
 71
3
 72
8
 73
4
 74
0
 40
0
 40
0
 40
0
 40
0
 40
1
 40
1
 40
1
 40
1
 10
213.099230
 20
592.719610
 30
0.0
 10
205.991420
 20
592.711610
 30
0.0
 10
204.113440
 20
592.909480
 30
0.0
 10
203.265890
 20
593.757020
 30
0.0
  0
LWPOLYLINE
  5
56e
100
AcDbEntity
  8
1
 62
7
100
AcDbPolyline
 90
5
 70
0
 10
224.037420
 20
574.177780
 30
0.0
 10
224.412220
 20
567.376070
 30
0.0
 10
229.315280
 20
567.376070
 30
0.0
 10
234.218330
 20
567.376070
 30
0.0
 10
234.218270
 20
573.995120
 30
0.0
  0
SPLINE
  5
56f
100
AcDbEntity
  8
1
 62
7
100
AcDbSpline
 70
8
 71
3
 72
8
 73
4
 74
0
 40
0
 40
0
 40
0
 40
0
 40
1
 40
1
 40
1
 40
1
 10
221.766000
 20
600.209400
 30
0.0
 10
222.212650
 20
606.811280
 30
0.0
 10
222.017290
 20
623.799280
 30
0.0
 10
221.488640
 20
624.327920
 30
0.0
  0
SPLINE
  5
570
100
AcDbEntity
  8
1
 62
7
100
AcDbSpline
 70
8
 71
3
 72
8
 73
4
 74
0
 40
0
 40
0
 40
0
 40
0
 40
1
 40
1
 40
1
 40
1
 10
221.488640
 20
624.327920
 30
0.0
 10
221.149070
 20
624.667500
 30
0.0
 10
208.196740
 20
608.929700
 30
0.0
 10
205.389330
 20
604.766370
 30
0.0
  0
SPLINE
  5
571
100
AcDbEntity
  8
1
 62
7
100
AcDbSpline
 70
8
 71
3
 72
8
 73
4
 74
0
 40
0
 40
0
 40
0
 40
0
 40
1
 40
1
 40
1
 40
1
 10
205.389330
 20
604.766370
 30
0.0
 10
204.231810
 20
603.049780
 30
0.0
 10
203.707180
 20
596.109390
 30
0.0
 10
204.662720
 20
595.153850
 30
0.0
  0
SPLINE
  5
572
100
AcDbEntity
  8
1
 62
7
100
AcDbSpline
 70
8
 71
3
 72
8
 73
4
 74
0
 40
0
 40
0
 40
0
 40
0
 40
1
 40
1
 40
1
 40
1
 10
204.662720
 20
595.153850
 30
0.0
 10
204.907160
 20
594.909400
 30
0.0
 10
208.771680
 20
594.709400
 30
0.0
 10
213.250530
 20
594.709400
 30
0.0
  0
LWPOLYLINE
  5
573
100
AcDbEntity
  8
1
 62
7
100
AcDbPolyline
 90
1
 70
1
 10
203.265890
 20
593.757020
 30
0.0
  0
SPLINE
  5
574
100
AcDbEntity
  8
1
 62
7
100
AcDbSpline
 70
8
 71
3
 72
8
 73
4
 74
0
 40
0
 40
0
 40
0
 40
0
 40
1
 40
1
 40
1
 40
1
 10
148.799390
 20
565.344630
 30
0.0
 10
139.698120
 20
567.009320
 30
0.0
 10
134.229000
 20
573.951030
 30
0.0
 10
133.673020
 20
584.543850
 30
0.0
  0
SPLINE
  5
575
100
AcDbEntity
  8
1
 62
7
100
AcDbSpline
 70
8
 71
3
 72
8
 73
4
 74
0
 40
0
 40
0
 40
0
 40
0
 40
1
 40
1
 40
1
 40
1
 10
133.673020
 20
584.543850
 30
0.0
 10
133.445970
 20
588.869660
 30
0.0
 10
133.591920
 20
590.325610
 30
0.0
 10
134.297490
 20
590.772470
 30
0.0
  0
SPLINE
  5
576
100
AcDbEntity
  8
1
 62
7
100
AcDbSpline
 70
8
 71
3
 72
8
 73
4
 74
0
 40
0
 40
0
 40
0
 40
0
 40
1
 40
1
 40
1
 40
1
 10
134.297490
 20
590.772470
 30
0.0
 10
135.719170
 20
591.672900
 30
0.0
 10
146.482560
 20
591.511780
 30
0.0
 10
147.418270
 20
590.576070
 30
0.0
  0
SPLINE
  5
577
100
AcDbEntity
  8
1
 62
7
100
AcDbSpline
 70
8
 71
3
 72
8
 73
4
 74
0
 40
0
 40
0
 40
0
 40
0
 40
1
 40
1
 40
1
 40
1
 10
147.418270
 20
590.576070
 30
0.0
 10
147.858270
 20
590.136070
 30
0.0
 10
148.218270
 20
588.036070
 30
0.0
 10
148.218270
 20
585.909400
 30
0.0
  0
SPLINE
  5
578
100
AcDbEntity
  8
1
 62
7
100
AcDbSpline
 70
8
 71
3
 72
8
 73
4
 74
0
 40
0
 40
0
 40
0
 40
0
 40
1
 40
1
 40
1
 40
1
 10
148.218270
 20
585.909400
 30
0.0
 10
148.218270
 20
579.824020
 30
0.0
 10
148.975480
 20
579.376070
 30
0.0
 10
159.262100
 20
579.376070
 30
0.0
  0
SPLINE
  5
579
100
AcDbEntity
  8
1
 62
7
100
AcDbSpline
 70
8
 71
3
 72
8
 73
4
 74
0
 40
0
 40
0
 40
0
 40
0
 40
1
 40
1
 40
1
 40
1
 10
159.262100
 20
579.376070
 30
0.0
 10
163.869540
 20
579.376070
 30
0.0
 10
168.195510
 20
579.673770
 30
0.0
 10
168.875380
 20
580.037620
 30
0.0
  0
SPLINE
  5
57a
100
AcDbEntity
  8
1
 62
7
100
AcDbSpline
 70
8
 71
3
 72
8
 73
4
 74
0
 40
0
 40
0
 40
0
 40
0
 40
1
 40
1
 40
1
 40
1
 10
168.875380
 20
580.037620
 30
0.0
 10
170.819880
 20
581.078290
 30
0.0
 10
171.517630
 20
584.473980
 30
0.0
 10
171.362180
 20
592.140100
 30
0.0
  0
SPLINE
  5
57b
100
AcDbEntity
  8
1
 62
7
100
AcDbSpline
 70
8
 71
3
 72
8
 73
4
 74
0
 40
0
 40
0
 40
0
 40
0
 40
1
 40
1
 40
1
 40
1
 10
171.362180
 20
592.140100
 30
0.0
 10
171.162800
 20
601.973420
 30
0.0
 10
171.093320
 20
602.039550
 30
0.0
 10
160.948280
 20
602.052950
 30
0.0
  0
SPLINE
  5
57c
100
AcDbEntity
  8
1
 62
7
100
AcDbSpline
 70
8
 71
3
 72
8
 73
4
 74
0
 40
0
 40
0
 40
0
 40
0
 40
1
 40
1
 40
1
 40
1
 10
160.948280
 20
602.052950
 30
0.0
 10
156.696780
 20
602.058950
 30
0.0
 10
152.831800
 20
602.308350
 30
0.0
 10
152.359450
 20
602.608040
 30
0.0
  0
SPLINE
  5
57d
100
AcDbEntity
  8
1
 62
7
100
AcDbSpline
 70
8
 71
3
 72
8
 73
4
 74
0
 40
0
 40
0
 40
0
 40
0
 40
1
 40
1
 40
1
 40
1
 10
152.359450
 20
602.608040
 30
0.0
 10
151.730720
 20
603.006950
 30
0.0
 10
151.552110
 20
604.924280
 30
0.0
 10
151.692790
 20
609.764500
 30
0.0
  0
LWPOLYLINE
  5
57e
100
AcDbEntity
  8
1
 62
7
100
AcDbPolyline
 90
3
 70
0
 10
213.250530
 20
594.709400
 30
0.0
 10
221.393900
 20
594.709400
 30
0.0
 10
221.766000
 20
600.209400
 30
0.0
  0
SPLINE
  5
57f
100
AcDbEntity
  8
1
 62
7
100
AcDbSpline
 70
8
 71
3
 72
8
 73
4
 74
0
 40
0
 40
0
 40
0
 40
0
 40
1
 40
1
 40
1
 40
1
 10
159.884940
 20
616.730620
 30
0.0
 10
164.284940
 20
616.925620
 30
0.0
 10
168.395430
 20
617.327150
 30
0.0
 10
169.019360
 20
617.622900
 30
0.0
  0
SPLINE
  5
580
100
AcDbEntity
  8
1
 62
7
100
AcDbSpline
 70
8
 71
3
 72
8
 73
4
 74
0
 40
0
 40
0
 40
0
 40
0
 40
1
 40
1
 40
1
 40
1
 10
169.019360
 20
617.622900
 30
0.0
 10
170.846800
 20
618.489140
 30
0.0
 10
171.767780
 20
622.437500
 30
0.0
 10
171.338050
 20
627.563370
 30
0.0
  0
SPLINE
  5
581
100
AcDbEntity
  8
1
 62
7
100
AcDbSpline
 70
8
 71
3
 72
8
 73
4
 74
0
 40
0
 40
0
 40
0
 40
0
 40
1
 40
1
 40
1
 40
1
 10
171.338050
 20
627.563370
 30
0.0
 10
170.748700
 20
634.593150
 30
0.0
 10
170.555890
 20
634.709400
 30
0.0
 10
159.486080
 20
634.709400
 30
0.0
  0
SPLINE
  5
582
100
AcDbEntity
  8
1
 62
7
100
AcDbSpline
 70
8
 71
3
 72
8
 73
4
 74
0
 40
0
 40
0
 40
0
 40
0
 40
1
 40
1
 40
1
 40
1
 10
159.486080
 20
634.709400
 30
0.0
 10
150.742860
 20
634.709400
 30
0.0
 10
150.243190
 20
634.637000
 30
0.0
 10
149.256080
 20
633.227730
 30
0.0
  0
SPLINE
  5
583
100
AcDbEntity
  8
1
 62
7
100
AcDbSpline
 70
8
 71
3
 72
8
 73
4
 74
0
 40
0
 40
0
 40
0
 40
0
 40
1
 40
1
 40
1
 40
1
 10
149.256080
 20
633.227730
 30
0.0
 10
148.685280
 20
632.412810
 30
0.0
 10
148.218270
 20
630.487350
 30
0.0
 10
148.218270
 20
628.948920
 30
0.0
  0
SPLINE
  5
584
100
AcDbEntity
  8
1
 62
7
100
AcDbSpline
 70
8
 71
3
 72
8
 73
4
 74
0
 40
0
 40
0
 40
0
 40
0
 40
1
 40
1
 40
1
 40
1
 10
148.218270
 20
628.948920
 30
0.0
 10
148.218270
 20
624.031190
 30
0.0
 10
148.236670
 20
624.042740
 30
0.0
 10
140.398730
 20
624.042740
 30
0.0
  0
LWPOLYLINE
  5
585
100
AcDbEntity
  8
1
 62
7
100
AcDbPolyline
 90
3
 70
0
 10
151.692790
 20
609.764500
 30
0.0
 10
151.884940
 20
616.376070
 30
0.0
 10
159.884940
 20
616.730620
 30
0.0
  0
SPLINE
  5
586
100
AcDbEntity
  8
1
 62
7
100
AcDbSpline
 70
8
 71
3
 72
8
 73
4
 74
0
 40
0
 40
0
 40
0
 40
0
 40
1
 40
1
 40
1
 40
1
 10
133.685290
 20
629.876070
 30
0.0
 10
134.138740
 20
638.789080
 30
0.0
 10
137.084430
 20
643.621400
 30
0.0
 10
144.473960
 20
647.574600
 30
0.0
  0
SPLINE
  5
587
100
AcDbEntity
  8
1
 62
7
100
AcDbSpline
 70
8
 71
3
 72
8
 73
4
 74
0
 40
0
 40
0
 40
0
 40
0
 40
1
 40
1
 40
1
 40
1
 10
144.473960
 20
647.574600
 30
0.0
 10
147.018510
 20
648.935870
 30
0.0
 10
148.116020
 20
649.042740
 30
0.0
 10
159.551610
 20
649.042740
 30
0.0
  0
LWPOLYLINE
  5
588
100
AcDbEntity
  8
1
 62
7
100
AcDbPolyline
 90
3
 70
0
 10
140.398730
 20
624.042740
 30
0.0
 10
133.388510
 20
624.042740
 30
0.0
 10
133.685290
 20
629.876070
 30
0.0
  0
SPLINE
  5
589
100
AcDbEntity
  8
1
 62
7
100
AcDbSpline
 70
8
 71
3
 72
8
 73
4
 74
0
 40
0
 40
0
 40
0
 40
0
 40
1
 40
1
 40
1
 40
1
 10
175.457470
 20
647.063970
 30
0.0
 10
183.439080
 20
642.643100
 30
0.0
 10
185.786080
 20
637.342180
 30
0.0
 10
185.438830
 20
624.520090
 30
0.0
  0
SPLINE
  5
58a
100
AcDbEntity
  8
1
 62
7
100
AcDbSpline
 70
8
 71
3
 72
8
 73
4
 74
0
 40
0
 40
0
 40
0
 40
0
 40
1
 40
1
 40
1
 40
1
 10
185.438830
 20
624.520090
 30
0.0
 10
185.246800
 20
617.429370
 30
0.0
 10
185.002720
 20
615.944960
 30
0.0
 10
183.551610
 20
613.042740
 30
0.0
  0
LWPOLYLINE
  5
58b
100
AcDbEntity
  8
1
 62
7
100
AcDbPolyline
 90
3
 70
0
 10
159.551610
 20
649.042740
 30
0.0
 10
171.884940
 20
649.042740
 30
0.0
 10
175.457470
 20
647.063970
 30
0.0
  0
SPLINE
  5
58c
100
AcDbEntity
  8
1
 62
7
100
AcDbSpline
 70
8
 71
3
 72
8
 73
4
 74
0
 40
0
 40
0
 40
0
 40
0
 40
1
 40
1
 40
1
 40
1
 10
183.551610
 20
606.377560
 30
0.0
 10
185.149280
 20
603.183640
 30
0.0
 10
185.218270
 20
602.535100
 30
0.0
 10
185.218270
 20
590.710890
 30
0.0
  0
LWPOLYLINE
  5
58d
100
AcDbEntity
  8
1
 62
7
100
AcDbPolyline
 90
3
 70
0
 10
183.551610
 20
613.042740
 30
0.0
 10
181.884940
 20
609.709400
 30
0.0
 10
183.551610
 20
606.377560
 30
0.0
  0
SPLINE
  5
58e
100
AcDbEntity
  8
1
 62
7
100
AcDbSpline
 70
8
 71
3
 72
8
 73
4
 74
0
 40
0
 40
0
 40
0
 40
0
 40
1
 40
1
 40
1
 40
1
 10
183.252300
 20
574.827040
 30
0.0
 10
181.117820
 20
570.973810
 30
0.0
 10
177.799780
 20
567.978000
 30
0.0
 10
173.777070
 20
566.272000
 30
0.0
  0
SPLINE
  5
58f
100
AcDbEntity
  8
1
 62
7
100
AcDbSpline
 70
8
 71
3
 72
8
 73
4
 74
0
 40
0
 40
0
 40
0
 40
0
 40
1
 40
1
 40
1
 40
1
 10
173.777070
 20
566.272000
 30
0.0
 10
170.824460
 20
565.019820
 30
0.0
 10
153.991990
 20
564.394860
 30
0.0
 10
148.799390
 20
565.344630
 30
0.0
  0
LWPOLYLINE
  5
590
100
AcDbEntity
  8
1
 62
7
100
AcDbPolyline
 90
3
 70
0
 10
185.218270
 20
590.710890
 30
0.0
 10
185.218270
 20
578.376070
 30
0.0
 10
183.252300
 20
574.827040
 30
0.0
  0
SPLINE
  5
591
100
AcDbEntity
  8
1
 62
7
100
AcDbSpline
 70
8
 71
3
 72
8
 73
4
 74
0
 40
0
 40
0
 40
0
 40
0
 40
1
 40
1
 40
1
 40
1
 10
173.912180
 20
568.953980
 30
0.0
 10
177.718910
 20
570.726630
 30
0.0
 10
180.497390
 20
573.694750
 30
0.0
 10
182.311260
 20
577.926330
 30
0.0
  0
SPLINE
  5
592
100
AcDbEntity
  8
1
 62
7
100
AcDbSpline
 70
8
 71
3
 72
8
 73
4
 74
0
 40
0
 40
0
 40
0
 40
0
 40
1
 40
1
 40
1
 40
1
 10
182.311260
 20
577.926330
 30
0.0
 10
183.339980
 20
580.326240
 30
0.0
 10
183.551610
 20
582.555420
 30
0.0
 10
183.551610
 20
590.991530
 30
0.0
  0
SPLINE
  5
593
100
AcDbEntity
  8
1
 62
7
100
AcDbSpline
 70
8
 71
3
 72
8
 73
4
 74
0
 40
0
 40
0
 40
0
 40
0
 40
1
 40
1
 40
1
 40
1
 10
183.551610
 20
590.991530
 30
0.0
 10
183.551610
 20
601.062300
 30
0.0
 10
183.530810
 20
601.204670
 30
0.0
 10
181.456240
 20
605.356300
 30
0.0
  0
LWPOLYLINE
  5
594
100
AcDbEntity
  8
1
 62
7
100
AcDbPolyline
 90
1
 70
1
 10
148.799390
 20
565.344630
 30
0.0
  0
SPLINE
  5
595
100
AcDbEntity
  8
1
 62
7
100
AcDbSpline
 70
8
 71
3
 72
8
 73
4
 74
0
 40
0
 40
0
 40
0
 40
0
 40
1
 40
1
 40
1
 40
1
 10
181.289570
 20
613.296120
 30
0.0
 10
183.040430
 20
616.697260
 30
0.0
 10
183.238970
 20
617.772970
 30
0.0
 10
183.442730
 20
624.961900
 30
0.0
  0
SPLINE
  5
596
100
AcDbEntity
  8
1
 62
7
100
AcDbSpline
 70
8
 71
3
 72
8
 73
4
 74
0
 40
0
 40
0
 40
0
 40
0
 40
1
 40
1
 40
1
 40
1
 10
183.442730
 20
624.961900
 30
0.0
 10
183.706510
 20
634.268060
 30
0.0
 10
182.848800
 20
637.331900
 30
0.0
 10
178.728490
 20
641.801920
 30
0.0
  0
SPLINE
  5
597
100
AcDbEntity
  8
1
 62
7
100
AcDbSpline
 70
8
 71
3
 72
8
 73
4
 74
0
 40
0
 40
0
 40
0
 40
0
 40
1
 40
1
 40
1
 40
1
 10
178.728490
 20
641.801920
 30
0.0
 10
174.595390
 20
646.285800
 30
0.0
 10
171.777500
 20
647.042740
 30
0.0
 10
159.218270
 20
647.042740
 30
0.0
  0
SPLINE
  5
598
100
AcDbEntity
  8
1
 62
7
100
AcDbSpline
 70
8
 71
3
 72
8
 73
4
 74
0
 40
0
 40
0
 40
0
 40
0
 40
1
 40
1
 40
1
 40
1
 10
159.218270
 20
647.042740
 30
0.0
 10
149.410710
 20
647.042740
 30
0.0
 10
148.298920
 20
646.918280
 30
0.0
 10
145.414240
 20
645.497450
 30
0.0
  0
SPLINE
  5
599
100
AcDbEntity
  8
1
 62
7
100
AcDbSpline
 70
8
 71
3
 72
8
 73
4
 74
0
 40
0
 40
0
 40
0
 40
0
 40
1
 40
1
 40
1
 40
1
 10
145.414240
 20
645.497450
 30
0.0
 10
139.302760
 20
642.487290
 30
0.0
 10
135.590600
 20
636.473220
 30
0.0
 10
135.566250
 20
629.542740
 30
0.0
  0
LWPOLYLINE
  5
59a
100
AcDbEntity
  8
1
 62
7
100
AcDbPolyline
 90
3
 70
0
 10
181.456240
 20
605.356300
 30
0.0
 10
179.360880
 20
609.549500
 30
0.0
 10
181.289570
 20
613.296120
 30
0.0
  0
SPLINE
  5
59b
100
AcDbEntity
  8
1
 62
7
100
AcDbSpline
 70
8
 71
3
 72
8
 73
4
 74
0
 40
0
 40
0
 40
0
 40
0
 40
1
 40
1
 40
1
 40
1
 10
145.551650
 20
627.943250
 30
0.0
 10
145.551650
 20
631.606590
 30
0.0
 10
146.707830
 20
634.436090
 30
0.0
 10
148.768190
 20
635.815060
 30
0.0
  0
SPLINE
  5
59c
100
AcDbEntity
  8
1
 62
7
100
AcDbSpline
 70
8
 71
3
 72
8
 73
4
 74
0
 40
0
 40
0
 40
0
 40
0
 40
1
 40
1
 40
1
 40
1
 10
148.768190
 20
635.815060
 30
0.0
 10
150.138920
 20
636.732460
 30
0.0
 10
152.251720
 20
637.066720
 30
0.0
 10
157.897980
 20
637.259450
 30
0.0
  0
SPLINE
  5
59d
100
AcDbEntity
  8
1
 62
7
100
AcDbSpline
 70
8
 71
3
 72
8
 73
4
 74
0
 40
0
 40
0
 40
0
 40
0
 40
1
 40
1
 40
1
 40
1
 10
157.897980
 20
637.259450
 30
0.0
 10
171.414880
 20
637.720840
 30
0.0
 10
173.544900
 20
636.117200
 30
0.0
 10
173.549150
 20
625.476070
 30
0.0
  0
SPLINE
  5
59e
100
AcDbEntity
  8
1
 62
7
100
AcDbSpline
 70
8
 71
3
 72
8
 73
4
 74
0
 40
0
 40
0
 40
0
 40
0
 40
1
 40
1
 40
1
 40
1
 10
173.549150
 20
625.476070
 30
0.0
 10
173.551150
 20
619.274740
 30
0.0
 10
173.540150
 20
619.231100
 30
0.0
 10
171.284980
 20
616.976070
 30
0.0
  0
LWPOLYLINE
  5
59f
100
AcDbEntity
  8
1
 62
7
100
AcDbPolyline
 90
5
 70
0
 10
135.566250
 20
629.542740
 30
0.0
 10
135.551650
 20
625.376070
 30
0.0
 10
140.551650
 20
625.376070
 30
0.0
 10
145.551650
 20
625.376070
 30
0.0
 10
145.551650
 20
627.943250
 30
0.0
  0
SPLINE
  5
5a0
100
AcDbEntity
  8
1
 62
7
100
AcDbSpline
 70
8
 71
3
 72
8
 73
4
 74
0
 40
0
 40
0
 40
0
 40
0
 40
1
 40
1
 40
1
 40
1
 10
161.081560
 20
604.614270
 30
0.0
 10
172.743670
 20
604.244070
 30
0.0
 10
173.551610
 20
603.337520
 30
0.0
 10
173.551610
 20
590.622180
 30
0.0
  0
SPLINE
  5
5a1
100
AcDbEntity
  8
1
 62
7
100
AcDbSpline
 70
8
 71
3
 72
8
 73
4
 74
0
 40
0
 40
0
 40
0
 40
0
 40
1
 40
1
 40
1
 40
1
 10
173.551610
 20
590.622180
 30
0.0
 10
173.551610
 20
578.009910
 30
0.0
 10
172.944530
 20
577.429140
 30
0.0
 10
159.728790
 20
577.398250
 30
0.0
  0
LWPOLYLINE
  5
5a2
100
AcDbEntity
  8
1
 62
7
100
AcDbPolyline
 90
7
 70
0
 10
171.284980
 20
616.976070
 30
0.0
 10
169.018270
 20
614.709400
 30
0.0
 10
161.284940
 20
614.709400
 30
0.0
 10
153.551610
 20
614.709400
 30
0.0
 10
153.551610
 20
609.781350
 30
0.0
 10
153.551610
 20
604.853300
 30
0.0
 10
161.081560
 20
604.614270
 30
0.0
  0
SPLINE
  5
5a3
100
AcDbEntity
  8
1
 62
7
100
AcDbSpline
 70
8
 71
3
 72
8
 73
4
 74
0
 40
0
 40
0
 40
0
 40
0
 40
1
 40
1
 40
1
 40
1
 10
148.111830
 20
579.276950
 30
0.0
 10
146.251680
 20
580.939000
 30
0.0
 10
145.947100
 20
581.692910
 30
0.0
 10
145.687850
 20
585.276950
 30
0.0
  0
LWPOLYLINE
  5
5a4
100
AcDbEntity
  8
1
 62
7
100
AcDbPolyline
 90
3
 70
0
 10
159.728790
 20
577.398250
 30
0.0
 10
150.239310
 20
577.376050
 30
0.0
 10
148.111830
 20
579.276950
 30
0.0
  0
SPLINE
  5
5a5
100
AcDbEntity
  8
1
 62
7
100
AcDbSpline
 70
8
 71
3
 72
8
 73
4
 74
0
 40
0
 40
0
 40
0
 40
0
 40
1
 40
1
 40
1
 40
1
 10
135.649930
 20
584.102030
 30
0.0
 10
135.871630
 20
579.220120
 30
0.0
 10
136.087530
 20
578.540780
 30
0.0
 10
138.553850
 20
574.964820
 30
0.0
  0
SPLINE
  5
5a6
100
AcDbEntity
  8
1
 62
7
100
AcDbSpline
 70
8
 71
3
 72
8
 73
4
 74
0
 40
0
 40
0
 40
0
 40
0
 40
1
 40
1
 40
1
 40
1
 10
138.553850
 20
574.964820
 30
0.0
 10
140.505580
 20
572.134990
 30
0.0
 10
142.174840
 20
570.603360
 30
0.0
 10
144.794400
 20
569.238840
 30
0.0
  0
SPLINE
  5
5a7
100
AcDbEntity
  8
1
 62
7
100
AcDbSpline
 70
8
 71
3
 72
8
 73
4
 74
0
 40
0
 40
0
 40
0
 40
0
 40
1
 40
1
 40
1
 40
1
 10
144.794400
 20
569.238840
 30
0.0
 10
148.292840
 20
567.416520
 30
0.0
 10
148.611460
 20
567.376190
 30
0.0
 10
159.461070
 20
567.382560
 30
0.0
  0
SPLINE
  5
5a8
100
AcDbEntity
  8
1
 62
7
100
AcDbSpline
 70
8
 71
3
 72
8
 73
4
 74
0
 40
0
 40
0
 40
0
 40
0
 40
1
 40
1
 40
1
 40
1
 10
159.461070
 20
567.382560
 30
0.0
 10
169.692150
 20
567.388560
 30
0.0
 10
170.812030
 20
567.510350
 30
0.0
 10
173.912180
 20
568.953960
 30
0.0
  0
LWPOLYLINE
  5
5a9
100
AcDbEntity
  8
1
 62
7
100
AcDbPolyline
 90
5
 70
0
 10
145.687850
 20
585.276950
 30
0.0
 10
145.391350
 20
589.376050
 30
0.0
 10
140.400890
 20
589.376050
 30
0.0
 10
135.410430
 20
589.376050
 30
0.0
 10
135.649930
 20
584.102030
 30
0.0
  0
SPLINE
  5
5aa
100
AcDbEntity
  8
1
 62
7
100
AcDbSpline
 70
8
 71
3
 72
8
 73
4
 74
0
 40
0
 40
0
 40
0
 40
0
 40
1
 40
1
 40
1
 40
1
 10
79.018269
 20
565.509400
 30
0.0
 10
78.495685
 20
566.031990
 30
0.0
 10
78.218269
 20
568.784280
 30
0.0
 10
78.218269
 20
573.446330
 30
0.0
  0
SPLINE
  5
5ab
100
AcDbEntity
  8
1
 62
7
100
AcDbSpline
 70
8
 71
3
 72
8
 73
4
 74
0
 40
0
 40
0
 40
0
 40
0
 40
1
 40
1
 40
1
 40
1
 10
78.218269
 20
573.446330
 30
0.0
 10
78.218269
 20
581.908130
 30
0.0
 10
76.234288
 20
578.917520
 30
0.0
 10
96.390498
 20
600.838730
 30
0.0
  0
SPLINE
  5
5ac
100
AcDbEntity
  8
1
 62
7
100
AcDbSpline
 70
8
 71
3
 72
8
 73
4
 74
0
 40
0
 40
0
 40
0
 40
0
 40
1
 40
1
 40
1
 40
1
 10
96.390498
 20
600.838730
 30
0.0
 10
116.592830
 20
622.810080
 30
0.0
 10
116.161730
 20
622.168200
 30
0.0
 10
115.379120
 20
629.111440
 30
0.0
  0
SPLINE
  5
5ad
100
AcDbEntity
  8
1
 62
7
100
AcDbSpline
 70
8
 71
3
 72
8
 73
4
 74
0
 40
0
 40
0
 40
0
 40
0
 40
1
 40
1
 40
1
 40
1
 10
115.379120
 20
629.111440
 30
0.0
 10
114.794550
 20
634.297760
 30
0.0
 10
113.973840
 20
634.709400
 30
0.0
 10
104.218270
 20
634.709400
 30
0.0
  0
SPLINE
  5
5ae
100
AcDbEntity
  8
1
 62
7
100
AcDbSpline
 70
8
 71
3
 72
8
 73
4
 74
0
 40
0
 40
0
 40
0
 40
0
 40
1
 40
1
 40
1
 40
1
 10
104.218270
 20
634.709400
 30
0.0
 10
93.723798
 20
634.709400
 30
0.0
 10
93.385938
 20
634.473890
 30
0.0
 10
92.884938
 20
626.809040
 30
0.0
  0
LWPOLYLINE
  5
5af
100
AcDbEntity
  8
1
 62
7
100
AcDbPolyline
 90
1
 70
1
 10
173.912180
 20
568.953960
 30
0.0
  0
SPLINE
  5
5b0
100
AcDbEntity
  8
1
 62
7
100
AcDbSpline
 70
8
 71
3
 72
8
 73
4
 74
0
 40
0
 40
0
 40
0
 40
0
 40
1
 40
1
 40
1
 40
1
 10
86.087745
 20
621.519030
 30
0.0
 10
80.438885
 20
621.352660
 30
0.0
 10
79.547004
 20
621.478730
 30
0.0
 10
79.014116
 20
622.519030
 30
0.0
  0
SPLINE
  5
5b1
100
AcDbEntity
  8
1
 62
7
100
AcDbSpline
 70
8
 71
3
 72
8
 73
4
 74
0
 40
0
 40
0
 40
0
 40
0
 40
1
 40
1
 40
1
 40
1
 10
79.014116
 20
622.519030
 30
0.0
 10
77.561983
 20
625.353830
 30
0.0
 10
78.641294
 20
634.978170
 30
0.0
 10
80.910050
 20
639.425300
 30
0.0
  0
SPLINE
  5
5b2
100
AcDbEntity
  8
1
 62
7
100
AcDbSpline
 70
8
 71
3
 72
8
 73
4
 74
0
 40
0
 40
0
 40
0
 40
0
 40
1
 40
1
 40
1
 40
1
 10
80.910050
 20
639.425300
 30
0.0
 10
82.802719
 20
643.135240
 30
0.0
 10
87.854991
 20
647.233220
 30
0.0
 10
92.033947
 20
648.448070
 30
0.0
  0
SPLINE
  5
5b3
100
AcDbEntity
  8
1
 62
7
100
AcDbSpline
 70
8
 71
3
 72
8
 73
4
 74
0
 40
0
 40
0
 40
0
 40
0
 40
1
 40
1
 40
1
 40
1
 10
92.033947
 20
648.448070
 30
0.0
 10
94.792438
 20
649.249990
 30
0.0
 10
97.996458
 20
649.441510
 30
0.0
 10
105.758730
 20
649.268470
 30
0.0
  0
SPLINE
  5
5b4
100
AcDbEntity
  8
1
 62
7
100
AcDbSpline
 70
8
 71
3
 72
8
 73
4
 74
0
 40
0
 40
0
 40
0
 40
0
 40
1
 40
1
 40
1
 40
1
 10
105.758730
 20
649.268470
 30
0.0
 10
115.657410
 20
649.047810
 30
0.0
 10
115.967330
 20
648.996320
 30
0.0
 10
119.551610
 20
646.976880
 30
0.0
  0
SPLINE
  5
5b5
100
AcDbEntity
  8
1
 62
7
100
AcDbSpline
 70
8
 71
3
 72
8
 73
4
 74
0
 40
0
 40
0
 40
0
 40
0
 40
1
 40
1
 40
1
 40
1
 10
119.551610
 20
646.976880
 30
0.0
 10
123.801590
 20
644.582380
 30
0.0
 10
127.734740
 20
639.817520
 30
0.0
 10
128.901670
 20
635.649630
 30
0.0
  0
SPLINE
  5
5b6
100
AcDbEntity
  8
1
 62
7
100
AcDbSpline
 70
8
 71
3
 72
8
 73
4
 74
0
 40
0
 40
0
 40
0
 40
0
 40
1
 40
1
 40
1
 40
1
 10
128.901670
 20
635.649630
 30
0.0
 10
129.385450
 20
633.921750
 30
0.0
 10
129.604000
 20
629.941120
 30
0.0
 10
129.454310
 20
625.583760
 30
0.0
  0
SPLINE
  5
5b7
100
AcDbEntity
  8
1
 62
7
100
AcDbSpline
 70
8
 71
3
 72
8
 73
4
 74
0
 40
0
 40
0
 40
0
 40
0
 40
1
 40
1
 40
1
 40
1
 10
129.454310
 20
625.583760
 30
0.0
 10
129.134800
 20
616.282570
 30
0.0
 10
127.794750
 20
613.503310
 30
0.0
 10
119.041470
 20
603.987560
 30
0.0
  0
SPLINE
  5
5b8
100
AcDbEntity
  8
1
 62
7
100
AcDbSpline
 70
8
 71
3
 72
8
 73
4
 74
0
 40
0
 40
0
 40
0
 40
0
 40
1
 40
1
 40
1
 40
1
 10
119.041470
 20
603.987560
 30
0.0
 10
101.981470
 20
585.441500
 30
0.0
 10
97.551598
 20
580.489900
 30
0.0
 10
97.551598
 20
579.966680
 30
0.0
  0
SPLINE
  5
5b9
100
AcDbEntity
  8
1
 62
7
100
AcDbSpline
 70
8
 71
3
 72
8
 73
4
 74
0
 40
0
 40
0
 40
0
 40
0
 40
1
 40
1
 40
1
 40
1
 10
97.551598
 20
579.966680
 30
0.0
 10
97.551598
 20
579.655120
 30
0.0
 10
104.676610
 20
579.319770
 30
0.0
 10
113.384940
 20
579.221470
 30
0.0
  0
LWPOLYLINE
  5
5ba
100
AcDbEntity
  8
1
 62
7
100
AcDbPolyline
 90
3
 70
0
 10
92.884938
 20
626.809040
 30
0.0
 10
92.551598
 20
621.709400
 30
0.0
 10
86.087745
 20
621.519030
 30
0.0
  0
SPLINE
  5
5bb
100
AcDbEntity
  8
1
 62
7
100
AcDbSpline
 70
8
 71
3
 72
8
 73
4
 74
0
 40
0
 40
0
 40
0
 40
0
 40
1
 40
1
 40
1
 40
1
 10
129.410430
 20
572.431170
 30
0.0
 10
129.551100
 20
567.590950
 30
0.0
 10
129.372530
 20
565.673610
 30
0.0
 10
128.743760
 20
565.274710
 30
0.0
  0
SPLINE
  5
5bc
100
AcDbEntity
  8
1
 62
7
100
AcDbSpline
 70
8
 71
3
 72
8
 73
4
 74
0
 40
0
 40
0
 40
0
 40
0
 40
1
 40
1
 40
1
 40
1
 10
128.743760
 20
565.274710
 30
0.0
 10
127.288600
 20
564.351470
 30
0.0
 10
79.952789
 20
564.574880
 30
0.0
 10
79.018269
 20
565.509400
 30
0.0
  0
LWPOLYLINE
  5
5bd
100
AcDbEntity
  8
1
 62
7
100
AcDbPolyline
 90
3
 70
0
 10
113.384940
 20
579.221470
 30
0.0
 10
129.218270
 20
579.042740
 30
0.0
 10
129.410430
 20
572.431170
 30
0.0
  0
LWPOLYLINE
  5
5be
100
AcDbEntity
  8
1
 62
7
100
AcDbPolyline
 90
1
 70
1
 10
79.018269
 20
565.509400
 30
0.0
  0
SPLINE
  5
5bf
100
AcDbEntity
  8
1
 62
7
100
AcDbSpline
 70
8
 71
3
 72
8
 73
4
 74
0
 40
0
 40
0
 40
0
 40
0
 40
1
 40
1
 40
1
 40
1
 10
95.707738
 20
579.709400
 30
0.0
 10
95.551128
 20
581.476990
 30
0.0
 10
97.198398
 20
583.530000
 30
0.0
 10
109.882880
 20
597.376070
 30
0.0
  0
SPLINE
  5
5c0
100
AcDbEntity
  8
1
 62
7
100
AcDbSpline
 70
8
 71
3
 72
8
 73
4
 74
0
 40
0
 40
0
 40
0
 40
0
 40
1
 40
1
 40
1
 40
1
 10
109.882880
 20
597.376070
 30
0.0
 10
117.782920
 20
605.999560
 30
0.0
 10
124.874410
 20
614.351310
 30
0.0
 10
125.657030
 20
615.953490
 30
0.0
  0
SPLINE
  5
5c1
100
AcDbEntity
  8
1
 62
7
100
AcDbSpline
 70
8
 71
3
 72
8
 73
4
 74
0
 40
0
 40
0
 40
0
 40
0
 40
1
 40
1
 40
1
 40
1
 10
125.657030
 20
615.953490
 30
0.0
 10
126.677140
 20
618.041870
 30
0.0
 10
127.169410
 20
620.595840
 30
0.0
 10
127.399420
 20
624.993240
 30
0.0
  0
SPLINE
  5
5c2
100
AcDbEntity
  8
1
 62
7
100
AcDbSpline
 70
8
 71
3
 72
8
 73
4
 74
0
 40
0
 40
0
 40
0
 40
0
 40
1
 40
1
 40
1
 40
1
 10
127.399420
 20
624.993240
 30
0.0
 10
127.818210
 20
632.999670
 30
0.0
 10
126.532790
 20
637.674740
 30
0.0
 10
122.798810
 20
641.725620
 30
0.0
  0
SPLINE
  5
5c3
100
AcDbEntity
  8
1
 62
7
100
AcDbSpline
 70
8
 71
3
 72
8
 73
4
 74
0
 40
0
 40
0
 40
0
 40
0
 40
1
 40
1
 40
1
 40
1
 10
122.798810
 20
641.725620
 30
0.0
 10
118.672930
 20
646.201680
 30
0.0
 10
115.733870
 20
647.042740
 30
0.0
 10
104.218270
 20
647.042740
 30
0.0
  0
SPLINE
  5
5c4
100
AcDbEntity
  8
1
 62
7
100
AcDbSpline
 70
8
 71
3
 72
8
 73
4
 74
0
 40
0
 40
0
 40
0
 40
0
 40
1
 40
1
 40
1
 40
1
 10
104.218270
 20
647.042740
 30
0.0
 10
92.641318
 20
647.042740
 30
0.0
 10
89.772632
 20
646.211460
 30
0.0
 10
85.553362
 20
641.634090
 30
0.0
  0
SPLINE
  5
5c5
100
AcDbEntity
  8
1
 62
7
100
AcDbSpline
 70
8
 71
3
 72
8
 73
4
 74
0
 40
0
 40
0
 40
0
 40
0
 40
1
 40
1
 40
1
 40
1
 10
85.553362
 20
641.634090
 30
0.0
 10
81.774231
 20
637.534220
 30
0.0
 10
80.884936
 20
635.076260
 30
0.0
 10
80.884936
 20
628.730820
 30
0.0
  0
LWPOLYLINE
  5
5c6
100
AcDbEntity
  8
1
 62
7
100
AcDbPolyline
 90
5
 70
0
 10
127.551610
 20
572.364010
 30
0.0
 10
127.551610
 20
577.351940
 30
0.0
 10
111.718270
 20
577.530670
 30
0.0
 10
95.884938
 20
577.709400
 30
0.0
 10
95.707738
 20
579.709400
 30
0.0
  0
SPLINE
  5
5c7
100
AcDbEntity
  8
1
 62
7
100
AcDbSpline
 70
8
 71
3
 72
8
 73
4
 74
0
 40
0
 40
0
 40
0
 40
0
 40
1
 40
1
 40
1
 40
1
 10
90.894736
 20
627.542740
 30
0.0
 10
90.913666
 20
635.554880
 30
0.0
 10
93.378958
 20
637.374000
 30
0.0
 10
104.218270
 20
637.374000
 30
0.0
  0
SPLINE
  5
5c8
100
AcDbEntity
  8
1
 62
7
100
AcDbSpline
 70
8
 71
3
 72
8
 73
4
 74
0
 40
0
 40
0
 40
0
 40
0
 40
1
 40
1
 40
1
 40
1
 10
104.218270
 20
637.374000
 30
0.0
 10
112.916800
 20
637.374000
 30
0.0
 10
115.441210
 20
636.369360
 30
0.0
 10
116.776880
 20
632.376070
 30
0.0
  0
SPLINE
  5
5c9
100
AcDbEntity
  8
1
 62
7
100
AcDbSpline
 70
8
 71
3
 72
8
 73
4
 74
0
 40
0
 40
0
 40
0
 40
0
 40
1
 40
1
 40
1
 40
1
 10
116.776880
 20
632.376070
 30
0.0
 10
117.830210
 20
629.226910
 30
0.0
 10
117.483190
 20
622.433370
 30
0.0
 10
116.138410
 20
619.877000
 30
0.0
  0
SPLINE
  5
5ca
100
AcDbEntity
  8
1
 62
7
100
AcDbSpline
 70
8
 71
3
 72
8
 73
4
 74
0
 40
0
 40
0
 40
0
 40
0
 40
1
 40
1
 40
1
 40
1
 10
116.138410
 20
619.877000
 30
0.0
 10
115.632330
 20
618.914960
 30
0.0
 10
108.283190
 20
610.533700
 30
0.0
 10
99.806968
 20
601.251960
 30
0.0
  0
SPLINE
  5
5cb
100
AcDbEntity
  8
1
 62
7
100
AcDbSpline
 70
8
 71
3
 72
8
 73
4
 74
0
 40
0
 40
0
 40
0
 40
0
 40
1
 40
1
 40
1
 40
1
 10
99.806968
 20
601.251960
 30
0.0
 10
78.579634
 20
578.007320
 30
0.0
 10
80.884936
 20
581.354290
 30
0.0
 10
80.884936
 20
573.779830
 30
0.0
  0
LWPOLYLINE
  5
5cc
100
AcDbEntity
  8
1
 62
7
100
AcDbPolyline
 90
5
 70
0
 10
80.884936
 20
628.730820
 30
0.0
 10
80.884936
 20
623.376070
 30
0.0
 10
85.884936
 20
623.376070
 30
0.0
 10
90.884936
 20
623.376070
 30
0.0
 10
90.894736
 20
627.542740
 30
0.0
  0
SPLINE
  5
5cd
100
AcDbEntity
  8
1
 62
7
100
AcDbSpline
 70
8
 71
3
 72
8
 73
4
 74
0
 40
0
 40
0
 40
0
 40
0
 40
1
 40
1
 40
1
 40
1
 10
38.360375
 20
565.274140
 30
0.0
 10
37.729492
 20
565.674420
 30
0.0
 10
37.553083
 20
567.656320
 30
0.0
 10
37.693709
 20
572.763930
 30
0.0
  0
LWPOLYLINE
  5
5ce
100
AcDbEntity
  8
1
 62
7
100
AcDbPolyline
 90
5
 70
0
 10
80.884936
 20
573.779830
 30
0.0
 10
80.884936
 20
567.376070
 30
0.0
 10
104.218270
 20
567.376070
 30
0.0
 10
127.551610
 20
567.376070
 30
0.0
 10
127.551610
 20
572.364010
 30
0.0
  0
SPLINE
  5
5cf
100
AcDbEntity
  8
1
 62
7
100
AcDbSpline
 70
8
 71
3
 72
8
 73
4
 74
0
 40
0
 40
0
 40
0
 40
0
 40
1
 40
1
 40
1
 40
1
 10
43.197883
 20
579.906750
 30
0.0
 10
46.416964
 20
580.026320
 30
0.0
 10
48.709489
 20
580.420420
 30
0.0
 10
49.014904
 20
580.906750
 30
0.0
  0
SPLINE
  5
5d0
100
AcDbEntity
  8
1
 62
7
100
AcDbSpline
 70
8
 71
3
 72
8
 73
4
 74
0
 40
0
 40
0
 40
0
 40
0
 40
1
 40
1
 40
1
 40
1
 10
49.014904
 20
580.906750
 30
0.0
 10
49.821782
 20
582.191570
 30
0.0
 10
49.577685
 20
626.208030
 30
0.0
 10
48.758206
 20
627.195440
 30
0.0
  0
SPLINE
  5
5d1
100
AcDbEntity
  8
1
 62
7
100
AcDbSpline
 70
8
 71
3
 72
8
 73
4
 74
0
 40
0
 40
0
 40
0
 40
0
 40
1
 40
1
 40
1
 40
1
 10
48.758206
 20
627.195440
 30
0.0
 10
48.305747
 20
627.740620
 30
0.0
 10
46.301275
 20
628.042740
 30
0.0
 10
43.136639
 20
628.042740
 30
0.0
  0
SPLINE
  5
5d2
100
AcDbEntity
  8
1
 62
7
100
AcDbSpline
 70
8
 71
3
 72
8
 73
4
 74
0
 40
0
 40
0
 40
0
 40
0
 40
1
 40
1
 40
1
 40
1
 10
43.136639
 20
628.042740
 30
0.0
 10
37.761469
 20
628.042740
 30
0.0
 10
37.970281
 20
627.847310
 30
0.0
 10
38.150254
 20
632.709400
 30
0.0
  0
SPLINE
  5
5d3
100
AcDbEntity
  8
1
 62
7
100
AcDbSpline
 70
8
 71
3
 72
8
 73
4
 74
0
 40
0
 40
0
 40
0
 40
0
 40
1
 40
1
 40
1
 40
1
 10
38.150254
 20
632.709400
 30
0.0
 10
38.257542
 20
635.607860
 30
0.0
 10
38.503144
 20
635.940460
 30
0.0
 10
45.406451
 20
642.535960
 30
0.0
  0
LWPOLYLINE
  5
5d4
100
AcDbEntity
  8
1
 62
7
100
AcDbPolyline
 90
3
 70
0
 10
37.693709
 20
572.763930
 30
0.0
 10
37.884935
 20
579.709400
 30
0.0
 10
43.197883
 20
579.906750
 30
0.0
  0
SPLINE
  5
5d5
100
AcDbEntity
  8
1
 62
7
100
AcDbSpline
 70
8
 71
3
 72
8
 73
4
 74
0
 40
0
 40
0
 40
0
 40
0
 40
1
 40
1
 40
1
 40
1
 10
57.678924
 20
649.369510
 30
0.0
 10
60.498951
 20
649.373510
 30
0.0
 10
62.985304
 20
649.086570
 30
0.0
 10
63.204153
 20
648.732460
 30
0.0
  0
SPLINE
  5
5d6
100
AcDbEntity
  8
1
 62
7
100
AcDbSpline
 70
8
 71
3
 72
8
 73
4
 74
0
 40
0
 40
0
 40
0
 40
0
 40
1
 40
1
 40
1
 40
1
 10
63.204153
 20
648.732460
 30
0.0
 10
63.423001
 20
648.378360
 30
0.0
 10
63.596303
 20
633.238310
 30
0.0
 10
63.589268
 20
615.087910
 30
0.0
  0
SPLINE
  5
5d7
100
AcDbEntity
  8
1
 62
7
100
AcDbSpline
 70
8
 71
3
 72
8
 73
4
 74
0
 40
0
 40
0
 40
0
 40
0
 40
1
 40
1
 40
1
 40
1
 10
63.589268
 20
615.087910
 30
0.0
 10
63.582268
 20
596.937510
 30
0.0
 10
63.752977
 20
581.627240
 30
0.0
 10
63.968699
 20
581.065070
 30
0.0
  0
SPLINE
  5
5d8
100
AcDbEntity
  8
1
 62
7
100
AcDbSpline
 70
8
 71
3
 72
8
 73
4
 74
0
 40
0
 40
0
 40
0
 40
0
 40
1
 40
1
 40
1
 40
1
 10
63.968699
 20
581.065070
 30
0.0
 10
64.247166
 20
580.339400
 30
0.0
 10
65.306993
 20
580.042960
 30
0.0
 10
67.622928
 20
580.042960
 30
0.0
  0
SPLINE
  5
5d9
100
AcDbEntity
  8
1
 62
7
100
AcDbSpline
 70
8
 71
3
 72
8
 73
4
 74
0
 40
0
 40
0
 40
0
 40
0
 40
1
 40
1
 40
1
 40
1
 10
67.622928
 20
580.042960
 30
0.0
 10
71.353857
 20
580.042960
 30
0.0
 10
71.101917
 20
580.711350
 30
0.0
 10
70.889361
 20
571.377130
 30
0.0
  0
SPLINE
  5
5da
100
AcDbEntity
  8
1
 62
7
100
AcDbSpline
 70
8
 71
3
 72
8
 73
4
 74
0
 40
0
 40
0
 40
0
 40
0
 40
1
 40
1
 40
1
 40
1
 10
70.889361
 20
571.377130
 30
0.0
 10
70.811321
 20
567.950060
 30
0.0
 10
70.455678
 20
565.517440
 30
0.0
 10
69.989304
 20
565.220670
 30
0.0
  0
SPLINE
  5
5db
100
AcDbEntity
  8
1
 62
7
100
AcDbSpline
 70
8
 71
3
 72
8
 73
4
 74
0
 40
0
 40
0
 40
0
 40
0
 40
1
 40
1
 40
1
 40
1
 10
69.989304
 20
565.220670
 30
0.0
 10
68.930810
 20
564.547120
 30
0.0
 10
39.427646
 20
564.597200
 30
0.0
 10
38.360375
 20
565.274370
 30
0.0
  0
LWPOLYLINE
  5
5dc
100
AcDbEntity
  8
1
 62
7
100
AcDbPolyline
 90
3
 70
0
 10
45.406451
 20
642.535960
 30
0.0
 10
52.551602
 20
649.362510
 30
0.0
 10
57.678924
 20
649.369510
 30
0.0
  0
LWPOLYLINE
  5
5dd
100
AcDbEntity
  8
1
 62
7
100
AcDbPolyline
 90
2
 70
0
 10
38.360375
 20
565.274370
 30
0.0
 10
38.360375
 20
565.274140
 30
0.0
  0
SPLINE
  5
5de
100
AcDbEntity
  8
1
 62
7
100
AcDbSpline
 70
8
 71
3
 72
8
 73
4
 74
0
 40
0
 40
0
 40
0
 40
0
 40
1
 40
1
 40
1
 40
1
 10
65.802482
 20
578.216770
 30
0.0
 10
64.107132
 20
578.407860
 30
0.0
 10
62.461726
 20
578.971880
 30
0.0
 10
62.146023
 20
579.470140
 30
0.0
  0
SPLINE
  5
5df
100
AcDbEntity
  8
1
 62
7
100
AcDbSpline
 70
8
 71
3
 72
8
 73
4
 74
0
 40
0
 40
0
 40
0
 40
0
 40
1
 40
1
 40
1
 40
1
 10
62.146023
 20
579.470140
 30
0.0
 10
61.830321
 20
579.968400
 30
0.0
 10
61.567426
 20
595.451070
 30
0.0
 10
61.561811
 20
613.876070
 30
0.0
  0
LWPOLYLINE
  5
5e0
100
AcDbEntity
  8
1
 62
7
100
AcDbPolyline
 90
3
 70
0
 10
68.884936
 20
572.622700
 30
0.0
 10
68.884936
 20
577.869330
 30
0.0
 10
65.802482
 20
578.216770
 30
0.0
  0
SPLINE
  5
5e1
100
AcDbEntity
  8
1
 62
7
100
AcDbSpline
 70
8
 71
3
 72
8
 73
4
 74
0
 40
0
 40
0
 40
0
 40
0
 40
1
 40
1
 40
1
 40
1
 10
46.848847
 20
640.942040
 30
0.0
 10
41.053253
 20
635.318240
 30
0.0
 10
40.218268
 20
634.226860
 30
0.0
 10
40.218268
 20
632.275370
 30
0.0
  0
LWPOLYLINE
  5
5e2
100
AcDbEntity
  8
1
 62
7
100
AcDbPolyline
 90
5
 70
0
 10
61.561811
 20
613.876070
 30
0.0
 10
61.551601
 20
647.376070
 30
0.0
 10
57.515513
 20
647.376070
 30
0.0
 10
53.479426
 20
647.376070
 30
0.0
 10
46.848847
 20
640.942040
 30
0.0
  0
SPLINE
  5
5e3
100
AcDbEntity
  8
1
 62
7
100
AcDbSpline
 70
8
 71
3
 72
8
 73
4
 74
0
 40
0
 40
0
 40
0
 40
0
 40
1
 40
1
 40
1
 40
1
 10
44.403264
 20
630.042740
 30
0.0
 10
47.112034
 20
630.042740
 30
0.0
 10
49.110908
 20
629.676660
 30
0.0
 10
50.069930
 20
629.004930
 30
0.0
  0
LWPOLYLINE
  5
5e4
100
AcDbEntity
  8
1
 62
7
100
AcDbPolyline
 90
3
 70
0
 10
40.218268
 20
632.275370
 30
0.0
 10
40.218268
 20
630.042740
 30
0.0
 10
44.403264
 20
630.042740
 30
0.0
  0
SPLINE
  5
5e5
100
AcDbEntity
  8
1
 62
7
100
AcDbSpline
 70
8
 71
3
 72
8
 73
4
 74
0
 40
0
 40
0
 40
0
 40
0
 40
1
 40
1
 40
1
 40
1
 10
51.551601
 20
604.465690
 30
0.0
 10
51.551601
 20
585.361530
 30
0.0
 10
51.376776
 20
580.725160
 30
0.0
 10
50.617239
 20
579.686430
 30
0.0
  0
SPLINE
  5
5e6
100
AcDbEntity
  8
1
 62
7
100
AcDbSpline
 70
8
 71
3
 72
8
 73
4
 74
0
 40
0
 40
0
 40
0
 40
0
 40
1
 40
1
 40
1
 40
1
 10
50.617239
 20
579.686430
 30
0.0
 10
49.873272
 20
578.668990
 30
0.0
 10
48.650649
 20
578.356490
 30
0.0
 10
44.617239
 20
578.152810
 30
0.0
  0
LWPOLYLINE
  5
5e7
100
AcDbEntity
  8
1
 62
7
100
AcDbPolyline
 90
3
 70
0
 10
50.069930
 20
629.004930
 30
0.0
 10
51.551601
 20
627.967130
 30
0.0
 10
51.551601
 20
604.465690
 30
0.0
  0
LWPOLYLINE
  5
5e8
100
AcDbEntity
  8
1
 62
7
100
AcDbPolyline
 90
7
 70
0
 10
44.617239
 20
578.152810
 30
0.0
 10
39.551601
 20
577.897000
 30
0.0
 10
39.551601
 20
572.636540
 30
0.0
 10
39.551601
 20
567.376070
 30
0.0
 10
54.218268
 20
567.376070
 30
0.0
 10
68.884935
 20
567.376070
 30
0.0
 10
68.884936
 20
572.622700
 30
0.0
  0
SPLINE
  5
5e9
100
AcDbEntity
  8
1
 62
7
100
AcDbSpline
 70
8
 71
3
 72
8
 73
4
 74
0
 40
0
 40
0
 40
0
 40
0
 40
1
 40
1
 40
1
 40
1
 10
1611.579200
 20
565.339890
 30
0.0
 10
1603.402700
 20
564.144320
 30
0.0
 10
1591.415500
 20
564.784680
 30
0.0
 10
1587.211600
 20
566.641600
 30
0.0
  0
SPLINE
  5
5ea
100
AcDbEntity
  8
1
 62
7
100
AcDbSpline
 70
8
 71
3
 72
8
 73
4
 74
0
 40
0
 40
0
 40
0
 40
0
 40
1
 40
1
 40
1
 40
1
 10
1587.211600
 20
566.641600
 30
0.0
 10
1583.035800
 20
568.486140
 30
0.0
 10
1579.937600
 20
571.427010
 30
0.0
 10
1577.658800
 20
575.709400
 30
0.0
  0
LWPOLYLINE
  5
5eb
100
AcDbEntity
  8
1
 62
7
100
AcDbPolyline
 90
3
 70
0
 10
1620.491700
 20
562.741060
 30
0.0
 10
1617.098300
 20
566.146880
 30
0.0
 10
1611.579200
 20
565.339890
 30
0.0
  0
SPLINE
  5
5ec
100
AcDbEntity
  8
1
 62
7
100
AcDbSpline
 70
8
 71
3
 72
8
 73
4
 74
0
 40
0
 40
0
 40
0
 40
0
 40
1
 40
1
 40
1
 40
1
 10
1575.885000
 20
607.042740
 30
0.0
 10
1575.885000
 20
634.157470
 30
0.0
 10
1575.930000
 20
635.137590
 30
0.0
 10
1577.294600
 20
638.042740
 30
0.0
  0
SPLINE
  5
5ed
100
AcDbEntity
  8
1
 62
7
100
AcDbSpline
 70
8
 71
3
 72
8
 73
4
 74
0
 40
0
 40
0
 40
0
 40
0
 40
1
 40
1
 40
1
 40
1
 10
1577.294600
 20
638.042740
 30
0.0
 10
1579.064300
 20
641.808990
 30
0.0
 10
1582.841000
 20
645.571870
 30
0.0
 10
1586.818400
 20
647.531720
 30
0.0
  0
SPLINE
  5
5ee
100
AcDbEntity
  8
1
 62
7
100
AcDbSpline
 70
8
 71
3
 72
8
 73
4
 74
0
 40
0
 40
0
 40
0
 40
0
 40
1
 40
1
 40
1
 40
1
 10
1586.818400
 20
647.531720
 30
0.0
 10
1589.531300
 20
648.868460
 30
0.0
 10
1591.091800
 20
649.068640
 30
0.0
 10
1600.348500
 20
649.267320
 30
0.0
  0
SPLINE
  5
5ef
100
AcDbEntity
  8
1
 62
7
100
AcDbSpline
 70
8
 71
3
 72
8
 73
4
 74
0
 40
0
 40
0
 40
0
 40
0
 40
1
 40
1
 40
1
 40
1
 10
1600.348500
 20
649.267320
 30
0.0
 10
1608.443300
 20
649.441070
 30
0.0
 10
1611.633100
 20
649.253220
 30
0.0
 10
1614.439200
 20
648.437440
 30
0.0
  0
SPLINE
  5
5f0
100
AcDbEntity
  8
1
 62
7
100
AcDbSpline
 70
8
 71
3
 72
8
 73
4
 74
0
 40
0
 40
0
 40
0
 40
0
 40
1
 40
1
 40
1
 40
1
 10
1614.439200
 20
648.437440
 30
0.0
 10
1619.176800
 20
647.060190
 30
0.0
 10
1624.152300
 20
642.635930
 30
0.0
 10
1626.294500
 20
637.895690
 30
0.0
  0
SPLINE
  5
5f1
100
AcDbEntity
  8
1
 62
7
100
AcDbSpline
 70
8
 71
3
 72
8
 73
4
 74
0
 40
0
 40
0
 40
0
 40
0
 40
1
 40
1
 40
1
 40
1
 10
1626.294500
 20
637.895690
 30
0.0
 10
1627.871400
 20
634.406180
 30
0.0
 10
1627.886700
 20
634.152760
 30
0.0
 10
1628.080500
 20
608.271070
 30
0.0
  0
SPLINE
  5
5f2
100
AcDbEntity
  8
1
 62
7
100
AcDbSpline
 70
8
 71
3
 72
8
 73
4
 74
0
 40
0
 40
0
 40
0
 40
0
 40
1
 40
1
 40
1
 40
1
 10
1628.080500
 20
608.271070
 30
0.0
 10
1628.264600
 20
583.680880
 30
0.0
 10
1628.199100
 20
581.940060
 30
0.0
 10
1626.950900
 20
578.271070
 30
0.0
  0
LWPOLYLINE
  5
5f3
100
AcDbEntity
  8
1
 62
7
100
AcDbPolyline
 90
3
 70
0
 10
1577.658800
 20
575.709400
 30
0.0
 10
1575.885000
 20
579.042740
 30
0.0
 10
1575.885000
 20
607.042740
 30
0.0
  0
SPLINE
  5
5f4
100
AcDbEntity
  8
1
 62
7
100
AcDbSpline
 70
8
 71
3
 72
8
 73
4
 74
0
 40
0
 40
0
 40
0
 40
0
 40
1
 40
1
 40
1
 40
1
 10
1629.294000
 20
570.651070
 30
0.0
 10
1632.927700
 20
566.961050
 30
0.0
 10
1632.960300
 20
566.892180
 30
0.0
 10
1632.756900
 20
563.317740
 30
0.0
  0
LWPOLYLINE
  5
5f5
100
AcDbEntity
  8
1
 62
7
100
AcDbPolyline
 90
3
 70
0
 10
1626.950900
 20
578.271070
 30
0.0
 10
1625.625800
 20
574.376070
 30
0.0
 10
1629.294000
 20
570.651070
 30
0.0
  0
SPLINE
  5
5f6
100
AcDbEntity
  8
1
 62
7
100
AcDbSpline
 70
8
 71
3
 72
8
 73
4
 74
0
 40
0
 40
0
 40
0
 40
0
 40
1
 40
1
 40
1
 40
1
 10
1630.885000
 20
563.144990
 30
0.0
 10
1630.885000
 20
565.159720
 30
0.0
 10
1630.297400
 20
566.201840
 30
0.0
 10
1627.484600
 20
569.175990
 30
0.0
  0
SPLINE
  5
5f7
100
AcDbEntity
  8
1
 62
7
100
AcDbSpline
 70
8
 71
3
 72
8
 73
4
 74
0
 40
0
 40
0
 40
0
 40
0
 40
1
 40
1
 40
1
 40
1
 10
1627.484600
 20
569.175990
 30
0.0
 10
1623.716200
 20
573.160490
 30
0.0
 10
1623.817000
 20
572.488370
 30
0.0
 10
1625.529800
 20
582.209720
 30
0.0
  0
SPLINE
  5
5f8
100
AcDbEntity
  8
1
 62
7
100
AcDbSpline
 70
8
 71
3
 72
8
 73
4
 74
0
 40
0
 40
0
 40
0
 40
0
 40
1
 40
1
 40
1
 40
1
 10
1625.529800
 20
582.209720
 30
0.0
 10
1626.075300
 20
585.305740
 30
0.0
 10
1626.250800
 20
594.043010
 30
0.0
 10
1626.092300
 20
610.209720
 30
0.0
  0
SPLINE
  5
5f9
100
AcDbEntity
  8
1
 62
7
100
AcDbSpline
 70
8
 71
3
 72
8
 73
4
 74
0
 40
0
 40
0
 40
0
 40
0
 40
1
 40
1
 40
1
 40
1
 10
1626.092300
 20
610.209720
 30
0.0
 10
1625.893800
 20
630.456350
 30
0.0
 10
1625.706700
 20
634.055440
 30
0.0
 10
1624.740900
 20
636.209140
 30
0.0
  0
SPLINE
  5
5fa
100
AcDbEntity
  8
1
 62
7
100
AcDbSpline
 70
8
 71
3
 72
8
 73
4
 74
0
 40
0
 40
0
 40
0
 40
0
 40
1
 40
1
 40
1
 40
1
 10
1624.740900
 20
636.209140
 30
0.0
 10
1622.812500
 20
640.509270
 30
0.0
 10
1620.220200
 20
643.277080
 30
0.0
 10
1616.345600
 20
645.172750
 30
0.0
  0
SPLINE
  5
5fb
100
AcDbEntity
  8
1
 62
7
100
AcDbSpline
 70
8
 71
3
 72
8
 73
4
 74
0
 40
0
 40
0
 40
0
 40
0
 40
1
 40
1
 40
1
 40
1
 10
1616.345600
 20
645.172750
 30
0.0
 10
1613.003500
 20
646.807870
 30
0.0
 10
1611.713600
 20
647.030170
 30
0.0
 10
1604.211000
 20
647.263930
 30
0.0
  0
SPLINE
  5
5fc
100
AcDbEntity
  8
1
 62
7
100
AcDbSpline
 70
8
 71
3
 72
8
 73
4
 74
0
 40
0
 40
0
 40
0
 40
0
 40
1
 40
1
 40
1
 40
1
 10
1604.211000
 20
647.263930
 30
0.0
 10
1589.944400
 20
647.708440
 30
0.0
 10
1583.798600
 20
645.312900
 30
0.0
 10
1579.939700
 20
637.803340
 30
0.0
  0
LWPOLYLINE
  5
5fd
100
AcDbEntity
  8
1
 62
7
100
AcDbPolyline
 90
5
 70
0
 10
1632.756900
 20
563.317740
 30
0.0
 10
1632.551700
 20
559.709400
 30
0.0
 10
1628.218300
 20
559.522320
 30
0.0
 10
1623.885000
 20
559.335240
 30
0.0
 10
1620.491700
 20
562.741060
 30
0.0
  0
SPLINE
  5
5fe
100
AcDbEntity
  8
1
 62
7
100
AcDbSpline
 70
8
 71
3
 72
8
 73
4
 74
0
 40
0
 40
0
 40
0
 40
0
 40
1
 40
1
 40
1
 40
1
 10
1577.953500
 20
607.863570
 30
0.0
 10
1577.906500
 20
578.115010
 30
0.0
 10
1577.964500
 20
577.682040
 30
0.0
 10
1582.658200
 20
572.664490
 30
0.0
  0
SPLINE
  5
5ff
100
AcDbEntity
  8
1
 62
7
100
AcDbSpline
 70
8
 71
3
 72
8
 73
4
 74
0
 40
0
 40
0
 40
0
 40
0
 40
1
 40
1
 40
1
 40
1
 10
1582.658200
 20
572.664490
 30
0.0
 10
1587.192500
 20
567.816890
 30
0.0
 10
1589.702900
 20
567.198150
 30
0.0
 10
1603.392500
 20
567.554020
 30
0.0
  0
SPLINE
  5
600
100
AcDbEntity
  8
1
 62
7
100
AcDbSpline
 70
8
 71
3
 72
8
 73
4
 74
0
 40
0
 40
0
 40
0
 40
0
 40
1
 40
1
 40
1
 40
1
 10
1603.392500
 20
567.554020
 30
0.0
 10
1609.530000
 20
567.713570
 30
0.0
 10
1615.221700
 20
568.072490
 30
0.0
 10
1616.040600
 20
568.351620
 30
0.0
  0
SPLINE
  5
601
100
AcDbEntity
  8
1
 62
7
100
AcDbSpline
 70
8
 71
3
 72
8
 73
4
 74
0
 40
0
 40
0
 40
0
 40
0
 40
1
 40
1
 40
1
 40
1
 10
1616.040600
 20
568.351620
 30
0.0
 10
1617.278800
 20
568.773660
 30
0.0
 10
1618.233000
 20
568.175060
 30
0.0
 10
1621.707200
 20
564.796860
 30
0.0
  0
SPLINE
  5
602
100
AcDbEntity
  8
1
 62
7
100
AcDbSpline
 70
8
 71
3
 72
8
 73
4
 74
0
 40
0
 40
0
 40
0
 40
0
 40
1
 40
1
 40
1
 40
1
 10
1621.707200
 20
564.796860
 30
0.0
 10
1625.301400
 20
561.302050
 30
0.0
 10
1626.234200
 20
560.732840
 30
0.0
 10
1628.385000
 20
560.722000
 30
0.0
  0
SPLINE
  5
603
100
AcDbEntity
  8
1
 62
7
100
AcDbSpline
 70
8
 71
3
 72
8
 73
4
 74
0
 40
0
 40
0
 40
0
 40
0
 40
1
 40
1
 40
1
 40
1
 10
1628.385000
 20
560.722000
 30
0.0
 10
1630.820000
 20
560.709700
 30
0.0
 10
1630.885000
 20
560.772700
 30
0.0
 10
1630.885000
 20
563.144990
 30
0.0
  0
LWPOLYLINE
  5
604
100
AcDbEntity
  8
1
 62
7
100
AcDbPolyline
 90
3
 70
0
 10
1579.939700
 20
637.803340
 30
0.0
 10
1577.994500
 20
634.017750
 30
0.0
 10
1577.953500
 20
607.863570
 30
0.0
  0
LWPOLYLINE
  5
605
100
AcDbEntity
  8
1
 62
7
100
AcDbPolyline
 90
1
 70
1
 10
1630.885000
 20
563.144990
 30
0.0
  0
SPLINE
  5
606
100
AcDbEntity
  8
1
 62
7
100
AcDbSpline
 70
8
 71
3
 72
8
 73
4
 74
0
 40
0
 40
0
 40
0
 40
0
 40
1
 40
1
 40
1
 40
1
 10
1588.218300
 20
606.843120
 30
0.0
 10
1588.218300
 20
635.194230
 30
0.0
 10
1588.125300
 20
634.569670
 30
0.0
 10
1592.617400
 20
636.446490
 30
0.0
  0
SPLINE
  5
607
100
AcDbEntity
  8
1
 62
7
100
AcDbSpline
 70
8
 71
3
 72
8
 73
4
 74
0
 40
0
 40
0
 40
0
 40
0
 40
1
 40
1
 40
1
 40
1
 10
1592.617400
 20
636.446490
 30
0.0
 10
1595.625700
 20
637.703430
 30
0.0
 10
1608.144300
 20
637.703430
 30
0.0
 10
1611.152600
 20
636.446490
 30
0.0
  0
SPLINE
  5
608
100
AcDbEntity
  8
1
 62
7
100
AcDbSpline
 70
8
 71
3
 72
8
 73
4
 74
0
 40
0
 40
0
 40
0
 40
0
 40
1
 40
1
 40
1
 40
1
 10
1611.152600
 20
636.446490
 30
0.0
 10
1615.586300
 20
634.593990
 30
0.0
 10
1615.551700
 20
634.797960
 30
0.0
 10
1615.551700
 20
610.517240
 30
0.0
  0
SPLINE
  5
609
100
AcDbEntity
  8
1
 62
7
100
AcDbSpline
 70
8
 71
3
 72
8
 73
4
 74
0
 40
0
 40
0
 40
0
 40
0
 40
1
 40
1
 40
1
 40
1
 10
1615.551700
 20
610.517240
 30
0.0
 10
1615.551700
 20
596.699020
 30
0.0
 10
1615.297100
 20
588.146050
 30
0.0
 10
1614.861500
 20
587.332240
 30
0.0
  0
SPLINE
  5
60a
100
AcDbEntity
  8
1
 62
7
100
AcDbSpline
 70
8
 71
3
 72
8
 73
4
 74
0
 40
0
 40
0
 40
0
 40
0
 40
1
 40
1
 40
1
 40
1
 10
1614.861500
 20
587.332240
 30
0.0
 10
1613.451900
 20
584.698270
 30
0.0
 10
1611.043400
 20
585.729070
 30
0.0
 10
1605.136900
 20
591.494330
 30
0.0
  0
LWPOLYLINE
  5
60b
100
AcDbEntity
  8
1
 62
7
100
AcDbPolyline
 90
3
 70
0
 10
1590.167000
 20
579.324790
 30
0.0
 10
1588.218300
 20
581.273510
 30
0.0
 10
1588.218300
 20
606.843120
 30
0.0
  0
SPLINE
  5
60c
100
AcDbEntity
  8
1
 62
7
100
AcDbSpline
 70
8
 71
3
 72
8
 73
4
 74
0
 40
0
 40
0
 40
0
 40
0
 40
1
 40
1
 40
1
 40
1
 10
1599.551700
 20
591.958440
 30
0.0
 10
1599.551700
 20
587.133680
 30
0.0
 10
1599.627700
 20
586.897180
 30
0.0
 10
1601.885000
 20
584.709400
 30
0.0
  0
SPLINE
  5
60d
100
AcDbEntity
  8
1
 62
7
100
AcDbSpline
 70
8
 71
3
 72
8
 73
4
 74
0
 40
0
 40
0
 40
0
 40
0
 40
1
 40
1
 40
1
 40
1
 10
1601.885000
 20
584.709400
 30
0.0
 10
1604.310100
 20
582.358870
 30
0.0
 10
1604.935700
 20
579.693430
 30
0.0
 10
1603.418300
 20
578.176070
 30
0.0
  0
SPLINE
  5
60e
100
AcDbEntity
  8
1
 62
7
100
AcDbSpline
 70
8
 71
3
 72
8
 73
4
 74
0
 40
0
 40
0
 40
0
 40
0
 40
1
 40
1
 40
1
 40
1
 10
1603.418300
 20
578.176070
 30
0.0
 10
1602.931500
 20
577.689270
 30
0.0
 10
1600.562500
 20
577.376070
 30
0.0
 10
1597.367000
 20
577.376070
 30
0.0
  0
SPLINE
  5
60f
100
AcDbEntity
  8
1
 62
7
100
AcDbSpline
 70
8
 71
3
 72
8
 73
4
 74
0
 40
0
 40
0
 40
0
 40
0
 40
1
 40
1
 40
1
 40
1
 10
1597.367000
 20
577.376070
 30
0.0
 10
1592.451900
 20
577.376070
 30
0.0
 10
1591.991000
 20
577.500800
 30
0.0
 10
1590.167000
 20
579.324790
 30
0.0
  0
LWPOLYLINE
  5
610
100
AcDbEntity
  8
1
 62
7
100
AcDbPolyline
 90
3
 70
0
 10
1605.136900
 20
591.494330
 30
0.0
 10
1599.551700
 20
596.945910
 30
0.0
 10
1599.551700
 20
591.958440
 30
0.0
  0
SPLINE
  5
611
100
AcDbEntity
  8
1
 62
7
100
AcDbSpline
 70
8
 71
3
 72
8
 73
4
 74
0
 40
0
 40
0
 40
0
 40
0
 40
1
 40
1
 40
1
 40
1
 10
1601.903300
 20
580.072330
 30
0.0
 10
1602.139900
 20
580.455270
 30
0.0
 10
1601.107700
 20
582.098570
 30
0.0
 10
1599.609300
 20
583.724100
 30
0.0
  0
LWPOLYLINE
  5
612
100
AcDbEntity
  8
1
 62
7
100
AcDbPolyline
 90
1
 70
1
 10
1590.167000
 20
579.324790
 30
0.0
  0
SPLINE
  5
613
100
AcDbEntity
  8
1
 62
7
100
AcDbSpline
 70
8
 71
3
 72
8
 73
4
 74
0
 40
0
 40
0
 40
0
 40
0
 40
1
 40
1
 40
1
 40
1
 10
1596.885000
 20
593.382100
 30
0.0
 10
1596.885000
 20
598.837050
 30
0.0
 10
1597.078400
 20
600.158800
 30
0.0
 10
1597.924100
 20
600.483340
 30
0.0
  0
SPLINE
  5
614
100
AcDbEntity
  8
1
 62
7
100
AcDbSpline
 70
8
 71
3
 72
8
 73
4
 74
0
 40
0
 40
0
 40
0
 40
0
 40
1
 40
1
 40
1
 40
1
 10
1597.924100
 20
600.483340
 30
0.0
 10
1598.633100
 20
600.755410
 30
0.0
 10
1601.058400
 20
598.823630
 30
0.0
 10
1605.558000
 20
594.402830
 30
0.0
  0
SPLINE
  5
615
100
AcDbEntity
  8
1
 62
7
100
AcDbSpline
 70
8
 71
3
 72
8
 73
4
 74
0
 40
0
 40
0
 40
0
 40
0
 40
1
 40
1
 40
1
 40
1
 10
1605.558000
 20
594.402830
 30
0.0
 10
1609.185200
 20
590.839240
 30
0.0
 10
1612.467600
 20
588.118090
 30
0.0
 10
1612.852200
 20
588.355840
 30
0.0
  0
SPLINE
  5
616
100
AcDbEntity
  8
1
 62
7
100
AcDbSpline
 70
8
 71
3
 72
8
 73
4
 74
0
 40
0
 40
0
 40
0
 40
0
 40
1
 40
1
 40
1
 40
1
 10
1612.852200
 20
588.355840
 30
0.0
 10
1613.316600
 20
588.642840
 30
0.0
 10
1613.551700
 20
595.913490
 30
0.0
 10
1613.551700
 20
609.992180
 30
0.0
  0
SPLINE
  5
617
100
AcDbEntity
  8
1
 62
7
100
AcDbSpline
 70
8
 71
3
 72
8
 73
4
 74
0
 40
0
 40
0
 40
0
 40
0
 40
1
 40
1
 40
1
 40
1
 10
1613.551700
 20
609.992180
 30
0.0
 10
1613.551700
 20
636.792210
 30
0.0
 10
1614.538800
 20
634.709400
 30
0.0
 10
1601.836600
 20
634.709400
 30
0.0
  0
SPLINE
  5
618
100
AcDbEntity
  8
1
 62
7
100
AcDbSpline
 70
8
 71
3
 72
8
 73
4
 74
0
 40
0
 40
0
 40
0
 40
0
 40
1
 40
1
 40
1
 40
1
 10
1601.836600
 20
634.709400
 30
0.0
 10
1593.773900
 20
634.709400
 30
0.0
 10
1592.752600
 20
634.577000
 30
0.0
 10
1591.551700
 20
633.376070
 30
0.0
  0
SPLINE
  5
619
100
AcDbEntity
  8
1
 62
7
100
AcDbSpline
 70
8
 71
3
 72
8
 73
4
 74
0
 40
0
 40
0
 40
0
 40
0
 40
1
 40
1
 40
1
 40
1
 10
1591.551700
 20
633.376070
 30
0.0
 10
1590.265800
 20
632.090240
 30
0.0
 10
1590.218300
 20
631.153850
 30
0.0
 10
1590.218300
 20
607.091120
 30
0.0
  0
LWPOLYLINE
  5
61a
100
AcDbEntity
  8
1
 62
7
100
AcDbPolyline
 90
3
 70
0
 10
1599.609300
 20
583.724100
 30
0.0
 10
1596.885000
 20
586.679610
 30
0.0
 10
1596.885000
 20
593.382100
 30
0.0
  0
SPLINE
  5
61b
100
AcDbEntity
  8
1
 62
7
100
AcDbSpline
 70
8
 71
3
 72
8
 73
4
 74
0
 40
0
 40
0
 40
0
 40
0
 40
1
 40
1
 40
1
 40
1
 10
1591.974900
 20
580.757790
 30
0.0
 10
1593.293900
 20
579.720280
 30
0.0
 10
1594.695700
 20
579.376070
 30
0.0
 10
1597.602200
 20
579.376070
 30
0.0
  0
SPLINE
  5
61c
100
AcDbEntity
  8
1
 62
7
100
AcDbSpline
 70
8
 71
3
 72
8
 73
4
 74
0
 40
0
 40
0
 40
0
 40
0
 40
1
 40
1
 40
1
 40
1
 10
1597.602200
 20
579.376070
 30
0.0
 10
1599.731100
 20
579.376070
 30
0.0
 10
1601.666600
 20
579.689390
 30
0.0
 10
1601.903300
 20
580.072330
 30
0.0
  0
LWPOLYLINE
  5
61d
100
AcDbEntity
  8
1
 62
7
100
AcDbPolyline
 90
3
 70
0
 10
1590.218300
 20
607.091120
 30
0.0
 10
1590.218300
 20
582.139510
 30
0.0
 10
1591.974900
 20
580.757790
 30
0.0
  0
LWPOLYLINE
  5
61e
100
AcDbEntity
  8
1
 62
7
100
AcDbPolyline
 90
1
 70
1
 10
1601.903300
 20
580.072330
 30
0.0
  0
ENDSEC
  0
SECTION
  2
OBJECTS
  0
DICTIONARY
  5
C
330
0
100
AcDbDictionary
  3
ACAD_GROUP
350
D
  3
ACAD_MLINESTYLE
350
17
  0
DICTIONARY
  5
D
330
C
100
AcDbDictionary
  0
DICTIONARY
  5
1A
330
C
100
AcDbDictionary
  0
DICTIONARY
  5
17
330
C
100
AcDbDictionary
  3
STANDARD
350
18
  0
DICTIONARY
  5
19
330
C
100
AcDbDictionary
  0
ENDSEC
  0
EOF
