0
SECTION
2
ENTITIES
0
LINE
8
0
10
2558.88938786315
20
-87.3416256204748
30
0.0
11
2558.88938786315
21
539.058374379525
31
0.0
0
LINE
8
0
10
2558.88938786315
20
539.058374379525
30
0.0
11
3185.28938786315
21
539.058374379525
31
0.0
0
LINE
8
0
10
3185.28938786315
20
539.058374379525
30
0.0
11
3185.28938786315
21
-87.3416256204748
31
0.0
0
LINE
8
0
10
3185.28938786315
20
-87.3416256204748
30
0.0
11
2558.88938786315
21
-87.3416256204748
31
0.0
0
CIRCLE
8
1
10
1404.39454073102
20
895.034354645476
30
0.0
40
214.5
210
0.0
220
-0.0
230
25.4
0
ARC
8
2
10
2555.51114159582
20
895.034354645476
30
0.0
40
208.810223032013
50
401.291616253557
51
540.0
210
0.0
220
0.0
230
25.4
0
ARC
8
2
10
2160.96733255199
20
895.034354645476
30
0.0
40
185.733586011816
50
180.0
51
360.0
210
0.0
220
0.0
230
-25.4
0
ARC
8
2
10
2536.2445920163
20
911.955437685498
30
0.0
40
234.452434012099
50
318.708383746443
51
465.540801874545
210
0.0
220
0.0
230
25.4
0
ARC
8
2
10
2514.09992779657
20
991.586267547929
30
0.0
40
151.799816279905
50
105.540801874545
51
254.459198125455
210
0.0
220
0.0
230
25.4
0
ARC
8
2
10
2507.25592693524
20
966.975667777291
30
0.0
40
126.255306715999
50
254.459198125455
51
408.786457045454
210
0.0
220
0.0
230
25.4
0
ARC
8
2
10
2548.84867278857
20
1014.46402541227
30
0.0
40
63.1276533579996
50
48.7864570454544
51
228.786457899228
210
0.0
220
-0.0
230
25.4
0
LINE
8
3
10
947.889387863153
20
-87.3416256204748
30
0.0
11
947.889387863153
21
539.058374379525
31
0.0
0
LINE
8
3
10
947.889387863153
20
539.058374379525
30
0.0
11
1574.28938786315
21
539.058374379525
31
0.0
0
LINE
8
3
10
1574.28938786315
20
539.058374379525
30
0.0
11
1574.28938786315
21
-87.3416256204748
31
0.0
0
LINE
8
3
10
1574.28938786315
20
-87.3416256204748
30
0.0
11
947.889387863153
21
-87.3416256204748
31
0.0
0
LINE
8
4
10
1753.38938786315
20
-87.3416256204748
30
0.0
11
1753.38938786315
21
539.058374379525
31
0.0
0
LINE
8
4
10
1753.38938786315
20
539.058374379525
30
0.0
11
2379.78938786315
21
539.058374379525
31
0.0
0
LINE
8
4
10
2379.78938786315
20
539.058374379525
30
0.0
11
2379.78938786315
21
-87.3416256204748
31
0.0
0
LINE
8
4
10
2379.78938786315
20
-87.3416256204748
30
0.0
11
1753.38938786315
21
-87.3416256204748
31
0.0
0
LINE
8
5
10
0.0
20
0.0
30
0.0
11
0.0
21
0.0
31
304.3
0
LINE
8
5
10
633.0
20
0.0
30
0.0
11
633.0
21
0.0
31
304.3
0
LINE
8
5
10
633.0
20
798.5
30
0.0
11
633.0
21
798.5
31
304.3
0
LINE
8
5
10
0.0
20
798.5
30
0.0
11
0.0
21
798.5
31
304.3
0
LINE
8
5
10
633.0
20
0.0
30
304.3
11
633.0
21
798.5
31
304.3
0
LINE
8
5
10
0.0
20
0.0
30
304.3
11
633.0
21
0.0
31
304.3
0
LINE
8
5
10
0.0
20
798.5
30
304.3
11
0.0
21
0.0
31
304.3
0
LINE
8
5
10
633.0
20
798.5
30
304.3
11
0.0
21
798.5
31
304.3
0
LINE
8
5
10
0.0
20
798.5
30
0.0
11
0.0
21
0.0
31
0.0
0
LINE
8
5
10
0.0
20
0.0
30
0.0
11
633.0
21
0.0
31
0.0
0
LINE
8
5
10
633.0
20
0.0
30
0.0
11
633.0
21
798.5
31
0.0
0
LINE
8
5
10
633.0
20
798.5
30
0.0
11
0.0
21
798.5
31
0.0
0
ENDSEC
0
EOF
