 0
SECTION
 2
ENTITIES
  0
LINE
 8
Layer0
10
0.0
20
-1.4099832412739488e-16
30
2.5
11
0.0
21
-2.8199664825478977e-16
31
3.0
  0
LINE
 8
Layer0
10
0.0
20
-4.2299497238218465e-16
30
3.4999999999999996
11
0.0
21
-5.639932965095795e-16
31
4.0
  0
LINE
 8
Layer0
10
0.0
20
0.0
30
2.0
11
0.0
21
-1.4099832412739488e-16
31
2.5
  0
LINE
 8
Layer0
10
0.0
20
-2.8199664825478977e-16
30
3.0
11
0.0
21
-4.2299497238218465e-16
31
3.4999999999999996
  0
LINE
 8
Layer0
10
0.0
20
3.0
30
2.0
11
0.0
21
3.0
31
2.5
  0
LINE
 8
Layer0
10
0.0
20
3.0
30
2.5
11
0.0
21
2.9999999999999996
31
3.0
  0
LINE
 8
Layer0
10
0.0
20
2.9999999999999996
30
3.4999999999999996
11
0.0
21
2.999999999999999
31
4.0
  0
LINE
 8
Layer0
10
0.0
20
2.9999999999999996
30
3.0
11
0.0
21
2.9999999999999996
31
3.4999999999999996
  0
LINE
 8
Layer0
10
3.0
20
0.0
30
2.0
11
3.0
21
-1.4099832412739488e-16
31
2.5
  0
LINE
 8
Layer0
10
3.0
20
-4.2299497238218465e-16
30
3.4999999999999996
11
3.0
21
-5.639932965095795e-16
31
4.0
  0
LINE
 8
Layer0
10
3.0
20
-1.4099832412739488e-16
30
2.5
11
3.0
21
-2.8199664825478977e-16
31
3.0
  0
LINE
 8
Layer0
10
3.0
20
-2.8199664825478977e-16
30
3.0
11
3.0
21
-4.2299497238218465e-16
31
3.4999999999999996
  0
LINE
 8
Layer0
10
3.0
20
2.9999999999999996
30
3.4999999999999996
11
3.0
21
2.999999999999999
31
4.0
  0
LINE
 8
Layer0
10
3.0
20
3.0
30
2.0
11
3.0
21
3.0
31
2.5
  0
LINE
 8
Layer0
10
3.0
20
3.0
30
2.5
11
3.0
21
2.9999999999999996
31
3.0
  0
LINE
 8
Layer0
10
3.0
20
2.9999999999999996
30
3.0
11
3.0
21
2.9999999999999996
31
3.4999999999999996
  0
LINE
 8
Layer0
10
0.0
20
0.0
30
0.5
11
2.999999999999999
21
0.0
31
0.5
  0
LINE
 8
Layer0
10
0.0
20
-2.8199664825478977e-16
30
3.0
11
3.0
21
-2.8199664825478977e-16
31
3.0
  0
LINE
 8
Layer0
10
0.0
20
-4.2299497238218465e-16
30
3.4999999999999996
11
3.0
21
-4.2299497238218465e-16
31
3.4999999999999996
  0
LINE
 8
Layer0
10
0.0
20
-5.639932965095795e-16
30
4.0
11
3.0
21
-5.639932965095795e-16
31
4.0
  0
LINE
 8
Layer0
10
0.0
20
3.0
30
0.5
11
2.999999999999999
21
3.0
31
0.5
  0
LINE
 8
Layer0
10
0.0
20
2.9999999999999996
30
3.0
11
3.0
21
2.9999999999999996
31
3.0
  0
LINE
 8
Layer0
10
0.0
20
2.9999999999999996
30
3.4999999999999996
11
3.0
21
2.9999999999999996
31
3.4999999999999996
  0
LINE
 8
Layer0
10
0.0
20
2.999999999999999
30
4.0
11
3.0
21
2.999999999999999
31
4.0
  0
LINE
 8
Layer0
10
0.0
20
0.0
30
0.5
11
0.0
21
3.0
31
0.5
  0
LINE
 8
Layer0
10
9.49957111939824e-13
20
0.4402561513948926
30
2.809150000000912
11
5.7996822806421096e-12
21
0.5000000026865493
31
2.809150000000912
  0
LINE
 8
Layer0
10
4.335822499021709e-12
20
1.0000000026865492
30
2.8091500000009124
11
3.332346215392354e-12
21
1.5000000026865492
31
2.809150000000913
  0
LINE
 8
Layer0
10
-3.868002084068503e-12
20
2.5597438486051067
30
2.8091500000009137
11
-3.8681396719709025e-12
21
2.919115491691885
31
3.000000000000001
  0
LINE
 8
Layer0
10
5.7996822806421096e-12
20
0.5000000026865493
30
2.809150000000912
11
5.7996822806421096e-12
21
0.5000000026865493
31
2.999999999999999
  0
LINE
 8
Layer0
10
4.335822499021709e-12
20
1.0000000026865492
30
2.8091500000009124
11
4.335822499021709e-12
21
1.0000000026865492
31
2.9999999999999996
  0
LINE
 8
Layer0
10
5.7996822806421096e-12
20
0.5000000026865493
30
2.809150000000912
11
4.335822499021709e-12
21
1.0000000026865492
31
2.8091500000009124
  0
LINE
 8
Layer0
10
2.3306747103118303e-12
20
2.000000002686549
30
2.8091500000009133
11
1.3263792264192953e-12
21
2.500000002686549
31
2.8091500000009137
  0
LINE
 8
Layer0
10
1.3263792264192953e-12
20
2.500000002686549
30
2.8091500000009137
11
1.3263792264192953e-12
21
2.500000002686549
31
3.000000000000001
  0
LINE
 8
Layer0
10
9.49192310567809e-13
20
0.08088450830811465
30
2.999999999999999
11
9.49957111939824e-13
21
0.4402561513948926
31
2.809150000000912
  0
LINE
 8
Layer0
10
1.3263792264192953e-12
20
2.500000002686549
30
3.000000000000001
11
-3.8681396719709025e-12
21
2.919115491691885
31
3.000000000000001
  0
LINE
 8
Layer0
10
2.3306747103118303e-12
20
2.000000002686549
30
2.8091500000009133
11
2.3306747103118303e-12
21
2.000000002686549
31
3.0000000000000004
  0
LINE
 8
Layer0
10
1.3263792264192953e-12
20
2.500000002686549
30
2.8091500000009137
11
-3.868002084068503e-12
21
2.5597438486051067
31
2.8091500000009137
  0
LINE
 8
Layer0
10
3.332346215392354e-12
20
1.5000000026865492
30
3.0
11
2.3306747103118303e-12
21
2.000000002686549
31
3.0000000000000004
  0
LINE
 8
Layer0
10
5.7996822806421096e-12
20
0.5000000026865493
30
2.999999999999999
11
4.335822499021709e-12
21
1.0000000026865492
31
2.9999999999999996
  0
LINE
 8
Layer0
10
9.49192310567809e-13
20
0.08088450830811465
30
2.999999999999999
11
5.7996822806421096e-12
21
0.5000000026865493
31
2.999999999999999
  0
LINE
 8
Layer0
10
-3.8681396719709025e-12
20
2.919115491691885
30
3.000000000000001
11
0.0
21
2.9999999999999996
31
3.0
  0
LINE
 8
Layer0
10
3.332346215392354e-12
20
1.5000000026865492
30
2.809150000000913
11
3.332346215392354e-12
21
1.5000000026865492
31
3.0
  0
LINE
 8
Layer0
10
0.0
20
-2.8199664825478977e-16
30
3.0
11
9.49192310567809e-13
21
0.08088450830811465
31
2.999999999999999
  0
LINE
 8
Layer0
10
2.3306747103118303e-12
20
2.000000002686549
30
3.0000000000000004
11
1.3263792264192953e-12
21
2.500000002686549
31
3.000000000000001
  0
LINE
 8
Layer0
10
4.335822499021709e-12
20
1.0000000026865492
30
2.9999999999999996
11
3.332346215392354e-12
21
1.5000000026865492
31
3.0
  0
LINE
 8
Layer0
10
3.332346215392354e-12
20
1.5000000026865492
30
2.809150000000913
11
2.3306747103118303e-12
21
2.000000002686549
31
2.8091500000009133
  0
LINE
 8
Layer0
10
0.0
20
-4.2299497238218465e-16
30
3.4999999999999996
11
0.0
21
2.9999999999999996
31
3.4999999999999996
  0
LINE
 8
Layer0
10
0.0
20
-5.639932965095795e-16
30
4.0
11
0.0
21
2.999999999999999
31
4.0
  0
LINE
 8
Layer0
10
2.999999999999999
20
0.0
30
0.5
11
2.999999999999999
21
3.0
31
0.5
  0
LINE
 8
Layer0
10
3.0000000000009495
20
0.08088450830811465
30
2.999999999999999
11
3.0000000000058
21
0.5000000026865493
31
2.999999999999999
  0
LINE
 8
Layer0
10
3.0000000000023306
20
2.000000002686549
30
3.0000000000000004
11
3.0000000000013265
21
2.500000002686549
31
3.000000000000001
  0
LINE
 8
Layer0
10
3.0000000000013265
20
2.500000002686549
30
2.8091500000009137
11
3.0000000000013265
21
2.500000002686549
31
3.000000000000001
  0
LINE
 8
Layer0
10
3.00000000000095
20
0.4402561513948926
30
2.809150000000912
11
3.0000000000058
21
0.5000000026865493
31
2.809150000000912
  0
LINE
 8
Layer0
10
3.0000000000013265
20
2.500000002686549
30
3.000000000000001
11
2.999999999996132
21
2.919115491691885
31
3.000000000000001
  0
LINE
 8
Layer0
10
3.0000000000023306
20
2.000000002686549
30
2.8091500000009133
11
3.0000000000023306
21
2.000000002686549
31
3.0000000000000004
  0
LINE
 8
Layer0
10
2.999999999996132
20
2.919115491691885
30
3.000000000000001
11
3.0
21
2.9999999999999996
31
3.0
  0
LINE
 8
Layer0
10
3.0000000000058
20
0.5000000026865493
30
2.809150000000912
11
3.0000000000043356
21
1.0000000026865492
31
2.8091500000009124
  0
LINE
 8
Layer0
10
3.0000000000043356
20
1.0000000026865492
30
2.8091500000009124
11
3.0000000000043356
21
1.0000000026865492
31
2.9999999999999996
  0
LINE
 8
Layer0
10
3.0000000000033324
20
1.5000000026865492
30
2.809150000000913
11
3.0000000000033324
21
1.5000000026865492
31
3.0
  0
LINE
 8
Layer0
10
3.0000000000043356
20
1.0000000026865492
30
2.9999999999999996
11
3.0000000000033324
21
1.5000000026865492
31
3.0
  0
LINE
 8
Layer0
10
3.0000000000033324
20
1.5000000026865492
30
2.809150000000913
11
3.0000000000023306
21
2.000000002686549
31
2.8091500000009133
  0
LINE
 8
Layer0
10
3.0000000000009495
20
0.08088450830811465
30
2.999999999999999
11
3.00000000000095
21
0.4402561513948926
31
2.809150000000912
  0
LINE
 8
Layer0
10
3.0000000000043356
20
1.0000000026865492
30
2.8091500000009124
11
3.0000000000033324
21
1.5000000026865492
31
2.809150000000913
  0
LINE
 8
Layer0
10
3.0000000000058
20
0.5000000026865493
30
2.999999999999999
11
3.0000000000043356
21
1.0000000026865492
31
2.9999999999999996
  0
LINE
 8
Layer0
10
2.999999999996132
20
2.5597438486051067
30
2.8091500000009137
11
2.999999999996132
21
2.919115491691885
31
3.000000000000001
  0
LINE
 8
Layer0
10
3.0000000000033324
20
1.5000000026865492
30
3.0
11
3.0000000000023306
21
2.000000002686549
31
3.0000000000000004
  0
LINE
 8
Layer0
10
3.0000000000058
20
0.5000000026865493
30
2.809150000000912
11
3.0000000000058
21
0.5000000026865493
31
2.999999999999999
  0
LINE
 8
Layer0
10
3.0000000000013265
20
2.500000002686549
30
2.8091500000009137
11
2.999999999996132
21
2.5597438486051067
31
2.8091500000009137
  0
LINE
 8
Layer0
10
3.0000000000023306
20
2.000000002686549
30
2.8091500000009133
11
3.0000000000013265
21
2.500000002686549
31
2.8091500000009137
  0
LINE
 8
Layer0
10
3.0
20
-2.8199664825478977e-16
30
3.0
11
3.0000000000009495
21
0.08088450830811465
31
2.999999999999999
  0
LINE
 8
Layer0
10
3.0
20
-4.2299497238218465e-16
30
3.4999999999999996
11
3.0
21
2.9999999999999996
31
3.4999999999999996
  0
LINE
 8
Layer0
10
3.0
20
-5.639932965095795e-16
30
4.0
11
3.0
21
2.999999999999999
31
4.0
  0
LINE
 8
Layer0
10
-0.06505382386916449
20
2.934946176130838
30
2.4999999999998237
11
-0.06505382386916324
21
0.06505382386916145
31
0.5
  0
LINE
 8
Layer0
10
0.0
20
3.0
30
2.5
11
-0.06505382386916449
21
2.934946176130838
31
2.4999999999998237
  0
LINE
 8
Layer0
10
0.0
20
0.0
30
0.5
11
-0.06505382386916324
21
0.06505382386916145
31
0.5
  0
LINE
 8
Layer0
10
0.0
20
3.0
30
0.5
11
0.06505382386916148
21
3.065053823869163
31
0.5
  0
LINE
 8
Layer0
10
3.0
20
3.0
30
2.5
11
2.934946176130838
21
3.0650538238691634
31
2.4999999999998237
  0
LINE
 8
Layer0
10
2.934946176130838
20
3.0650538238691634
30
2.4999999999998237
11
0.06505382386916148
21
3.065053823869163
31
0.5
  0
LINE
 8
Layer0
10
0.0
20
0.0
30
1.0
11
-1.1485706096780845e-15
21
2.999999999999999
31
1.0
  0
LINE
 8
Layer0
10
3.0
20
0.0
30
1.0
11
2.9999999999999987
21
2.999999999999999
31
1.0
  0
LINE
 8
Layer0
10
0.0
20
-1.4099832412739488e-16
30
2.5
11
3.0
21
-1.4099832412739488e-16
31
2.5
  0
LINE
 8
Layer0
10
0.0
20
3.0
30
2.5
11
3.0
21
3.0
31
2.5
  0
LINE
 8
Layer0
10
0.0
20
-1.4099832412739488e-16
30
2.5
11
0.0
21
3.0
31
2.5
  0
LINE
 8
Layer0
10
3.0
20
-1.4099832412739488e-16
30
2.5
11
3.0
21
3.0
31
2.5
  0
LINE
 8
Layer0
10
0.0
20
0.0
30
0.5
11
0.0
21
0.0
31
1.0
  0
LINE
 8
Layer0
10
0.0
20
0.0
30
1.0
11
0.0
21
-2.857566035648536e-16
31
1.5
  0
LINE
 8
Layer0
10
0.0
20
-2.857566035648536e-16
30
1.5
11
0.0
21
0.0
31
2.0
  0
LINE
 8
Layer0
10
-1.1485706096780845e-15
20
2.999999999999999
30
1.0
11
0.0
21
2.9999999999999996
31
1.5
  0
LINE
 8
Layer0
10
0.0
20
2.9999999999999996
30
1.5
11
0.0
21
3.0
31
2.0
  0
LINE
 8
Layer0
10
0.0
20
3.0
30
0.5
11
-1.1485706096780845e-15
21
2.999999999999999
31
1.0
  0
LINE
 8
Layer0
10
2.999999999999999
20
0.0
30
0.5
11
3.0
21
0.0
31
1.0
  0
LINE
 8
Layer0
10
3.0
20
-2.857566035648536e-16
30
1.5
11
3.0
21
0.0
31
2.0
  0
LINE
 8
Layer0
10
3.0
20
0.0
30
1.0
11
3.0
21
-2.857566035648536e-16
31
1.5
  0
LINE
 8
Layer0
10
2.999999999999999
20
3.0
30
0.5
11
2.9999999999999987
21
2.999999999999999
31
1.0
  0
LINE
 8
Layer0
10
3.0
20
2.9999999999999996
30
1.5
11
3.0
21
3.0
31
2.0
  0
LINE
 8
Layer0
10
2.9999999999999987
20
2.999999999999999
30
1.0
11
3.0
21
2.9999999999999996
31
1.5
  0
LINE
 8
Layer0
10
0.0
20
0.0
30
0.5
11
0.0650538238691606
21
-0.06505382386916322
31
0.5000000000000011
  0
LINE
 8
Layer0
10
3.0
20
-1.4099832412739488e-16
30
2.5
11
2.934946176130839
21
-0.06505382386916338
31
2.499999999999823
  0
LINE
 8
Layer0
10
2.934946176130839
20
-0.06505382386916338
30
2.499999999999823
11
0.0650538238691606
21
-0.06505382386916322
31
0.5000000000000011
  0
LINE
 8
Layer0
10
2.999999999999999
20
0.0
30
0.5
11
3.065053823869163
21
0.06505382386916063
31
0.5000000000000011
  0
LINE
 8
Layer0
10
3.0650538238691625
20
2.934946176130839
30
2.499999999999823
11
3.065053823869163
21
0.06505382386916063
31
0.5000000000000011
  0
LINE
 8
Layer0
10
3.0
20
3.0
30
2.5
11
3.0650538238691625
21
2.934946176130839
31
2.499999999999823
 0
ENDSEC
 0
EOF
