  0
SECTION
  2
HEADER
  9
$ACADVER
  1
AC1024
  9
$ACADMAINTVER
 70
     6
  9
$DWGCODEPAGE
  3
ANSI_1252
  9
$INSBASE
 10
0.0
 20
0.0
 30
0.0
  9
$EXTMIN
 10
-6.652965023824594
 20
16.54560875679992
 30
0.0
  9
$EXTMAX
 10
-5.439837359684565
 20
17.98053111536389
 30
0.0
  9
$LIMMIN
 10
-11.87199665304799
 20
16.54560875679992
  9
$LIMMAX
 10
-5.37598395395886
 20
18.28923780560136
  9
$ORTHOMODE
 70
     0
  9
$REGENMODE
 70
     1
  9
$FILLMODE
 70
     1
  9
$QTEXTMODE
 70
     0
  9
$MIRRTEXT
 70
     0
  9
$LTSCALE
 40
1.0
  9
$ATTMODE
 70
     1
  9
$TEXTSIZE
 40
0.25
  9
$TRACEWID
 40
1.0
  9
$TEXTSTYLE
  7
Standard
  9
$CLAYER
  8
0
  9
$CELTYPE
  6
ByLayer
  9
$CECOLOR
 62
     7
  9
$CELTSCALE
 40
1.0
  9
$DISPSILH
 70
     0
  9
$DIMSCALE
 40
1.0
  9
$DIMASZ
 40
0.114
  9
$DIMEXO
 40
0.0625
  9
$DIMDLI
 40
0.38
  9
$DIMRND
 40
0.0
  9
$DIMDLE
 40
0.0
  9
$DIMEXE
 40
0.18
  9
$DIMTP
 40
0.0
  9
$DIMTM
 40
0.0
  9
$DIMTXT
 40
0.18
  9
$DIMCEN
 40
0.09
  9
$DIMTSZ
 40
0.0
  9
$DIMTOL
 70
     0
  9
$DIMLIM
 70
     0
  9
$DIMTIH
 70
     1
  9
$DIMTOH
 70
     1
  9
$DIMSE1
 70
     0
  9
$DIMSE2
 70
     0
  9
$DIMTAD
 70
     0
  9
$DIMZIN
 70
     0
  9
$DIMBLK
  1

  9
$DIMASO
 70
     1
  9
$DIMSHO
 70
     1
  9
$DIMPOST
  1

  9
$DIMAPOST
  1
^B2147483648l^B^B2147483648l^B
  9
$DIMALT
 70
     0
  9
$DIMALTD
 70
     2
  9
$DIMALTF
 40
25.4
  9
$DIMLFAC
 40
1.0
  9
$DIMTOFL
 70
     1
  9
$DIMTVP
 40
0.0
  9
$DIMTIX
 70
     0
  9
$DIMSOXD
 70
     0
  9
$DIMSAH
 70
     0
  9
$DIMBLK1
  1

  9
$DIMBLK2
  1

  9
$DIMSTYLE
  2
Standard
  9
$DIMCLRD
 70
     0
  9
$DIMCLRE
 70
     0
  9
$DIMCLRT
 70
     0
  9
$DIMTFAC
 40
1.0
  9
$DIMGAP
 40
0.09
  9
$DIMJUST
 70
     0
  9
$DIMSD1
 70
     0
  9
$DIMSD2
 70
     0
  9
$DIMTOLJ
 70
     1
  9
$DIMTZIN
 70
     0
  9
$DIMALTZ
 70
     0
  9
$DIMALTTZ
 70
     0
  9
$DIMUPT
 70
     0
  9
$DIMDEC
 70
     4
  9
$DIMTDEC
 70
     4
  9
$DIMALTU
 70
     2
  9
$DIMALTTD
 70
     2
  9
$DIMTXSTY
  7
Standard
  9
$DIMAUNIT
 70
     0
  9
$DIMADEC
 70
     0
  9
$DIMALTRND
 40
0.0
  9
$DIMAZIN
 70
     0
  9
$DIMDSEP
 70
    46
  9
$DIMATFIT
 70
     3
  9
$DIMFRAC
 70
     0
  9
$DIMLDRBLK
  1

  9
$DIMLUNIT
 70
     2
  9
$DIMLWD
 70
    -2
  9
$DIMLWE
 70
    -2
  9
$DIMTMOVE
 70
     0
  9
$DIMFXL
 40
1.0
  9
$DIMFXLON
 70
     0
  9
$DIMJOGANG
 40
0.7853981633974483
  9
$DIMTFILL
 70
     0
  9
$DIMTFILLCLR
 70
     0
  9
$DIMARCSYM
 70
     0
  9
$DIMLTYPE
  6
ByBlock
  9
$DIMLTEX1
  6
ByBlock
  9
$DIMLTEX2
  6
ByBlock
  9
$DIMTXTDIRECTION
 70
     0
  9
$LUNITS
 70
     2
  9
$LUPREC
 70
     2
  9
$SKETCHINC
 40
1.0
  9
$FILLETRAD
 40
1.0
  9
$AUNITS
 70
     0
  9
$AUPREC
 70
     2
  9
$MENU
  1
.
  9
$ELEVATION
 40
0.0
  9
$PELEVATION
 40
0.0
  9
$THICKNESS
 40
0.0
  9
$LIMCHECK
 70
     0
  9
$CHAMFERA
 40
0.5
  9
$CHAMFERB
 40
0.5
  9
$CHAMFERC
 40
1.0
  9
$CHAMFERD
 40
0.0
  9
$SKPOLY
 70
     0
  9
$TDCREATE
 40
2459626.937132465
  9
$TDUCREATE
 40
2459626.895465799
  9
$TDUPDATE
 40
2459626.937133472
  9
$TDUUPDATE
 40
2459626.895466805
  9
$TDINDWG
 40
0.0
  9
$TDUSRTIMER
 40
0.0
  9
$USRTIMER
 70
     1
  9
$ANGBASE
 50
0.0
  9
$ANGDIR
 70
     0
  9
$PDMODE
 70
     0
  9
$PDSIZE
 40
0.0
  9
$PLINEWID
 40
0.0
  9
$SPLFRAME
 70
     0
  9
$SPLINETYPE
 70
     5
  9
$SPLINESEGS
 70
    20
  9
$HANDSEED
  5
334
  9
$SURFTAB1
 70
     6
  9
$SURFTAB2
 70
     6
  9
$SURFTYPE
 70
     6
  9
$SURFU
 70
     6
  9
$SURFV
 70
     6
  9
$UCSBASE
  2

  9
$UCSNAME
  2

  9
$UCSORG
 10
0.0
 20
0.0
 30
0.0
  9
$UCSXDIR
 10
1.0
 20
0.0
 30
0.0
  9
$UCSYDIR
 10
0.0
 20
1.0
 30
0.0
  9
$UCSORTHOREF
  2

  9
$UCSORTHOVIEW
 70
     0
  9
$UCSORGTOP
 10
0.0
 20
0.0
 30
0.0
  9
$UCSORGBOTTOM
 10
0.0
 20
0.0
 30
0.0
  9
$UCSORGLEFT
 10
0.0
 20
0.0
 30
0.0
  9
$UCSORGRIGHT
 10
0.0
 20
0.0
 30
0.0
  9
$UCSORGFRONT
 10
0.0
 20
0.0
 30
0.0
  9
$UCSORGBACK
 10
0.0
 20
0.0
 30
0.0
  9
$PUCSBASE
  2

  9
$PUCSNAME
  2

  9
$PUCSORG
 10
0.0
 20
0.0
 30
0.0
  9
$PUCSXDIR
 10
1.0
 20
0.0
 30
0.0
  9
$PUCSYDIR
 10
0.0
 20
1.0
 30
0.0
  9
$PUCSORTHOREF
  2

  9
$PUCSORTHOVIEW
 70
     0
  9
$PUCSORGTOP
 10
0.0
 20
0.0
 30
0.0
  9
$PUCSORGBOTTOM
 10
0.0
 20
0.0
 30
0.0
  9
$PUCSORGLEFT
 10
0.0
 20
0.0
 30
0.0
  9
$PUCSORGRIGHT
 10
0.0
 20
0.0
 30
0.0
  9
$PUCSORGFRONT
 10
0.0
 20
0.0
 30
0.0
  9
$PUCSORGBACK
 10
0.0
 20
0.0
 30
0.0
  9
$USERI1
 70
     0
  9
$USERI2
 70
     0
  9
$USERI3
 70
     0
  9
$USERI4
 70
     0
  9
$USERI5
 70
     0
  9
$USERR1
 40
0.0
  9
$USERR2
 40
0.0
  9
$USERR3
 40
0.0
  9
$USERR4
 40
0.0
  9
$USERR5
 40
0.0
  9
$WORLDVIEW
 70
     1
  9
$SHADEDGE
 70
     3
  9
$SHADEDIF
 70
    70
  9
$TILEMODE
 70
     1
  9
$MAXACTVP
 70
    64
  9
$PINSBASE
 10
0.0
 20
0.0
 30
0.0
  9
$PLIMCHECK
 70
     0
  9
$PEXTMIN
 10
0.0
 20
0.0
 30
0.0
  9
$PEXTMAX
 10
0.0
 20
0.0
 30
0.0
  9
$PLIMMIN
 10
0.0
 20
0.0
  9
$PLIMMAX
 10
0.0
 20
0.0
  9
$UNITMODE
 70
     0
  9
$VISRETAIN
 70
     1
  9
$PLINEGEN
 70
     0
  9
$PSLTSCALE
 70
     1
  9
$TREEDEPTH
 70
  3020
  9
$CMLSTYLE
  2
Standard
  9
$CMLJUST
 70
     0
  9
$CMLSCALE
 40
1.0
  9
$PROXYGRAPHICS
 70
     1
  9
$MEASUREMENT
 70
     0
  9
$CELWEIGHT
370
    -1
  9
$ENDCAPS
280
     0
  9
$JOINSTYLE
280
     0
  9
$LWDISPLAY
290
     0
  9
$INSUNITS
 70
     1
  9
$HYPERLINKBASE
  1

  9
$STYLESHEET
  1

  9
$XEDIT
290
     1
  9
$CEPSNTYPE
380
     0
  9
$PSTYLEMODE
290
     1
  9
$FINGERPRINTGUID
  2
{D3FCDB7C-DD2F-4CEF-A49B-452E64306782}
  9
$VERSIONGUID
  2
{FAEB1C32-E019-11D5-929B-00C0DF256EC4}
  9
$EXTNAMES
290
     1
  9
$PSVPSCALE
 40
0.0
  9
$OLESTARTUP
290
     0
  9
$SORTENTS
280
   127
  9
$INDEXCTL
280
     0
  9
$HIDETEXT
280
     1
  9
$XCLIPFRAME
280
     2
  9
$HALOGAP
280
     0
  9
$OBSCOLOR
 70
   257
  9
$OBSLTYPE
280
     0
  9
$INTERSECTIONDISPLAY
280
     0
  9
$INTERSECTIONCOLOR
 70
   257
  9
$DIMASSOC
280
     2
  9
$PROJECTNAME
  1

  9
$CAMERADISPLAY
290
     0
  9
$LENSLENGTH
 40
50.0
  9
$CAMERAHEIGHT
 40
0.0
  9
$STEPSPERSEC
 40
2.0
  9
$STEPSIZE
 40
6.0
  9
$3DDWFPREC
 40
2.0
  9
$PSOLWIDTH
 40
0.25
  9
$PSOLHEIGHT
 40
4.0
  9
$LOFTANG1
 40
1.570796326794897
  9
$LOFTANG2
 40
1.570796326794897
  9
$LOFTMAG1
 40
0.0
  9
$LOFTMAG2
 40
0.0
  9
$LOFTPARAM
 70
     7
  9
$LOFTNORMALS
280
     1
  9
$LATITUDE
 40
37.795
  9
$LONGITUDE
 40
-122.394
  9
$NORTHDIRECTION
 40
0.0
  9
$TIMEZONE
 70
 -8000
  9
$LIGHTGLYPHDISPLAY
280
     1
  9
$TILEMODELIGHTSYNCH
280
     1
  9
$CMATERIAL
347
3C
  9
$SOLIDHIST
280
     1
  9
$SHOWHIST
280
     1
  9
$DWFFRAME
280
     2
  9
$DGNFRAME
280
     2
  9
$REALWORLDSCALE
290
     1
  9
$INTERFERECOLOR
 62
   256
  9
$CSHADOW
280
     0
  9
$SHADOWPLANELOCATION
 40
0.0
  0
ENDSEC
  0
SECTION
  2
CLASSES
  0
CLASS
  1
ACDBDICTIONARYWDFLT
  2
AcDbDictionaryWithDefault
  3
ObjectDBX Classes
 90
        0
 91
        4
280
     0
281
     0
  0
CLASS
  1
VISUALSTYLE
  2
AcDbVisualStyle
  3
ObjectDBX Classes
 90
     4095
 91
        4
280
     0
281
     0
  0
CLASS
  1
MATERIAL
  2
AcDbMaterial
  3
ObjectDBX Classes
 90
     1153
 91
        4
280
     0
281
     0
  0
CLASS
  1
SUN
  2
AcDbSun
  3
SCENEOE
 90
     1024
 91
        4
280
     0
281
     0
  0
CLASS
  1
AEC_VARS_DWG_SETUP
  2
AecDbVarsDwgSetup
  3
AecBase60
 90
      129
 91
        4
280
     0
281
     0
  0
CLASS
  1
AEC_DISP_REP_2D_SECTION
  2
AecDbDispRep2dSection
  3
AecBase60
 90
      129
 91
        4
280
     0
281
     0
  0
CLASS
  1
AEC_DISP_PROPS_2D_SECTION
  2
AecDbDispProps2dSection
  3
AecBase60
 90
      129
 91
        4
280
     0
281
     0
  0
CLASS
  1
AEC_DISP_REP_CLIP_VOLUME_MODEL
  2
AecDbDispRepClipVolModel
  3
AecBase60
 90
      129
 91
        6
280
     0
281
     0
  0
CLASS
  1
AEC_DISP_PROPS_CLIP_VOLUME
  2
AecDbDispPropsClipVol
  3
AecBase60
 90
      129
 91
        4
280
     0
281
     0
  0
CLASS
  1
AEC_DISP_REP_CLIP_VOLUME_PLAN
  2
AecDbDispRepClipVolPlan
  3
AecBase60
 90
      129
 91
        4
280
     0
281
     0
  0
CLASS
  1
AEC_DISP_REP_CLIP_VOLUME_RESULT
  2
AecDbDispRepClipVolResult
  3
AecBase60
 90
      129
 91
        6
280
     0
281
     0
  0
CLASS
  1
AEC_DISP_REP_CLIP_VOLUME_RESULT_SUBDIV
  2
AecDbDispRepClipVolResSubDiv
  3
AecBase60
 90
      129
 91
        5
280
     0
281
     0
  0
CLASS
  1
AEC_DISP_PROPS_CLIP_VOLUME_RESULT
  2
AecDbDispPropsClipVolResSubDiv
  3
AecBase60
 90
      129
 91
        4
280
     0
281
     0
  0
CLASS
  1
AEC_DISP_REP_DISPLAYTHEME
  2
AecDbDispRepDisplayTheme
  3
AecBase60
 90
      129
 91
        4
280
     0
281
     0
  0
CLASS
  1
AEC_DISP_PROPS_DISPLAYTHEME
  2
AecDbDispPropsDisplayTheme
  3
AecBase60
 90
      129
 91
        4
280
     0
281
     0
  0
CLASS
  1
AEC_DISP_REP_ENT_REF
  2
AecDbDispRepEntRef
  3
AecBase60
 90
      129
 91
        4
280
     0
281
     0
  0
CLASS
  1
AEC_DISP_PROPS_ENT_REF
  2
AecDbDispPropsEntRef
  3
AecBase60
 90
      129
 91
        4
280
     0
281
     0
  0
CLASS
  1
AEC_DISP_REP_LAYOUT_CURVE
  2
AecDbDispRepLayoutCurve
  3
AecBase60
 90
      129
 91
        4
280
     0
281
     0
  0
CLASS
  1
AEC_DISP_PROPS_LAYOUT_CURVE
  2
AecDbDispPropsLayoutCurve
  3
AecBase60
 90
      129
 91
        4
280
     0
281
     0
  0
CLASS
  1
AEC_DISP_REP_LAYOUT_GRID2D
  2
AecDbDispRepLayoutGrid2d
  3
AecBase60
 90
      129
 91
        6
280
     0
281
     0
  0
CLASS
  1
AEC_DISP_PROPS_LAYOUT_GRID2D
  2
AecDbDispPropsLayoutGrid2d
  3
AecBase60
 90
      129
 91
        5
280
     0
281
     0
  0
CLASS
  1
AEC_DISP_REP_LAYOUT_GRID3D
  2
AecDbDispRepLayoutGrid3d
  3
AecBase60
 90
      129
 91
        4
280
     0
281
     0
  0
CLASS
  1
AEC_DISP_PROPS_LAYOUT_GRID3D
  2
AecDbDispPropsLayoutGrid3d
  3
AecBase60
 90
      129
 91
        4
280
     0
281
     0
  0
CLASS
  1
AEC_DISP_REP_MASKBLOCK_REF
  2
AecDbDispRepMaskBlockRef
  3
AecBase60
 90
      129
 91
        5
280
     0
281
     0
  0
CLASS
  1
AEC_DISP_PROPS_MASKBLOCK
  2
AecDbDispPropsMaskBlock
  3
AecBase60
 90
      129
 91
        4
280
     0
281
     0
  0
CLASS
  1
AEC_DISP_REP_MASKBLOCK_REF_RCP
  2
AecDbDispRepMaskBlockRefRcp
  3
AecArchBase60
 90
      129
 91
        4
280
     0
281
     0
  0
CLASS
  1
AEC_DISP_REP_MASS_ELEM_MODEL
  2
AecDbDispRepMassElemModel
  3
AecBase60
 90
      129
 91
        4
280
     0
281
     0
  0
CLASS
  1
AEC_DISP_PROPS_MASS_ELEM_MODEL
  2
AecDbDispPropsMassElem
  3
AecBase60
 90
      129
 91
        5
280
     0
281
     0
  0
CLASS
  1
AEC_DISP_REP_MASS_ELEM_SCHEM
  2
AecDbDispRepMassElemSchem
  3
AecBase60
 90
      129
 91
        5
280
     0
281
     0
  0
CLASS
  1
AEC_DISPREPAECDBDISPREPMASSELEMPLAN50
  2
AecDbDispRepMassElemPlan50
  3
AecArchDACHBase60
 90
      129
 91
        4
280
     0
281
     0
  0
CLASS
  1
AEC_DISPROPSMASSELEMPLANCOMMON
  2
AecDbDispPropsMassElemPlanCommon
  3
AecArchDACHBase60
 90
      129
 91
        4
280
     0
281
     0
  0
CLASS
  1
AEC_DISPREPAECDBDISPREPMASSELEMPLAN100
  2
AecDbDispRepMassElemPlan100
  3
AecArchDACHBase60
 90
      129
 91
        4
280
     0
281
     0
  0
CLASS
  1
AEC_DISP_REP_MASS_ELEM_RCP
  2
AecDbDispRepMassElemRcp
  3
AecArchBase60
 90
      129
 91
        4
280
     0
281
     0
  0
CLASS
  1
AEC_DISP_REP_MASS_GROUP_MODEL
  2
AecDbDispRepMassGroupModel
  3
AecBase60
 90
      129
 91
        4
280
     0
281
     0
  0
CLASS
  1
AEC_DISP_PROPS_MASS_GROUP
  2
AecDbDispPropsMassGroup
  3
AecBase60
 90
      129
 91
        5
280
     0
281
     0
  0
CLASS
  1
AEC_DISP_REP_MASS_GROUP_PLAN
  2
AecDbDispRepMassGroupPlan
  3
AecBase60
 90
      129
 91
        8
280
     0
281
     0
  0
CLASS
  1
AEC_DISPREPAECDBDISPREPMASSGROUPPLAN50
  2
AecDbDispRepMassGroupPlan50
  3
AecArchDACHBase60
 90
      129
 91
        4
280
     0
281
     0
  0
CLASS
  1
AEC_DISPROPSMASSGROUPPLANCOMMON
  2
AecDbDispPropsMassGroupPlanCommon
  3
AecArchDACHBase60
 90
      129
 91
        4
280
     0
281
     0
  0
CLASS
  1
AEC_DISPREPAECDBDISPREPMASSGROUPPLAN100
  2
AecDbDispRepMassGroupPlan100
  3
AecArchDACHBase60
 90
      129
 91
        4
280
     0
281
     0
  0
CLASS
  1
AEC_DISP_REP_MASS_GROUP_RCP
  2
AecDbDispRepMassGroupRcp
  3
AecArchBase60
 90
      129
 91
        4
280
     0
281
     0
  0
CLASS
  1
AEC_DISP_REP_MVBLOCK_REF
  2
AecDbDispRepMvBlockRef
  3
AecBase60
 90
      129
 91
        8
280
     0
281
     0
  0
CLASS
  1
AEC_DISP_REP_MVBLOCK_REF_MODEL
  2
AecDbDispRepMvBlockRefModel
  3
AecBase60
 90
      129
 91
        4
280
     0
281
     0
  0
CLASS
  1
AEC_AECDBDISPREPMVBLOCKREFPLAN100
  2
AecDbDispRepMvBlockRefPlan100
  3
AecBase60
 90
      129
 91
        4
280
     0
281
     0
  0
CLASS
  1
AEC_AECDBDISPREPMVBLOCKREFPLAN50
  2
AecDbDispRepMvBlockRefPlan50
  3
AecBase60
 90
      129
 91
        4
280
     0
281
     0
  0
CLASS
  1
AEC_DISP_REP_POLYGON_MODEL
  2
AecDbDispRepPolygonModel
  3
AecBase60
 90
      129
 91
        4
280
     0
281
     0
  0
CLASS
  1
AEC_DISP_PROPS_POLYGON_MODEL
  2
AecDbDispPropsPolygonModel
  3
AecBase60
 90
      129
 91
        4
280
     0
281
     0
  0
CLASS
  1
AEC_DISP_REP_POLYGON_TRUECOLOUR
  2
AecDbDispRepPolygonTrueColour
  3
AecBase60
 90
      129
 91
        4
280
     0
281
     0
  0
CLASS
  1
AEC_DISP_PROPS_POLYGON_TRUECOLOUR
  2
AecDbDispPropsPolygonTrueColour
  3
AecBase60
 90
      129
 91
        4
280
     0
281
     0
  0
CLASS
  1
AEC_DISP_REP_SLICE
  2
AecDbDispRepSlice
  3
AecBase60
 90
      129
 91
        4
280
     0
281
     0
  0
CLASS
  1
AEC_DISP_PROPS_SLICE
  2
AecDbDispPropsSlice
  3
AecBase60
 90
      129
 91
        4
280
     0
281
     0
  0
CLASS
  1
AEC_DISP_REP_ANCHOR
  2
AecDbDispRepAnchor
  3
AecBase60
 90
      129
 91
        4
280
     0
281
     0
  0
CLASS
  1
AEC_DISP_REP_ANCHOR_ENT_TO_NODE
  2
AecDbDispRepAnchorEntToNode
  3
AecBase60
 90
      129
 91
        5
280
     0
281
     0
  0
CLASS
  1
AEC_DISP_PROPS_ENT
  2
AecDbDispPropsEnt
  3
AecBase60
 90
      129
 91
        4
280
     0
281
     0
  0
CLASS
  1
AEC_DISP_REP_MATERIAL
  2
AecDbDispRepMaterial
  3
AecBase60
 90
      129
 91
        4
280
     0
281
     0
  0
CLASS
  1
AEC_DISP_PROPS_MATERIAL
  2
AecDbDispPropsMaterial
  3
AecBase60
 90
      129
 91
        4
280
     0
281
     0
  0
CLASS
  1
AEC_DISP_REP_EDITINPLACEPROFILE
  2
AecDbDispRepEditInPlaceProfile
  3
AecBase60
 90
      129
 91
        4
280
     0
281
     0
  0
CLASS
  1
AEC_DISP_PROPS_EDITINPLACEPROFILE_MODEL
  2
AecDbDispPropsEditInPlaceProfile
  3
AecBase60
 90
      129
 91
        4
280
     0
281
     0
  0
CLASS
  1
AEC_VARS_ARCHBASE
  2
AecDbVarsArchBase
  3
AecArchBase60
 90
      129
 91
        4
280
     0
281
     0
  0
CLASS
  1
AEC_DISP_REP_BDG_ELEVLINE_PLAN
  2
AecDbDispRepBdgElevLinePlan
  3
AecArchBase60
 90
      129
 91
        7
280
     0
281
     0
  0
CLASS
  1
AEC_DISP_REP_BDG_ELEVLINE_MODEL
  2
AecDbDispRepBdgElevLineModel
  3
AecArchBase60
 90
      129
 91
        4
280
     0
281
     0
  0
CLASS
  1
AEC_DISP_REP_BDG_ELEVLINE_RCP
  2
AecDbDispRepBdgElevLineRcp
  3
AecArchBase60
 90
      129
 91
        4
280
     0
281
     0
  0
CLASS
  1
AEC_AECDBDISPREPBDGELEVLINEPLAN100
  2
AecDbDispRepBdgElevLinePlan100
  3
AecBase60
 90
      129
 91
        4
280
     0
281
     0
  0
CLASS
  1
AEC_AECDBDISPREPBDGELEVLINEPLAN50
  2
AecDbDispRepBdgElevLinePlan50
  3
AecBase60
 90
      129
 91
        4
280
     0
281
     0
  0
CLASS
  1
AEC_DISP_REP_BDG_SECTIONLINE_MODEL
  2
AecDbDispRepBdgSectionLineModel
  3
AecArchBase60
 90
      129
 91
        4
280
     0
281
     0
  0
CLASS
  1
AEC_DISP_REP_BDG_SECTIONLINE_PLAN
  2
AecDbDispRepBdgSectionLinePlan
  3
AecArchBase60
 90
      129
 91
        7
280
     0
281
     0
  0
CLASS
  1
AEC_DISP_REP_BDG_SECTIONLINE_RCP
  2
AecDbDispRepBdgSectionLineRcp
  3
AecArchBase60
 90
      129
 91
        4
280
     0
281
     0
  0
CLASS
  1
AEC_AECDBDISPREPBDGSECTIONLINEPLAN100
  2
AecDbDispRepBdgSectionLinePlan100
  3
AecBase60
 90
      129
 91
        4
280
     0
281
     0
  0
CLASS
  1
AEC_AECDBDISPREPBDGSECTIONLINEPLAN50
  2
AecDbDispRepBdgSectionLinePlan50
  3
AecBase60
 90
      129
 91
        4
280
     0
281
     0
  0
CLASS
  1
AEC_DISP_REP_BDG_SECTION_SUBDIV
  2
AecDbDispRepBdgSectionSubDiv
  3
AecArchBase60
 90
      129
 91
        4
280
     0
281
     0
  0
CLASS
  1
AEC_DISP_REP_BDG_SECTION_MODEL
  2
AecDbDispRepBdgSectionModel
  3
AecArchBase60
 90
      129
 91
        4
280
     0
281
     0
  0
CLASS
  1
AEC_DISP_REP_CEILING_GRID
  2
AecDbDispRepCeilingGrid
  3
AecArchBase60
 90
      893
 91
        8
280
     0
281
     0
  0
CLASS
  1
AEC_DISP_REP_CEILING_GRID_MODEL
  2
AecDbDispRepCeilingGridModel
  3
AecArchBase60
 90
      129
 91
        4
280
     0
281
     0
  0
CLASS
  1
AEC_DISP_REP_CEILING_GRID_RCP
  2
AecDbDispRepCeilingGridRcp
  3
AecArchBase60
 90
      129
 91
        4
280
     0
281
     0
  0
CLASS
  1
AEC_AECDBDISPREPCEILINGGRIDPLAN100
  2
AecDbDispRepCeilingGridPlan100
  3
AecBase60
 90
      129
 91
        4
280
     0
281
     0
  0
CLASS
  1
AEC_AECDBDISPREPCEILINGGRIDPLAN50
  2
AecDbDispRepCeilingGridPlan50
  3
AecBase60
 90
      129
 91
        4
280
     0
281
     0
  0
CLASS
  1
AEC_DISP_REP_CURTAIN_WALL_LAYOUT_MODEL
  2
AecDbDispRepCurtainWallLayoutModel
  3
AecArchBase60
 90
      129
 91
        4
280
     0
281
     0
  0
CLASS
  1
AEC_DISP_PROPS_GRID_ASSEMBLY_MODEL
  2
AecDbDispPropsGridAssemblyModel
  3
AecArchBase60
 90
      129
 91
        4
280
     0
281
     0
  0
CLASS
  1
AEC_DISP_REP_CURTAIN_WALL_LAYOUT_PLAN
  2
AecDbDispRepCurtainWallLayoutPlan
  3
AecArchBase60
 90
      129
 91
        6
280
     0
281
     0
  0
CLASS
  1
AEC_DISP_PROPS_GRID_ASSEMBLY_PLAN
  2
AecDbDispPropsGridAssemblyPlan
  3
AecArchBase60
 90
      129
 91
        4
280
     0
281
     0
  0
CLASS
  1
AEC_AECDBDISPREPCURTAINWALLLAYOUTPLAN100
  2
AecDbDispRepCurtainWallLayoutPlan100
  3
AecBase60
 90
      129
 91
        4
280
     0
281
     0
  0
CLASS
  1
AEC_AECDBDISPREPCURTAINWALLLAYOUTPLAN50
  2
AecDbDispRepCurtainWallLayoutPlan50
  3
AecBase60
 90
      129
 91
        4
280
     0
281
     0
  0
CLASS
  1
AEC_DISP_REP_CURTAIN_WALL_UNIT_MODEL
  2
AecDbDispRepCurtainWallUnitModel
  3
AecArchBase60
 90
      129
 91
        4
280
     0
281
     0
  0
CLASS
  1
AEC_DISP_REP_CURTAIN_WALL_UNIT_PLAN
  2
AecDbDispRepCurtainWallUnitPlan
  3
AecArchBase60
 90
      129
 91
        6
280
     0
281
     0
  0
CLASS
  1
AEC_AECDBDISPREPCURTAINWALLUNITPLAN100
  2
AecDbDispRepCurtainWallUnitPlan100
  3
AecBase60
 90
      129
 91
        4
280
     0
281
     0
  0
CLASS
  1
AEC_AECDBDISPREPCURTAINWALLUNITPLAN50
  2
AecDbDispRepCurtainWallUnitPlan50
  3
AecBase60
 90
      129
 91
        4
280
     0
281
     0
  0
CLASS
  1
AEC_DISP_REP_DOOR_MODEL
  2
AecDbDispRepDoorModel
  3
AecArchBase60
 90
      129
 91
        5
280
     0
281
     0
  0
CLASS
  1
AEC_DISP_PROPS_DOOR
  2
AecDbDispPropsDoor
  3
AecArchBase60
 90
      129
 91
        5
280
     0
281
     0
  0
CLASS
  1
AEC_DISP_REP_DOOR_ELEV
  2
AecDbDispRepDoorElev
  3
AecArchBase60
 90
      129
 91
        4
280
     0
281
     0
  0
CLASS
  1
AEC_DISP_REP_DOOR_PLAN
  2
AecDbDispRepDoorPlan
  3
AecArchBase60
 90
      129
 91
        8
280
     0
281
     0
  0
CLASS
  1
AEC_DISP_REP_DOOR_NOMINAL
  2
AecDbDispRepDoorNominal
  3
AecArchBase60
 90
      129
 91
        4
280
     0
281
     0
  0
CLASS
  1
AEC_DISP_PROPS_DOOR_NOMINAL
  2
AecDbDispPropsDoorNominal
  3
AecArchBase60
 90
      129
 91
        4
280
     0
281
     0
  0
CLASS
  1
AEC_DISP_REP_DOOR_THRESHOLD_PLAN
  2
AecDbDispRepDoorThresholdPlan
  3
AecArchBase60
 90
      129
 91
        4
280
     0
281
     0
  0
CLASS
  1
AEC_DISP_PROPS_DOOR_THRESHOLD_PLAN
  2
AecDbDispPropsDoorThresholdPlan
  3
AecArchBase60
 90
      129
 91
        4
280
     0
281
     0
  0
CLASS
  1
AEC_DISP_REP_DOOR_PLAN_50
  2
AecDbDispRepDoorPlan50
  3
AecArchDACHBase60
 90
      129
 91
        4
280
     0
281
     0
  0
CLASS
  1
AEC_DISP_PROPS_DOOR_PLAN_50
  2
AecDbDispPropsDoorPlan50
  3
AecArchDACHBase60
 90
      129
 91
        4
280
     0
281
     0
  0
CLASS
  1
AEC_DISP_REP_DOOR_PLAN_HEKTO
  2
AecDbDispRepDoorPlanHekto
  3
AecArchDACHBase60
 90
      129
 91
        4
280
     0
281
     0
  0
CLASS
  1
AEC_DISP_PROPS_DOOR_PLAN_100
  2
AecDbDispPropsDoorPlan100
  3
AecArchDACHBase60
 90
      129
 91
        4
280
     0
281
     0
  0
CLASS
  1
AEC_DISP_REP_DOOR_RCP
  2
AecDbDispRepDoorRcp
  3
AecArchBase60
 90
      129
 91
        4
280
     0
281
     0
  0
CLASS
  1
AEC_DISP_REP_DOOR_THRESHOLD_SYMBOL_PLAN
  2
AecDbDispRepDoorThresholdSymbolPlan
  3
AecArchDACHBase60
 90
      129
 91
        4
280
     0
281
     0
  0
CLASS
  1
AEC_DISP_PROPS_DOOR_THRESHOLD_SYMBOL_PLAN
  2
AecDbDispPropsDoorThresholdSymbolPlan
  3
AecArchDACHBase60
 90
      129
 91
        4
280
     0
281
     0
  0
CLASS
  1
AEC_DISP_REP_OPENING
  2
AecDbDispRepOpening
  3
AecArchBase60
 90
      129
 91
        6
280
     0
281
     0
  0
CLASS
  1
AEC_DISP_PROPS_OPENING
  2
AecDbDispPropsOpening
  3
AecArchBase60
 90
      129
 91
        5
280
     0
281
     0
  0
CLASS
  1
AEC_DISP_REP_OPENING_MODEL
  2
AecDbDispRepOpeningModel
  3
AecArchBase60
 90
      129
 91
        4
280
     0
281
     0
  0
CLASS
  1
AEC_DISPREPAECDBDISPREPOPENINGPLAN100
  2
AecDbDispRepOpeningPlan100
  3
AecArchDACHBase60
 90
      129
 91
        4
280
     0
281
     0
  0
CLASS
  1
AEC_DISPROPSOPENINGPLANCOMMONHATCHED
  2
AecDbDispPropsOpeningPlanCommonHatched
  3
AecArchDACHBase60
 90
      129
 91
        4
280
     0
281
     0
  0
CLASS
  1
AEC_DISPREPAECDBDISPREPOPENINGPLAN50
  2
AecDbDispRepOpeningPlan50
  3
AecArchDACHBase60
 90
      129
 91
        4
280
     0
281
     0
  0
CLASS
  1
AEC_DISPREPAECDBDISPREPOPENINGPLANREFLECTED
  2
AecDbDispRepOpeningPlanReflected
  3
AecArchDACHBase60
 90
      129
 91
        4
280
     0
281
     0
  0
CLASS
  1
AEC_DISPROPSOPENINGPLANCOMMON
  2
AecDbDispPropsOpeningPlanCommon
  3
AecArchDACHBase60
 90
      129
 91
        5
280
     0
281
     0
  0
CLASS
  1
AEC_DISPREPAECDBDISPREPOPENINGSILLPLAN
  2
AecDbDispRepOpeningSillPlan
  3
AecArchDACHBase60
 90
      129
 91
        4
280
     0
281
     0
  0
CLASS
  1
AEC_DISPROPSOPENINGSILLPLAN
  2
AecDbDispPropsOpeningSillPlan
  3
AecArchDACHBase60
 90
      129
 91
        4
280
     0
281
     0
  0
CLASS
  1
AEC_DISP_REP_RAILING_MODEL
  2
AecDbDispRepRailingModel
  3
AecArchBase60
 90
      129
 91
        4
280
     0
281
     0
  0
CLASS
  1
AEC_DISP_PROPS_RAILING_MODEL
  2
AecDbDispPropsRailingModel
  3
AecArchBase60
 90
      129
 91
        4
280
     0
281
     0
  0
CLASS
  1
AEC_DISP_REP_RAILING_PLAN
  2
AecDbDispRepRailingPlan
  3
AecArchBase60
 90
      129
 91
        5
280
     0
281
     0
  0
CLASS
  1
AEC_DISP_PROPS_RAILING_PLAN
  2
AecDbDispPropsRailingPlan
  3
AecArchBase60
 90
      129
 91
        5
280
     0
281
     0
  0
CLASS
  1
AEC_DISP_REP_RAILING_PLAN_100
  2
AecDbDispRepRailingPlan100
  3
AecArchDACHBase60
 90
      129
 91
        4
280
     0
281
     0
  0
CLASS
  1
AEC_DISP_ROPS_RAILING_PLAN_100
  2
AecDbDispPropsRailingPlan100
  3
AecArchDACHBase60
 90
      129
 91
        4
280
     0
281
     0
  0
CLASS
  1
AEC_DISP_REP_RAILING_PLAN_50
  2
AecDbDispRepRailingPlan50
  3
AecArchDACHBase60
 90
      129
 91
        4
280
     0
281
     0
  0
CLASS
  1
AEC_DISP_ROPS_RAILING_PLAN_50
  2
AecDbDispPropsRailingPlan50
  3
AecArchDACHBase60
 90
      129
 91
        4
280
     0
281
     0
  0
CLASS
  1
AEC_DISP_REP_ROOF_MODEL
  2
AecDbDispRepRoofModel
  3
AecArchBase60
 90
      129
 91
        4
280
     0
281
     0
  0
CLASS
  1
AEC_DISP_PROPS_ROOF
  2
AecDbDispPropsRoof
  3
AecArchBase60
 90
      129
 91
        4
280
     0
281
     0
  0
CLASS
  1
AEC_DISP_REP_ROOF_PLAN
  2
AecDbDispRepRoofPlan
  3
AecArchBase60
 90
      129
 91
        8
280
     0
281
     0
  0
CLASS
  1
AEC_DISP_REP_ROOF_RCP
  2
AecDbDispRepRoofRcp
  3
AecArchBase60
 90
      129
 91
        4
280
     0
281
     0
  0
CLASS
  1
AEC_AECDBDISPREPROOFPLAN100
  2
AecDbDispRepRoofPlan100
  3
AecBase60
 90
      129
 91
        4
280
     0
281
     0
  0
CLASS
  1
AEC_AECDBDISPREPROOFPLAN50
  2
AecDbDispRepRoofPlan50
  3
AecBase60
 90
      129
 91
        4
280
     0
281
     0
  0
CLASS
  1
AEC_DISP_REP_ROOFSLAB_MODEL
  2
AecDbDispRepRoofSlabModel
  3
AecArchBase60
 90
      129
 91
        4
280
     0
281
     0
  0
CLASS
  1
AEC_DISP_PROPS_ROOFSLAB
  2
AecDbDispPropsRoofSlab
  3
AecArchBase60
 90
      129
 91
        4
280
     0
281
     0
  0
CLASS
  1
AEC_DISP_REP_ROOFSLAB_PLAN
  2
AecDbDispRepRoofSlabPlan
  3
AecArchBase60
 90
      129
 91
        6
280
     0
281
     0
  0
CLASS
  1
AEC_DISP_PROPS_ROOFSLAB_PLAN
  2
AecDbDispPropsRoofSlabPlan
  3
AecArchBase60
 90
      129
 91
        4
280
     0
281
     0
  0
CLASS
  1
AEC_AECDBDISPREPROOFSLABPLAN100
  2
AecDbDispRepRoofSlabPlan100
  3
AecBase60
 90
      129
 91
        4
280
     0
281
     0
  0
CLASS
  1
AEC_AECDBDISPREPROOFSLABPLAN50
  2
AecDbDispRepRoofSlabPlan50
  3
AecBase60
 90
      129
 91
        4
280
     0
281
     0
  0
CLASS
  1
AEC_DISP_REP_SLAB_MODEL
  2
AecDbDispRepSlabModel
  3
AecArchBase60
 90
      129
 91
        5
280
     0
281
     0
  0
CLASS
  1
AEC_DISP_PROPS_SLAB
  2
AecDbDispPropsSlab
  3
AecArchBase60
 90
      129
 91
        6
280
     0
281
     0
  0
CLASS
  1
AEC_DISP_REP_SLAB_PLAN
  2
AecDbDispRepSlabPlan
  3
AecArchBase60
 90
      129
 91
        7
280
     0
281
     0
  0
CLASS
  1
AEC_DISP_PROPS_SLAB_PLAN
  2
AecDbDispPropsSlabPlan
  3
AecArchBase60
 90
      129
 91
        5
280
     0
281
     0
  0
CLASS
  1
AEC_AECDBDISPREPSLABPLAN100
  2
AecDbDispRepSlabPlan100
  3
AecBase60
 90
      129
 91
        4
280
     0
281
     0
  0
CLASS
  1
AEC_AECDBDISPREPSLABPLAN50
  2
AecDbDispRepSlabPlan50
  3
AecBase60
 90
      129
 91
        4
280
     0
281
     0
  0
CLASS
  1
AEC_DISP_REP_SPACE_MODEL
  2
AecDbDispRepSpaceModel
  3
AecArchBase60
 90
      129
 91
        4
280
     0
281
     0
  0
CLASS
  1
AEC_DISP_PROPS_SPACE_MODEL
  2
AecDbDispPropsSpaceModel
  3
AecArchBase60
 90
      129
 91
        4
280
     0
281
     0
  0
CLASS
  1
AEC_DISP_REP_SPACE_PLAN
  2
AecDbDispRepSpacePlan
  3
AecArchBase60
 90
      129
 91
        7
280
     0
281
     0
  0
CLASS
  1
AEC_DISP_PROPS_SPACE_PLAN
  2
AecDbDispPropsSpacePlan
  3
AecArchBase60
 90
      129
 91
        4
280
     0
281
     0
  0
CLASS
  1
AEC_DISP_REP_SPACE_RCP
  2
AecDbDispRepSpaceRcp
  3
AecArchBase60
 90
      129
 91
        4
280
     0
281
     0
  0
CLASS
  1
AEC_DISP_REP_SPACE_VOLUME
  2
AecDbDispRepSpaceVolume
  3
AecArchBase60
 90
      129
 91
        4
280
     0
281
     0
  0
CLASS
  1
AEC_DISP_REP_SPACE_DECOMPOSED
  2
AecDbDispRepSpaceDecomposed
  3
AecArchBase60
 90
      129
 91
        4
280
     0
281
     0
  0
CLASS
  1
AEC_DISP_PROPS_SPACE_DECOMPOSED
  2
AecDbDispPropsSpaceDecomposed
  3
AecArchBase60
 90
      129
 91
        4
280
     0
281
     0
  0
CLASS
  1
AEC_AECDBDISPREPSPACEPLAN100
  2
AecDbDispRepSpacePlan100
  3
AecBase60
 90
      129
 91
        4
280
     0
281
     0
  0
CLASS
  1
AEC_AECDBDISPREPSPACEPLAN50
  2
AecDbDispRepSpacePlan50
  3
AecBase60
 90
      129
 91
        4
280
     0
281
     0
  0
CLASS
  1
AEC_DISP_REP_STAIR_MODEL
  2
AecDbDispRepStairModel
  3
AecArchBase60
 90
      129
 91
        4
280
     0
281
     0
  0
CLASS
  1
AEC_DISP_PROPS_STAIR_MODEL
  2
AecDbDispPropsStairModel
  3
AecArchBase60
 90
      129
 91
        4
280
     0
281
     0
  0
CLASS
  1
AEC_DISP_REP_STAIR_PLAN
  2
AecDbDispRepStairPlan
  3
AecArchBase60
 90
      129
 91
        7
280
     0
281
     0
  0
CLASS
  1
AEC_DISP_PROPS_STAIR_PLAN
  2
AecDbDispPropsStairPlan
  3
AecArchBase60
 90
      129
 91
        6
280
     0
281
     0
  0
CLASS
  1
AEC_DISP_REP_STAIR_RCP
  2
AecDbDispRepStairRcp
  3
AecArchBase60
 90
      129
 91
        4
280
     0
281
     0
  0
CLASS
  1
AEC_DISP_REP_STAIR_PLAN_100
  2
AecDbDispRepStairPlan100
  3
AecArchDACHBase60
 90
      129
 91
        4
280
     0
281
     0
  0
CLASS
  1
AEC_DISP_ROPS_STAIR_PLAN_100
  2
AecDbDispPropsStairPlan100
  3
AecArchDACHBase60
 90
      129
 91
        4
280
     0
281
     0
  0
CLASS
  1
AEC_DISP_REP_STAIR_PLAN_50
  2
AecDbDispRepStairPlan50
  3
AecArchDACHBase60
 90
      129
 91
        4
280
     0
281
     0
  0
CLASS
  1
AEC_DISP_ROPS_STAIR_PLAN_50
  2
AecDbDispPropsStairPlan50
  3
AecArchDACHBase60
 90
      129
 91
        4
280
     0
281
     0
  0
CLASS
  1
AEC_DISP_REP_STAIR_PLAN_OVERLAPPING
  2
AecDbDispRepStairPlanOverlapping
  3
AecArchBase60
 90
      129
 91
        4
280
     0
281
     0
  0
CLASS
  1
AEC_DISP_PROPS_STAIR_PLAN_OVERLAPPING
  2
AecDbDispPropsStairPlanOverlapping
  3
AecArchBase60
 90
      129
 91
        4
280
     0
281
     0
  0
CLASS
  1
AEC_DISP_REP_WALL_GRAPH
  2
AecDbDispRepWallGraph
  3
AecArchBase60
 90
      129
 91
        4
280
     0
281
     0
  0
CLASS
  1
AEC_DISP_PROPS_WALL_GRAPH
  2
AecDbDispPropsWallGraph
  3
AecArchBase60
 90
      129
 91
        4
280
     0
281
     0
  0
CLASS
  1
AEC_DISP_REP_WALL_MODEL
  2
AecDbDispRepWallModel
  3
AecArchBase60
 90
      129
 91
        4
280
     0
281
     0
  0
CLASS
  1
AEC_DISP_PROPS_WALL_MODEL
  2
AecDbDispPropsWallModel
  3
AecArchBase60
 90
      129
 91
        4
280
     0
281
     0
  0
CLASS
  1
AEC_DISP_REP_WALL_PLAN
  2
AecDbDispRepWallPlan
  3
AecArchBase60
 90
      129
 91
        7
280
     0
281
     0
  0
CLASS
  1
AEC_DISP_PROPS_WALL_PLAN
  2
AecDbDispPropsWallPlan
  3
AecArchBase60
 90
      129
 91
        4
280
     0
281
     0
  0
CLASS
  1
AEC_DISP_REP_WALL_RCP
  2
AecDbDispRepWallRcp
  3
AecArchBase60
 90
      129
 91
        4
280
     0
281
     0
  0
CLASS
  1
AEC_DISP_REP_WALL_SCHEM
  2
AecDbDispRepWallSchem
  3
AecArchBase60
 90
      129
 91
        4
280
     0
281
     0
  0
CLASS
  1
AEC_DISP_PROPS_WALL_SCHEM
  2
AecDbDispPropsWallSchem
  3
AecArchBase60
 90
      129
 91
        4
280
     0
281
     0
  0
CLASS
  1
AEC_AECDBDISPREPWALLPLAN100
  2
AecDbDispRepWallPlan100
  3
AecBase60
 90
      129
 91
        4
280
     0
281
     0
  0
CLASS
  1
AEC_AECDBDISPREPWALLPLAN50
  2
AecDbDispRepWallPlan50
  3
AecBase60
 90
      129
 91
        4
280
     0
281
     0
  0
CLASS
  1
AEC_DISP_REP_WINDOW_MODEL
  2
AecDbDispRepWindowModel
  3
AecArchBase60
 90
      129
 91
        5
280
     0
281
     0
  0
CLASS
  1
AEC_DISP_PROPS_WINDOW
  2
AecDbDispPropsWindow
  3
AecArchBase60
 90
      129
 91
        6
280
     0
281
     0
  0
CLASS
  1
AEC_DISP_REP_WINDOW_ELEV
  2
AecDbDispRepWindowElev
  3
AecArchBase60
 90
      129
 91
        4
280
     0
281
     0
  0
CLASS
  1
AEC_DISP_REP_WINDOW_PLAN
  2
AecDbDispRepWindowPlan
  3
AecArchBase60
 90
      129
 91
        8
280
     0
281
     0
  0
CLASS
  1
AEC_DISP_REP_WINDOW_NOMINAL
  2
AecDbDispRepWindowNominal
  3
AecArchBase60
 90
      129
 91
        4
280
     0
281
     0
  0
CLASS
  1
AEC_DISP_PROPS_WINDOW_NOMINAL
  2
AecDbDispPropsWindowNominal
  3
AecArchBase60
 90
      129
 91
        4
280
     0
281
     0
  0
CLASS
  1
AEC_DISP_REP_WINDOW_RCP
  2
AecDbDispRepWindowRcp
  3
AecArchBase60
 90
      129
 91
        4
280
     0
281
     0
  0
CLASS
  1
AEC_DISP_REP_WINDOW_SILL_PLAN
  2
AecDbDispRepWindowSillPlan
  3
AecArchBase60
 90
      129
 91
        4
280
     0
281
     0
  0
CLASS
  1
AEC_DISP_PROPS_WINDOW_SILL_PLAN
  2
AecDbDispPropsWindowSillPlan
  3
AecArchBase60
 90
      129
 91
        4
280
     0
281
     0
  0
CLASS
  1
AEC_DISP_REP_WINDOW_PLAN_100
  2
AecDbDispRepWindowPlan100
  3
AecArchDACHBase60
 90
      129
 91
        4
280
     0
281
     0
  0
CLASS
  1
AEC_DISP_PROPS_WINDOW_PLAN_100
  2
AecDbDispPropsWindowPlan100
  3
AecArchDACHBase60
 90
      129
 91
        4
280
     0
281
     0
  0
CLASS
  1
AEC_DISP_REP_WINDOW_PLAN_50
  2
AecDbDispRepWindowPlan50
  3
AecArchDACHBase60
 90
      129
 91
        4
280
     0
281
     0
  0
CLASS
  1
AEC_DISP_PROPS_WINDOW_PLAN_50
  2
AecDbDispPropsWindowPlan50
  3
AecArchDACHBase60
 90
      129
 91
        4
280
     0
281
     0
  0
CLASS
  1
AEC_DISP_REP_WINDOW_ASSEMBLY_MODEL
  2
AecDbDispRepWindowAssemblyModel
  3
AecArchBase60
 90
      129
 91
        4
280
     0
281
     0
  0
CLASS
  1
AEC_DISP_REP_WINDOW_ASSEMBLY_PLAN
  2
AecDbDispRepWindowAssemblyPlan
  3
AecArchBase60
 90
      129
 91
        6
280
     0
281
     0
  0
CLASS
  1
AEC_DISP_REP_WINDOWASSEMBLY_SILL_PLAN
  2
AecDbDispRepWindowAssemblySillPlan
  3
AecArchBase60
 90
      129
 91
        4
280
     0
281
     0
  0
CLASS
  1
AEC_DISP_PROPS_WINDOW_ASSEMBLY_SILL_PLAN
  2
AecDbDispPropsWindowAssemblySillPlan
  3
AecArchBase60
 90
      129
 91
        4
280
     0
281
     0
  0
CLASS
  1
AEC_AECDBDISPREPWINDOWASSEMBLYPLAN100
  2
AecDbDispRepWindowAssemblyPlan100
  3
AecBase60
 90
      129
 91
        4
280
     0
281
     0
  0
CLASS
  1
AEC_AECDBDISPREPWINDOWASSEMBLYPLAN50
  2
AecDbDispRepWindowAssemblyPlan50
  3
AecBase60
 90
      129
 91
        4
280
     0
281
     0
  0
CLASS
  1
AEC_DB_DISP_REP_DIM_GROUP_PLAN
  2
AecDbDispRepDimGroupPlan
  3
AecArchDACHBase60
 90
      129
 91
        4
280
     0
281
     0
  0
CLASS
  1
AEC_DISP_PROPS_DIM
  2
AecDbDispPropsDimGroup
  3
AecArchDACHBase60
 90
      129
 91
        4
280
     0
281
     0
  0
CLASS
  1
AEC_DB_DISP_REP_DIM_GROUP_PLAN100
  2
AecDbDispRepDimGroupPlan100
  3
AecArchDACHBase60
 90
      129
 91
        4
280
     0
281
     0
  0
CLASS
  1
AEC_DB_DISP_REP_DIM_GROUP_PLAN50
  2
AecDbDispRepDimGroupPlan50
  3
AecArchDACHBase60
 90
      129
 91
        4
280
     0
281
     0
  0
CLASS
  1
AEC_DISP_REP_SCHEDULE_TABLE
  2
AecDbDispRepScheduleTable
  3
AecSchedule50
 90
      129
 91
        4
280
     0
281
     0
  0
CLASS
  1
AEC_DISP_PROPS_SCHEDULE_TABLE
  2
AecDbDispPropsScheduleTable
  3
AecSchedule50
 90
      129
 91
        4
280
     0
281
     0
  0
CLASS
  1
AEC_DISP_REP_ANCHOR_TAG_TO_ENT
  2
AecDbDispRepAnchorTagToEnt
  3
AecScheduleData60
 90
      129
 91
        5
280
     0
281
     0
  0
CLASS
  1
AEC_DISP_REP_ANCHOR_EXT_TAG_TO_ENT
  2
AecDbDispRepAnchorExtendedTagToEnt
  3
AecScheduleData60
 90
      129
 91
        4
280
     0
281
     0
  0
CLASS
  1
AEC_DISP_REP_SET
  2
AecDbDispRepSet
  3
AecBase60
 90
      129
 91
        4
280
     0
281
     0
  0
CLASS
  1
AECS_DISP_REP_MEMBER_MODEL_DESIGN
  2
AecsDbDispRepMemberModelDesign
  3
AecStructureBase60
 90
      129
 91
        4
280
     0
281
     0
  0
CLASS
  1
AECS_DISP_PROPS_MEMBER
  2
AecsDbDispPropsMember
  3
AecStructureBase60
 90
      129
 91
        6
280
     0
281
     0
  0
CLASS
  1
AECS_DISP_REP_MEMBER_PLAN_DESIGN
  2
AecsDbDispRepMemberPlanDesign
  3
AecStructureBase60
 90
      129
 91
        4
280
     0
281
     0
  0
CLASS
  1
AECS_DISP_PROPS_MEMBER_PLAN
  2
AecsDbDispPropsMemberPlan
  3
AecStructureBase60
 90
      129
 91
        5
280
     0
281
     0
  0
CLASS
  1
AEC_DISP_REP_CONFIG
  2
AecDbDispRepConfig
  3
AecBase60
 90
      129
 91
        4
280
     0
281
     0
  0
CLASS
  1
MLEADERSTYLE
  2
AcDbMLeaderStyle
  3
ACDB_MLEADERSTYLE_CLASS
 90
     4095
 91
        4
280
     0
281
     0
  0
CLASS
  1
GEODATA
  2
AcDbGeoData
  3
ObjectDBX Classes
 90
     4095
 91
        4
280
     0
281
     0
  0
CLASS
  1
AEC_WALL_STYLE
  2
AecDbWallStyle
  3
AecArchBase60
 90
      129
 91
        4
280
     0
281
     0
  0
CLASS
  1
AEC_CLEANUP_GROUP_DEF
  2
AecDbCleanupGroupDef
  3
AecArchBase60
 90
      129
 91
        4
280
     0
281
     0
  0
CLASS
  1
AEC_ENDCAP_STYLE
  2
AecDbEndcapStyle
  3
AecArchBase60
 90
      129
 91
        4
280
     0
281
     0
  0
CLASS
  1
AEC_FRAME_DEF
  2
AecDbOpeningEndcapStyle
  3
AecArchBase60
 90
      129
 91
        4
280
     0
281
     0
  0
CLASS
  1
AEC_MATERIAL_DEF
  2
AecDbMaterialDef
  3
AecBase60
 90
      129
 91
        4
280
     0
281
     0
  0
CLASS
  1
TABLESTYLE
  2
AcDbTableStyle
  3
ObjectDBX Classes
 90
     4095
 91
        4
280
     0
281
     0
  0
CLASS
  1
TCOPTIONALDATA
  2
TcOptionalData
  3
ExTcadCustObjs|Description: TurboCAD extension data object
 90
     4095
 91
        4
280
     0
281
     0
  0
CLASS
  1
CELLSTYLEMAP
  2
AcDbCellStyleMap
  3
ObjectDBX Classes
 90
     1152
 91
        4
280
     0
281
     0
  0
CLASS
  1
DICTIONARYVAR
  2
AcDbDictionaryVar
  3
ObjectDBX Classes
 90
        0
 91
        4
280
     0
281
     0
  0
ENDSEC
  0
SECTION
  2
TABLES
  0
TABLE
  2
VPORT
  5
8
330
0
100
AcDbSymbolTable
 70
     1
  0
VPORT
  5
29
330
8
100
AcDbSymbolTableRecord
100
AcDbViewportTableRecord
  2
*Active
 70
     0
 10
0.0
 20
0.0
 11
1.0
 21
1.0
 12
0.0
 22
0.0
 13
0.0
 23
0.0
 14
0.5
 24
0.5
 15
0.5
 25
0.5
 16
0.0
 26
0.0
 36
1.0
 17
-6.086018714589081
 27
17.11760348498855
 37
0.0
 40
3.837395304762805
 41
2.954365079365079
 42
50.0
 43
0.0
 44
0.0
 50
0.0
 51
0.0
 71
     0
 72
   100
 73
     1
 74
     3
 75
     0
 76
     0
 77
     0
 78
     0
281
     0
 65
     1
110
0.0
120
0.0
130
0.0
111
1.0
121
0.0
131
0.0
112
0.0
122
1.0
132
0.0
 79
     0
146
0.0
 60
     3
 61
     5
292
     1
282
     1
141
0.0
142
0.0
 63
   250
361
3F
  0
ENDTAB
  0
TABLE
  2
LTYPE
  5
5
330
0
100
AcDbSymbolTable
 70
    20
  0
LTYPE
  5
14
330
5
100
AcDbSymbolTableRecord
100
AcDbLinetypeTableRecord
  2
ByBlock
 70
     0
  3

 72
    65
 73
     0
 40
0.0
  0
LTYPE
  5
15
330
5
100
AcDbSymbolTableRecord
100
AcDbLinetypeTableRecord
  2
ByLayer
 70
     0
  3

 72
    65
 73
     0
 40
0.0
  0
LTYPE
  5
16
330
5
100
AcDbSymbolTableRecord
100
AcDbLinetypeTableRecord
  2
Continuous
 70
     0
  3
Solid line
 72
    65
 73
     0
 40
0.0
  0
LTYPE
  5
151
330
5
100
AcDbSymbolTableRecord
100
AcDbLinetypeTableRecord
  2
BORDER
 70
     0
  3
BORDER
 72
    65
 73
     6
 40
1.75
 49
0.5
 74
     0
 49
-0.25
 74
     0
 49
0.5
 74
     0
 49
-0.25
 74
     0
 49
0.0
 74
     0
 49
-0.25
 74
     0
  0
LTYPE
  5
152
330
5
100
AcDbSymbolTableRecord
100
AcDbLinetypeTableRecord
  2
CENTER
 70
     0
  3
CENTER
 72
    65
 73
     4
 40
2.0
 49
1.25
 74
     0
 49
-0.25
 74
     0
 49
0.25
 74
     0
 49
-0.25
 74
     0
  0
LTYPE
  5
153
330
5
100
AcDbSymbolTableRecord
100
AcDbLinetypeTableRecord
  2
DASHDOT
 70
     0
  3
DASHDOT
 72
    65
 73
     4
 40
1.0
 49
0.5
 74
     0
 49
-0.25
 74
     0
 49
0.0
 74
     0
 49
-0.25
 74
     0
  0
LTYPE
  5
154
330
5
100
AcDbSymbolTableRecord
100
AcDbLinetypeTableRecord
  2
DASHED
 70
     0
  3
DASHED
 72
    65
 73
     2
 40
0.75
 49
0.5
 74
     0
 49
-0.25
 74
     0
  0
LTYPE
  5
155
330
5
100
AcDbSymbolTableRecord
100
AcDbLinetypeTableRecord
  2
DIVIDE
 70
     0
  3
DIVIDE
 72
    65
 73
     6
 40
1.25
 49
0.5
 74
     0
 49
-0.25
 74
     0
 49
0.0
 74
     0
 49
-0.25
 74
     0
 49
0.0
 74
     0
 49
-0.25
 74
     0
  0
LTYPE
  5
156
330
5
100
AcDbSymbolTableRecord
100
AcDbLinetypeTableRecord
  2
DOT
 70
     0
  3
DOT
 72
    65
 73
     2
 40
0.25
 49
0.0
 74
     0
 49
-0.25
 74
     0
  0
LTYPE
  5
157
330
5
100
AcDbSymbolTableRecord
100
AcDbLinetypeTableRecord
  2
HIDDEN
 70
     0
  3
HIDDEN
 72
    65
 73
     2
 40
0.375
 49
0.25
 74
     0
 49
-0.125
 74
     0
  0
LTYPE
  5
158
330
5
100
AcDbSymbolTableRecord
100
AcDbLinetypeTableRecord
  2
PHANTOM
 70
     0
  3
PHANTOM
 72
    65
 73
     6
 40
2.5
 49
1.25
 74
     0
 49
-0.25
 74
     0
 49
0.25
 74
     0
 49
-0.25
 74
     0
 49
0.25
 74
     0
 49
-0.25
 74
     0
  0
LTYPE
  5
159
330
5
100
AcDbSymbolTableRecord
100
AcDbLinetypeTableRecord
  2
$INVISIBLE
 70
     0
  3
$INVISIBLE
 72
    65
 73
     2
 40
200.0
 49
-100.0
 74
     0
 49
-100.0
 74
     0
  0
LTYPE
  5
15A
330
5
100
AcDbSymbolTableRecord
100
AcDbLinetypeTableRecord
  2
STRICH_2_1MM
 70
     0
  3
STRICH_2_1MM
 72
    65
 73
     2
 40
0.115
 49
0.075
 74
     0
 49
-0.04
 74
     0
  0
LTYPE
  5
15B
330
5
100
AcDbSymbolTableRecord
100
AcDbLinetypeTableRecord
  2
PUNKT_1MM
 70
     0
  3
PUNKT_1MM
 72
    65
 73
     2
 40
0.05
 49
0.0
 74
     0
 49
-0.05
 74
     0
  0
LTYPE
  5
15C
330
5
100
AcDbSymbolTableRecord
100
AcDbLinetypeTableRecord
  2
ACHSE
 70
     0
  3
ACHSE
 72
    65
 73
     4
 40
0.115
 49
0.0
 74
     0
 49
-0.04
 74
     0
 49
0.075
 74
     0
 49
0.0
 74
     0
  0
LTYPE
  5
15D
330
5
100
AcDbSymbolTableRecord
100
AcDbLinetypeTableRecord
  2
STRICHPUNKT_3_1_1MM_ACHSEN
 70
     0
  3
STRICHPUNKT_3_1_1MM_ACHSEN
 72
    65
 73
     4
 40
0.22
 49
0.125
 74
     0
 49
-0.04
 74
     0
 49
0.015
 74
     0
 49
-0.04
 74
     0
  0
LTYPE
  5
15E
330
5
100
AcDbSymbolTableRecord
100
AcDbLinetypeTableRecord
  2
STRICH_6_2MM_TERRAIN
 70
     0
  3
STRICH_6_2MM_TERRAIN
 72
    65
 73
     2
 40
0.4
 49
0.3
 74
     0
 49
-0.1
 74
     0
  0
LTYPE
  5
15F
330
5
100
AcDbSymbolTableRecord
100
AcDbLinetypeTableRecord
  2
DOT_CENTER
 70
     0
  3
DOT_CENTER
 72
    65
 73
     4
 40
14.0
 49
12.0
 74
     0
 49
-1.0
 74
     0
 49
0.0
 74
     0
 49
-1.0
 74
     0
  0
LTYPE
  5
160
330
5
100
AcDbSymbolTableRecord
100
AcDbLinetypeTableRecord
  2
$CONSTRUCTION
 70
     0
  3
$CONSTRUCTION
 72
    65
 73
     4
 40
0.3
 49
0.2
 74
     0
 49
-0.05
 74
     0
 49
0.0
 74
     0
 49
-0.05
 74
     0
  0
LTYPE
  5
161
330
5
100
AcDbSymbolTableRecord
100
AcDbLinetypeTableRecord
  2
$AUXILIARY
 70
     0
  3
$AUXILIARY
 72
    65
 73
     2
 40
0.1
 49
0.05
 74
     0
 49
-0.05
 74
     0
  0
LTYPE
  5
162
330
5
100
AcDbSymbolTableRecord
100
AcDbLinetypeTableRecord
  2
$SNAPEXT
 70
     0
  3
$SNAPEXT
 72
    65
 73
     2
 40
0.04
 49
0.02
 74
     0
 49
-0.02
 74
     0
  0
LTYPE
  5
163
330
5
100
AcDbSymbolTableRecord
100
AcDbLinetypeTableRecord
  2
$DYNDIMDOT
 70
     0
  3
$DYNDIMDOT
 72
    65
 73
     2
 40
0.05
 49
0.0
 74
     0
 49
-0.05
 74
     0
  0
ENDTAB
  0
TABLE
  2
LAYER
  5
2
330
0
100
AcDbSymbolTable
 70
    14
  0
LAYER
  5
10
330
2
100
AcDbSymbolTableRecord
100
AcDbLayerTableRecord
  2
0
 70
     0
 62
     7
  6
Continuous
370
     0
390
F
347
3E
  0
LAYER
  5
164
330
2
100
AcDbSymbolTableRecord
100
AcDbLayerTableRecord
  2
0_WP_PLANKOPF_1_50__AAA_
 70
     0
 62
     7
  6
Continuous
370
     0
390
F
347
3E
  0
LAYER
  5
165
330
2
100
AcDbSymbolTableRecord
100
AcDbLayerTableRecord
  2
01_RAUMSTEMPEL_KONTUR
 70
     0
 62
     7
  6
Continuous
370
     0
390
F
347
3E
  0
LAYER
  5
166
330
2
100
AcDbSymbolTableRecord
100
AcDbLayerTableRecord
  2
01_RAUMSTEMPEL_TEXTRAHMEN
 70
     0
 62
     7
  6
Continuous
370
     0
390
F
347
3E
  0
LAYER
  5
167
330
2
100
AcDbSymbolTableRecord
100
AcDbLayerTableRecord
  2
01_RAUMSTEMPEL_TEXT
 70
     0
 62
     7
  6
Continuous
370
     0
390
F
347
3E
  0
LAYER
  5
168
330
2
100
AcDbSymbolTableRecord
100
AcDbLayerTableRecord
  2
01_RAUMSTEMPEL
 70
     0
 62
     7
  6
Continuous
370
     0
390
F
347
3E
  0
LAYER
  5
169
330
2
100
AcDbSymbolTableRecord
100
AcDbLayerTableRecord
  2
0_WP_SCHRAFFUREN_MATERIALA
 70
     0
 62
     7
  6
Continuous
370
     0
390
F
347
3E
  0
LAYER
  5
16A
330
2
100
AcDbSymbolTableRecord
100
AcDbLayerTableRecord
  2
0_WP_GARAGETOR_HÃ–RMANN_IND
 70
     0
 62
     7
  6
Continuous
370
     0
390
F
347
3E
  0
LAYER
  5
16B
330
2
100
AcDbSymbolTableRecord
100
AcDbLayerTableRecord
  2
0_WP_SCHRAFFUREN_TABUZONEN
 70
     0
 62
     7
  6
Continuous
370
     0
390
F
347
3E
  0
LAYER
  5
16C
330
2
100
AcDbSymbolTableRecord
100
AcDbLayerTableRecord
  2
01_LINIEN
 70
     0
 62
     7
  6
Continuous
370
     0
390
F
347
3E
  0
LAYER
  5
16D
330
2
100
AcDbSymbolTableRecord
100
AcDbLayerTableRecord
  2
0_WP_GARAGETOR_REDUZIERT
 70
     0
 62
     7
  6
Continuous
370
     0
390
F
347
3E
  0
LAYER
  5
16E
330
2
100
AcDbSymbolTableRecord
100
AcDbLayerTableRecord
  2
00_HÃ–HENLINIEN_GWP_GEDREHT
 70
     0
 62
     7
  6
Continuous
370
     0
390
F
347
3E
  0
LAYER
  5
16F
330
2
100
AcDbSymbolTableRecord
100
AcDbLayerTableRecord
  2
0_WP_BEMASSUNG_1_50
 70
     0
 62
     7
  6
Continuous
370
     0
390
F
347
3E
  0
LAYER
  5
170
330
2
100
AcDbSymbolTableRecord
100
AcDbLayerTableRecord
  2
11_LINIEN
 70
     0
 62
     7
  6
Continuous
370
     0
390
F
347
3E
  0
ENDTAB
  0
TABLE
  2
STYLE
  5
3
330
0
100
AcDbSymbolTable
 70
     6
  0
STYLE
  5
11
330
3
100
AcDbSymbolTableRecord
100
AcDbTextStyleTableRecord
  2
Standard
 70
     0
 40
0.0
 41
1.0
 50
0.0
 71
     0
 42
0.2000000327825546
  3
TXT.SHX
  4

  0
STYLE
  5
172
330
3
100
AcDbSymbolTableRecord
100
AcDbTextStyleTableRecord
  2
ERSTELLTER_STIL_1
 70
     0
 40
0.0
 41
1.0
 50
0.0
 71
     0
 42
0.2000000327825546
  3

  4

1001
ACAD
1000
swis721 bt
1071
      290
  0
STYLE
  5
173
330
3
100
AcDbSymbolTableRecord
100
AcDbTextStyleTableRecord
  2
ERSTELLTER_STIL_2
 70
     0
 40
0.0
 41
1.0
 50
0.0
 71
     0
 42
0.2000000029802322
  3

  4

1001
ACAD
1000
Arial
1071
 33554466
  0
STYLE
  5
174
330
3
100
AcDbSymbolTableRecord
100
AcDbTextStyleTableRecord
  2
ERSTELLTER_STIL_3
 70
     0
 40
0.0
 41
1.0
 50
0.0
 71
     0
 42
0.2000000029802322
  3

  4

1001
ACAD
1000
Arial
1071
       34
  0
STYLE
  5
175
330
3
100
AcDbSymbolTableRecord
100
AcDbTextStyleTableRecord
  2
ERSTELLTER_STIL_4
 70
     0
 40
0.0
 41
0.8399999737739563
 50
0.0
 71
     0
 42
0.2000000029802322
  3

  4

1001
ACAD
1000
Arial
1071
       34
  0
STYLE
  5
176
330
3
100
AcDbSymbolTableRecord
100
AcDbTextStyleTableRecord
  2
ERSTELLTER_STIL_5
 70
     0
 40
0.0
 41
1.0
 50
0.0
 71
     0
 42
0.2000000327825546
  3

  4

1001
ACAD
1000
swis721 bt
1071
      290
  0
ENDTAB
  0
TABLE
  2
VIEW
  5
6
330
0
100
AcDbSymbolTable
 70
     1
  0
VIEW
  5
171
330
6
100
AcDbSymbolTableRecord
100
AcDbViewTableRecord
  2
View_0
 70
     0
 40
8.267716535433072
 10
5.846456692913386
 20
4.133858267716536
 41
11.69291338582677
 11
0.0
 21
0.0
 31
1.0
 12
0.0
 22
0.0
 32
0.0
 42
50.0
 43
0.0
 44
0.0
 50
0.0
 71
     0
281
     0
 72
     0
 73
     0
  0
ENDTAB
  0
TABLE
  2
UCS
  5
7
330
0
100
AcDbSymbolTable
 70
     0
  0
ENDTAB
  0
TABLE
  2
APPID
  5
9
330
0
100
AcDbSymbolTable
 70
     6
  0
APPID
  5
12
330
9
100
AcDbSymbolTableRecord
100
AcDbRegAppTableRecord
  2
ACAD
 70
     0
  0
APPID
  5
40
330
9
100
AcDbSymbolTableRecord
100
AcDbRegAppTableRecord
  2
TCAD
 70
     0
  0
APPID
  5
185
330
9
100
AcDbSymbolTableRecord
100
AcDbRegAppTableRecord
  2
ACAD_MLEADERVER
 70
     0
  0
ENDTAB
  0
TABLE
  2
DIMSTYLE
  5
A
330
0
100
AcDbSymbolTable
 70
    10
100
AcDbDimStyleTable
  0
DIMSTYLE
105
27
330
A
100
AcDbSymbolTableRecord
100
AcDbDimStyleTableRecord
  2
Standard
 70
     0
  4
^B2147483648l^B^B2147483648l^B
178
     0
340
11
345
14
346
14
347
14
  0
DIMSTYLE
105
177
330
A
100
AcDbSymbolTableRecord
100
AcDbDimStyleTableRecord
  2
ERSTELLTER_STIL__1
 70
     0
  4
^B2147483648l^B^B2147483648l^B
 41
0.095
 42
0.1
 77
     1
140
0.1100000023841858
172
     1
176
     7
177
     7
271
     2
178
     7
179
     2
271
     2
288
     1
340
174
341
178
342
178
343
178
344
178
345
14
346
14
347
14
  0
DIMSTYLE
105
17B
330
A
100
AcDbSymbolTableRecord
100
AcDbDimStyleTableRecord
  2
ERSTELLTER_STIL__2
 70
     0
  4
^B2147483648l^B^B2147483648l^B
 41
0.095
 42
0.1
 73
     0
 74
     0
 77
     1
140
0.1100000023841858
172
     1
176
     7
177
     7
271
     2
178
     7
179
     2
271
     2
288
     1
340
174
341
178
342
178
343
178
344
178
345
14
346
14
347
14
  0
DIMSTYLE
105
17C
330
A
100
AcDbSymbolTableRecord
100
AcDbDimStyleTableRecord
  2
ERSTELLTER_STIL__3
 70
     0
  4
^B2147483648l^B^B2147483648l^B
 41
0.095
 42
0.1
 73
     0
 74
     0
 77
     1
140
0.1100000023841858
172
     1
176
     5
177
     5
271
     2
178
     5
179
     2
271
     2
288
     1
340
174
341
178
342
178
343
178
344
178
345
14
346
14
347
14
  0
DIMSTYLE
105
17D
330
A
100
AcDbSymbolTableRecord
100
AcDbDimStyleTableRecord
  2
ERSTELLTER_STIL__4
 70
     0
  4
^B2147483648l^B^B2147483648l^B
 41
0.095
 42
0.1
 73
     0
 74
     0
 77
     1
140
0.1100000023841858
172
     1
176
     5
177
     5
271
     2
178
     5
179
     2
271
     2
279
     2
288
     1
340
174
341
178
342
178
343
178
344
178
345
14
346
14
347
14
  0
DIMSTYLE
105
17E
330
A
100
AcDbSymbolTableRecord
100
AcDbDimStyleTableRecord
  2
ERSTELLTER_STIL__5
 70
     0
  4
^B2147483648l^B^B2147483648l^B
 41
0.095
 42
0.1
 73
     0
 74
     0
 77
     1
140
0.1100000023841858
172
     1
176
     7
177
     7
271
     2
178
     7
179
     2
271
     2
279
     2
288
     1
340
174
341
178
342
178
343
178
344
178
345
14
346
14
347
14
  0
DIMSTYLE
105
17F
330
A
100
AcDbSymbolTableRecord
100
AcDbDimStyleTableRecord
  2
ERSTELLTER_STIL__6
 70
     0
  4
^B2147483648l^B^B2147483648l^B
 41
0.095
 42
0.1
 77
     1
140
0.1100000023841858
172
     1
176
     7
177
     7
271
     2
178
     7
179
     2
271
     2
279
     2
288
     1
340
174
341
178
342
178
343
178
344
178
345
14
346
14
347
14
  0
DIMSTYLE
105
180
330
A
100
AcDbSymbolTableRecord
100
AcDbDimStyleTableRecord
  2
ERSTELLTER_STIL__7
 70
     0
  4
^B2147483648l^B^B2147483648l^B
 41
0.095
 42
0.1
 77
     1
140
0.1100000023841858
172
     1
176
     5
177
     5
271
     2
178
     5
179
     2
271
     2
288
     1
340
174
341
178
342
178
343
178
344
178
345
14
346
14
347
14
  0
DIMSTYLE
105
181
330
A
100
AcDbSymbolTableRecord
100
AcDbDimStyleTableRecord
  2
ERSTELLTER_STIL__8
 70
     0
  4
^B2147483648l^B^B2147483648l^B
 41
0.0912
172
     1
178
     0
340
11
345
14
346
14
347
14
  0
DIMSTYLE
105
182
330
A
100
AcDbSymbolTableRecord
100
AcDbDimStyleTableRecord
  2
ERSTELLTER_STIL__9
 70
     0
  4
^B2147483648l^B^B2147483648l^B
 41
0.114
172
     1
178
     0
340
11
345
14
346
14
347
14
  0
ENDTAB
  0
TABLE
  2
BLOCK_RECORD
  5
1
330
0
100
AcDbSymbolTable
 70
    16
  0
BLOCK_RECORD
  5
1F
102
{ACAD_XDICTIONARY
360
186
102
}
330
1
100
AcDbSymbolTableRecord
100
AcDbBlockTableRecord
  2
*Model_Space
340
22
 70
     0
280
     1
281
     0
  0
BLOCK_RECORD
  5
1B
330
1
100
AcDbSymbolTableRecord
100
AcDbBlockTableRecord
  2
*Paper_Space
340
1E
 70
     0
280
     1
281
     0
  0
BLOCK_RECORD
  5
178
330
1
100
AcDbSymbolTableRecord
100
AcDbBlockTableRecord
  2
ARROWHEAD_6
340
0
 70
     0
280
     1
281
     0
  0
BLOCK_RECORD
  5
19A
330
1
100
AcDbSymbolTableRecord
100
AcDbBlockTableRecord
  2
_X0
340
0
102
{BLKREFS
331
317
102
}
 70
     0
280
     1
281
     0
  0
BLOCK_RECORD
  5
19C
330
1
100
AcDbSymbolTableRecord
100
AcDbBlockTableRecord
  2
TECHNIK_UG-08_7
340
0
102
{BLKREFS
331
318
102
}
 70
     0
280
     1
281
     0
  0
BLOCK_RECORD
  5
1C5
330
1
100
AcDbSymbolTableRecord
100
AcDbBlockTableRecord
  2
GARAGE_4_UG-04_1
340
0
 70
     0
280
     1
281
     0
  0
BLOCK_RECORD
  5
1EE
330
1
100
AcDbSymbolTableRecord
100
AcDbBlockTableRecord
  2
GARAGE_3_UG-03_2
340
0
 70
     0
280
     1
281
     0
  0
BLOCK_RECORD
  5
217
330
1
100
AcDbSymbolTableRecord
100
AcDbBlockTableRecord
  2
GARAGE_2_UG-02_3
340
0
 70
     0
280
     1
281
     0
  0
BLOCK_RECORD
  5
240
330
1
100
AcDbSymbolTableRecord
100
AcDbBlockTableRecord
  2
GARAGE_1_UG-01_4
340
0
 70
     0
280
     1
281
     0
  0
BLOCK_RECORD
  5
269
330
1
100
AcDbSymbolTableRecord
100
AcDbBlockTableRecord
  2
ENTRÃ‰E_UG_UG-06_5
340
0
 70
     0
280
     1
281
     0
  0
BLOCK_RECORD
  5
292
330
1
100
AcDbSymbolTableRecord
100
AcDbBlockTableRecord
  2
KELLER_2_UG-05_6
340
0
 70
     0
280
     1
281
     0
  0
BLOCK_RECORD
  5
2BB
330
1
100
AcDbSymbolTableRecord
100
AcDbBlockTableRecord
  2
KELLER_1_UG-07_8
340
0
 70
     0
280
     1
281
     0
  0
BLOCK_RECORD
  5
2D0
330
1
100
AcDbSymbolTableRecord
100
AcDbBlockTableRecord
  2
LIFT_EG-02_9
340
0
 70
     0
280
     1
281
     0
  0
BLOCK_RECORD
  5
2DA
330
1
100
AcDbSymbolTableRecord
100
AcDbBlockTableRecord
  2
RESERVE_UG-09_10
340
0
 70
     0
280
     1
281
     0
  0
BLOCK_RECORD
  5
303
330
1
100
AcDbSymbolTableRecord
100
AcDbBlockTableRecord
  2
ARROWHEAD_12
340
0
 70
     0
280
     1
281
     0
  0
BLOCK_RECORD
  5
30E
330
1
100
AcDbSymbolTableRecord
100
AcDbBlockTableRecord
  2
ARROWHEAD_10
340
0
 70
     0
280
     1
281
     0
  0
ENDTAB
  0
ENDSEC
  0
SECTION
  2
BLOCKS
  0
BLOCK
  5
20
330
1F
100
AcDbEntity
  8
0
100
AcDbBlockBegin
  2
*Model_Space
 70
     0
 10
0.0
 20
0.0
 30
0.0
  3
*Model_Space
  1

  0
ENDBLK
  5
21
330
1F
100
AcDbEntity
  8
0
100
AcDbBlockEnd
  0
BLOCK
  5
1C
330
1B
100
AcDbEntity
 67
     1
  8
0
100
AcDbBlockBegin
  2
*Paper_Space
 70
     0
 10
0.0
 20
0.0
 30
0.0
  3
*Paper_Space
  1

  0
ENDBLK
  5
1D
330
1B
100
AcDbEntity
 67
     1
  8
0
100
AcDbBlockEnd
  0
BLOCK
  5
179
330
178
100
AcDbEntity
  8
0
100
AcDbBlockBegin
  2
ARROWHEAD_6
 70
     0
 10
0.0
 20
0.0
 30
0.0
  3
ARROWHEAD_6
  1

  0
LINE
  5
194
102
{ACAD_XDICTIONARY
360
195
102
}
330
178
100
AcDbEntity
  8
0
  6
Continuous
 62
     0
100
AcDbLine
 10
-0.5
 20
-0.5
 30
0.0
 11
0.5
 21
0.5
 31
0.0
  0
LINE
  5
197
102
{ACAD_XDICTIONARY
360
198
102
}
330
178
100
AcDbEntity
  8
0
  6
Continuous
 62
     0
100
AcDbLine
 10
0.0
 20
0.0
 30
0.0
 11
-1.0
 21
0.0
 31
0.0
  0
ENDBLK
  5
17A
330
178
100
AcDbEntity
  8
0
100
AcDbBlockEnd
  0
BLOCK
  5
19B
330
19A
100
AcDbEntity
  8
0
100
AcDbBlockBegin
  2
_X0
 70
     0
 10
0.0
 20
0.0
 30
0.0
  3
_X0
  1

  0
ENDBLK
  5
19E
330
19A
100
AcDbEntity
  8
0
100
AcDbBlockEnd
  0
BLOCK
  5
19D
330
19C
100
AcDbEntity
  8
0
100
AcDbBlockBegin
  2
TECHNIK_UG-08_7
 70
     2
 10
-6.04640119175458
 20
18.02568639525572
 30
0.0
  3
TECHNIK_UG-08_7
  1

  0
LINE
  5
19F
102
{ACAD_XDICTIONARY
360
1A0
102
}
330
19C
100
AcDbEntity
  8
01_RAUMSTEMPEL_TEXTRAHMEN
  6
Continuous
100
AcDbLine
 10
-6.652965023824594
 20
17.50425782382715
 30
0.0
 11
-5.439837359684565
 21
17.50425782382715
 31
0.0
  0
LINE
  5
1A2
102
{ACAD_XDICTIONARY
360
1A3
102
}
330
19C
100
AcDbEntity
  8
01_RAUMSTEMPEL_TEXTRAHMEN
  6
Continuous
100
AcDbLine
 10
-5.439837359684565
 20
17.50425782382715
 30
0.0
 11
-5.439837359684565
 21
17.11140068097001
 31
0.0
  0
LINE
  5
1A5
102
{ACAD_XDICTIONARY
360
1A6
102
}
330
19C
100
AcDbEntity
  8
01_RAUMSTEMPEL_TEXTRAHMEN
  6
Continuous
100
AcDbLine
 10
-5.439837359684565
 20
17.11140068097001
 30
0.0
 11
-6.652965023824594
 21
17.11140068097001
 31
0.0
  0
LINE
  5
1A8
102
{ACAD_XDICTIONARY
360
1A9
102
}
330
19C
100
AcDbEntity
  8
01_RAUMSTEMPEL_TEXTRAHMEN
  6
Continuous
100
AcDbLine
 10
-6.652965023824594
 20
17.11140068097001
 30
0.0
 11
-6.652965023824594
 21
17.50425782382715
 31
0.0
  0
LINE
  5
1AB
102
{ACAD_XDICTIONARY
360
1AC
102
}
330
19C
100
AcDbEntity
  8
01_RAUMSTEMPEL_TEXTRAHMEN
  6
Continuous
100
AcDbLine
 10
-5.811355557820616
 20
17.50425782382715
 30
0.0
 11
-5.811355557820616
 21
17.11140068097001
 31
0.0
  0
LINE
  5
1AE
102
{ACAD_XDICTIONARY
360
1AF
102
}
330
19C
100
AcDbEntity
  8
01_RAUMSTEMPEL_TEXTRAHMEN
  6
Continuous
100
AcDbLine
 10
-5.811355557820616
 20
17.30782925239858
 30
0.0
 11
-5.439837359684565
 21
17.30782925239858
 31
0.0
  0
ATTDEF
  5
1B1
102
{ACAD_XDICTIONARY
360
1B2
102
}
330
19C
100
AcDbEntity
  8
01_RAUMSTEMPEL_TEXT
  6
Continuous
100
AcDbText
 10
-6.652965023824594
 20
17.79140068246013
 30
0.0
 40
0.1499999985098839
  1
Technik
  7
ERSTELLTER_STIL_2
 11
-6.652965023824594
 21
17.94140068097001
 31
0.0
100
AcDbAttributeDefinition
  3
Raumname
  2
ROOM_NAME
 70
     0
 74
     3
280
     0
  0
ATTDEF
  5
1B4
102
{ACAD_XDICTIONARY
360
1B5
102
}
330
19C
100
AcDbEntity
  8
01_RAUMSTEMPEL_TEXT
  6
Continuous
100
AcDbText
 10
-6.535107880967451
 20
17.24140068246012
 30
0.0
 40
0.1499999985098839
  1
UG-08
  7
ERSTELLTER_STIL_2
 11
-6.535107880967451
 21
17.39140068097
 31
0.0
100
AcDbAttributeDefinition
  3
Raumnummer
  2
ROOM_NUMBER
 70
     0
 74
     3
280
     0
  0
ATTDEF
  5
1B7
330
19C
100
AcDbEntity
  8
01_RAUMSTEMPEL_TEXT
  6
Continuous
100
AcDbText
 10
-6.439616526010184
 20
17.55818639624913
 30
0.0
 40
0.0999999990065892
  1
18.99
  7
ERSTELLTER_STIL_3
 11
-6.439616526010184
 21
17.65818639525572
 31
0.0
100
AcDbAttributeDefinition
  3
Gemessene FlÃ¤che
  2
ROOM_AREA
 70
     0
 74
     3
280
     0
  0
ATTDEF
  5
1B8
330
19C
100
AcDbEntity
  8
01_RAUMSTEMPEL_TEXT
  6
Continuous
100
AcDbText
 10
-5.726400051021266
 20
17.36175782482056
 30
0.0
 40
0.0999999990065892
  1
4.86
  7
ERSTELLTER_STIL_3
 11
-5.726400051021266
 21
17.46175782382715
 31
0.0
100
AcDbAttributeDefinition
  3

  2
orders_temp_0
 70
     0
 74
     3
280
     0
  0
ATTDEF
  5
1B9
330
19C
100
AcDbEntity
  8
01_RAUMSTEMPEL_TEXT
  6
Continuous
100
AcDbText
 10
-5.726400051021266
 20
17.16532925339199
 30
0.0
 40
0.0999999990065892
  1
5.03
  7
ERSTELLTER_STIL_3
 11
-5.726400051021266
 21
17.26532925239858
 31
0.0
100
AcDbAttributeDefinition
  3

  2
orders_temp_1
 70
     0
 74
     3
280
     0
  0
ATTDEF
  5
1BA
330
19C
100
AcDbEntity
  8
01_RAUMSTEMPEL_TEXT
  6
Continuous
100
AcDbText
 10
-6.652965023824594
 20
16.96890068196342
 30
0.0
 40
0.0999999990065892
  1
B:
  7
ERSTELLTER_STIL_3
 11
-6.652965023824594
 21
17.06890068097001
 31
0.0
100
AcDbAttributeDefinition
  3
Bodenbelag Titel
  2
floor_bez
 70
     0
 74
     3
280
     0
  0
ATTDEF
  5
1BB
330
19C
100
AcDbEntity
  8
01_RAUMSTEMPEL_TEXT
  6
Continuous
100
AcDbText
 10
-6.4878979092488
 20
16.96890068196342
 30
0.0
 40
0.0999999990065892
  1
Hartbeton
  7
ERSTELLTER_STIL_3
 11
-6.4878979092488
 21
17.06890068097001
 31
0.0
100
AcDbAttributeDefinition
  3
Bodenbelag
  2
floor_f
 70
     0
 74
     3
280
     0
  0
ATTDEF
  5
1BC
330
19C
100
AcDbEntity
  8
01_RAUMSTEMPEL_TEXT
  6
Continuous
100
AcDbText
 10
-6.652965023824594
 20
16.77247211053485
 30
0.0
 40
0.0999999990065892
  1
W:
  7
ERSTELLTER_STIL_3
 11
-6.652965023824594
 21
16.87247210954144
 31
0.0
100
AcDbAttributeDefinition
  3
Bezeichnung Wandbelag
  2
wall_bez
 70
     0
 74
     3
280
     0
  0
ATTDEF
  5
1BD
330
19C
100
AcDbEntity
  8
01_RAUMSTEMPEL_TEXT
  6
Continuous
100
AcDbText
 10
-6.4878979092488
 20
16.77247211053485
 30
0.0
 40
0.0999999990065892
  1
Beton 
  7
ERSTELLTER_STIL_3
 11
-6.4878979092488
 21
16.87247210954144
 31
0.0
100
AcDbAttributeDefinition
  3
Wandbelag Material
  2
wall_mat_0
 70
     0
 74
     3
280
     0
  0
ATTDEF
  5
1BE
330
19C
100
AcDbEntity
  8
01_RAUMSTEMPEL_TEXT
  6
Continuous
100
AcDbText
 10
-6.4878979092488
 20
16.57604353910627
 30
0.0
 40
0.0999999990065892
  1
Beton
  7
ERSTELLTER_STIL_3
 11
-6.4878979092488
 21
16.67604353811286
 31
0.0
100
AcDbAttributeDefinition
  3
Wandbelag Material
  2
wall_mat_1
 70
     0
 74
     3
280
     0
  0
ATTDEF
  5
1BF
330
19C
100
AcDbEntity
  8
01_RAUMSTEMPEL_TEXT
  6
Continuous
100
AcDbText
 10
-6.652965023824594
 20
16.57604353910627
 30
0.0
 40
0.0999999990065892
  1
D:
  7
ERSTELLTER_STIL_3
 11
-6.652965023824594
 21
16.67604353811286
 31
0.0
100
AcDbAttributeDefinition
  3
Deckenbelag Titel
  2
ceil_bez
 70
     0
 74
     3
280
     0
  0
ATTDEF
  5
1C0
330
19C
100
AcDbEntity
  8
01_RAUMSTEMPEL_TEXT
  6
Continuous
100
AcDbText
 10
-6.652965023824594
 20
17.55818639624913
 30
0.0
 40
0.0999999990065892
  1
BF:
  7
ERSTELLTER_STIL_3
 11
-6.652965023824594
 21
17.65818639525572
 31
0.0
100
AcDbAttributeDefinition
  3
Bezeichnung GrundflÃ¤che
  2
gf_bez
 70
     0
 74
     3
280
     0
  0
ATTDEF
  5
1C1
330
19C
100
AcDbEntity
  8
01_RAUMSTEMPEL_TEXT
  6
Continuous
100
AcDbText
 10
-6.096423661889907
 20
17.55818639624913
 30
0.0
 40
0.0999999990065892
  1
 m
  7
ERSTELLTER_STIL_3
 11
-6.096423661889907
 21
17.65818639525572
 31
0.0
100
AcDbAttributeDefinition
  3
DUMMY_558
  2
DUMMY_558
 70
     0
 74
     3
280
     0
  0
ATTDEF
  5
1C2
330
19C
100
AcDbEntity
  8
01_RAUMSTEMPEL_TEXT
  6
Continuous
100
AcDbText
 10
-5.944079620469068
 20
17.59913877687038
 30
0.0
 40
0.0666666660043928
  1
2
  7
ERSTELLTER_STIL_3
 11
-5.944079620469068
 21
17.66580544287477
 31
0.0
100
AcDbAttributeDefinition
  3
DUMMY_559
  2
DUMMY_559
 70
     0
 74
     3
280
     0
  0
ATTDEF
  5
1C3
330
19C
100
AcDbEntity
  8
01_RAUMSTEMPEL_TEXT
  6
Continuous
100
AcDbText
 10
-5.77290005055933
 20
17.36175782482056
 30
0.0
 40
0.0999999990065892
  1
-
  7
ERSTELLTER_STIL_3
 72
     2
 11
-5.726400051021266
 21
17.46175782382715
 31
0.0
100
AcDbAttributeDefinition
  3
DUMMY_560
  2
DUMMY_560
 70
     0
 74
     3
280
     0
  0
ATTDEF
  5
1C4
330
19C
100
AcDbEntity
  8
01_RAUMSTEMPEL_TEXT
  6
Continuous
100
AcDbText
 10
-5.77290005055933
 20
17.16532925339199
 30
0.0
 40
0.0999999990065892
  1
-
  7
ERSTELLTER_STIL_3
 72
     2
 11
-5.726400051021266
 21
17.26532925239858
 31
0.0
100
AcDbAttributeDefinition
  3
DUMMY_561
  2
DUMMY_561
 70
     0
 74
     3
280
     0
  0
ENDBLK
  5
1C7
330
19C
100
AcDbEntity
  8
0
100
AcDbBlockEnd
  0
BLOCK
  5
1C6
330
1C5
100
AcDbEntity
  8
0
100
AcDbBlockBegin
  2
GARAGE_4_UG-04_1
 70
     2
 10
-20.39999938407139
 20
18.02568639525572
 30
0.0
  3
GARAGE_4_UG-04_1
  1

  0
LINE
  5
1C8
102
{ACAD_XDICTIONARY
360
1C9
102
}
330
1C5
100
AcDbEntity
  8
01_RAUMSTEMPEL_TEXTRAHMEN
  6
Continuous
100
AcDbLine
 10
-21.00656353987796
 20
17.50425782382715
 30
0.0
 11
-19.79343522826482
 21
17.50425782382715
 31
0.0
  0
LINE
  5
1CB
102
{ACAD_XDICTIONARY
360
1CC
102
}
330
1C5
100
AcDbEntity
  8
01_RAUMSTEMPEL_TEXTRAHMEN
  6
Continuous
100
AcDbLine
 10
-19.79343522826482
 20
17.50425782382715
 30
0.0
 11
-19.79343522826482
 21
17.11140068097001
 31
0.0
  0
LINE
  5
1CE
102
{ACAD_XDICTIONARY
360
1CF
102
}
330
1C5
100
AcDbEntity
  8
01_RAUMSTEMPEL_TEXTRAHMEN
  6
Continuous
100
AcDbLine
 10
-19.79343522826482
 20
17.11140068097001
 30
0.0
 11
-21.00656353987796
 21
17.11140068097001
 31
0.0
  0
LINE
  5
1D1
102
{ACAD_XDICTIONARY
360
1D2
102
}
330
1C5
100
AcDbEntity
  8
01_RAUMSTEMPEL_TEXTRAHMEN
  6
Continuous
100
AcDbLine
 10
-21.00656353987796
 20
17.11140068097001
 30
0.0
 11
-21.00656353987796
 21
17.50425782382715
 31
0.0
  0
LINE
  5
1D4
102
{ACAD_XDICTIONARY
360
1D5
102
}
330
1C5
100
AcDbEntity
  8
01_RAUMSTEMPEL_TEXTRAHMEN
  6
Continuous
100
AcDbLine
 10
-20.16495369153833
 20
17.50425782382715
 30
0.0
 11
-20.16495369153833
 21
17.11140068097001
 31
0.0
  0
LINE
  5
1D7
102
{ACAD_XDICTIONARY
360
1D8
102
}
330
1C5
100
AcDbEntity
  8
01_RAUMSTEMPEL_TEXTRAHMEN
  6
Continuous
100
AcDbLine
 10
-20.16495369153833
 20
17.30782925239858
 30
0.0
 11
-19.79343522826482
 21
17.30782925239858
 31
0.0
  0
ATTDEF
  5
1DA
102
{ACAD_XDICTIONARY
360
1DB
102
}
330
1C5
100
AcDbEntity
  8
01_RAUMSTEMPEL_TEXT
  6
Continuous
100
AcDbText
 10
-21.00656353987796
 20
17.79140068246013
 30
0.0
 40
0.1499999985098839
  1
Garage 4
  7
ERSTELLTER_STIL_2
 11
-21.00656353987796
 21
17.94140068097001
 31
0.0
100
AcDbAttributeDefinition
  3
Raumname
  2
ROOM_NAME
 70
     0
 74
     3
280
     0
  0
ATTDEF
  5
1DD
102
{ACAD_XDICTIONARY
360
1DE
102
}
330
1C5
100
AcDbEntity
  8
01_RAUMSTEMPEL_TEXT
  6
Continuous
100
AcDbText
 10
-20.88870639702081
 20
17.24140068246012
 30
0.0
 40
0.1499999985098839
  1
UG-04
  7
ERSTELLTER_STIL_2
 11
-20.88870639702081
 21
17.39140068097
 31
0.0
100
AcDbAttributeDefinition
  3
Raumnummer
  2
ROOM_NUMBER
 70
     0
 74
     3
280
     0
  0
ATTDEF
  5
1E0
330
1C5
100
AcDbEntity
  8
01_RAUMSTEMPEL_TEXT
  6
Continuous
100
AcDbText
 10
-20.79321502197504
 20
17.55818639624913
 30
0.0
 40
0.0999999990065892
  1
24.69
  7
ERSTELLTER_STIL_3
 11
-20.79321502197504
 21
17.65818639525572
 31
0.0
100
AcDbAttributeDefinition
  3

  2
orders_temp_0
 70
     0
 74
     3
280
     0
  0
ATTDEF
  5
1E1
330
1C5
100
AcDbEntity
  8
01_RAUMSTEMPEL_TEXT
  6
Continuous
100
AcDbText
 10
-20.07999811323996
 20
17.36175782482056
 30
0.0
 40
0.0999999990065892
  1
4.87
  7
ERSTELLTER_STIL_3
 11
-20.07999811323996
 21
17.46175782382715
 31
0.0
100
AcDbAttributeDefinition
  3

  2
orders_temp_1
 70
     0
 74
     3
280
     0
  0
ATTDEF
  5
1E2
330
1C5
100
AcDbEntity
  8
01_RAUMSTEMPEL_TEXT
  6
Continuous
100
AcDbText
 10
-20.07999811323996
 20
17.16532925339199
 30
0.0
 40
0.0999999990065892
  1
5.03
  7
ERSTELLTER_STIL_3
 11
-20.07999811323996
 21
17.26532925239858
 31
0.0
100
AcDbAttributeDefinition
  3

  2
orders_temp_2
 70
     0
 74
     3
280
     0
  0
ATTDEF
  5
1E3
330
1C5
100
AcDbEntity
  8
01_RAUMSTEMPEL_TEXT
  6
Continuous
100
AcDbText
 10
-21.00656353987796
 20
16.96890068196342
 30
0.0
 40
0.0999999990065892
  1
B:
  7
ERSTELLTER_STIL_3
 11
-21.00656353987796
 21
17.06890068097001
 31
0.0
100
AcDbAttributeDefinition
  3
Bodenbelag Titel
  2
floor_bez
 70
     0
 74
     3
280
     0
  0
ATTDEF
  5
1E4
330
1C5
100
AcDbEntity
  8
01_RAUMSTEMPEL_TEXT
  6
Continuous
100
AcDbText
 10
-20.84149626260302
 20
16.96890068196342
 30
0.0
 40
0.0999999990065892
  1
Hartbeton
  7
ERSTELLTER_STIL_3
 11
-20.84149626260302
 21
17.06890068097001
 31
0.0
100
AcDbAttributeDefinition
  3
Bodenbelag
  2
floor_f
 70
     0
 74
     3
280
     0
  0
ATTDEF
  5
1E5
330
1C5
100
AcDbEntity
  8
01_RAUMSTEMPEL_TEXT
  6
Continuous
100
AcDbText
 10
-21.00656353987796
 20
16.77247211053485
 30
0.0
 40
0.0999999990065892
  1
W:
  7
ERSTELLTER_STIL_3
 11
-21.00656353987796
 21
16.87247210954144
 31
0.0
100
AcDbAttributeDefinition
  3
Bezeichnung Wandbelag
  2
wall_bez
 70
     0
 74
     3
280
     0
  0
ATTDEF
  5
1E6
330
1C5
100
AcDbEntity
  8
01_RAUMSTEMPEL_TEXT
  6
Continuous
100
AcDbText
 10
-20.84149626260302
 20
16.77247211053485
 30
0.0
 40
0.0999999990065892
  1
Beton 
  7
ERSTELLTER_STIL_3
 11
-20.84149626260302
 21
16.87247210954144
 31
0.0
100
AcDbAttributeDefinition
  3
Wandbelag Material
  2
wall_mat_0
 70
     0
 74
     3
280
     0
  0
ATTDEF
  5
1E7
330
1C5
100
AcDbEntity
  8
01_RAUMSTEMPEL_TEXT
  6
Continuous
100
AcDbText
 10
-20.84149626260302
 20
16.57604353910627
 30
0.0
 40
0.0999999990065892
  1
Beton
  7
ERSTELLTER_STIL_3
 11
-20.84149626260302
 21
16.67604353811286
 31
0.0
100
AcDbAttributeDefinition
  3
Wandbelag Material
  2
wall_mat_1
 70
     0
 74
     3
280
     0
  0
ATTDEF
  5
1E8
330
1C5
100
AcDbEntity
  8
01_RAUMSTEMPEL_TEXT
  6
Continuous
100
AcDbText
 10
-21.00656353987796
 20
16.57604353910627
 30
0.0
 40
0.0999999990065892
  1
D:
  7
ERSTELLTER_STIL_3
 11
-21.00656353987796
 21
16.67604353811286
 31
0.0
100
AcDbAttributeDefinition
  3
Deckenbelag Titel
  2
ceil_bez
 70
     0
 74
     3
280
     0
  0
ATTDEF
  5
1E9
330
1C5
100
AcDbEntity
  8
01_RAUMSTEMPEL_TEXT
  6
Continuous
100
AcDbText
 10
-21.00656353987796
 20
17.55818639624913
 30
0.0
 40
0.0999999990065892
  1
BF:
  7
ERSTELLTER_STIL_3
 11
-21.00656353987796
 21
17.65818639525572
 31
0.0
100
AcDbAttributeDefinition
  3
Bezeichnung GrundflÃ¤che
  2
gf_bez
 70
     0
 74
     3
280
     0
  0
ATTDEF
  5
1EA
330
1C5
100
AcDbEntity
  8
01_RAUMSTEMPEL_TEXT
  6
Continuous
100
AcDbText
 10
-20.45002267809258
 20
17.55818639624913
 30
0.0
 40
0.0999999990065892
  1
 m
  7
ERSTELLTER_STIL_3
 11
-20.45002267809258
 21
17.65818639525572
 31
0.0
100
AcDbAttributeDefinition
  3
DUMMY_558
  2
DUMMY_558
 70
     0
 74
     3
280
     0
  0
ATTDEF
  5
1EB
330
1C5
100
AcDbEntity
  8
01_RAUMSTEMPEL_TEXT
  6
Continuous
100
AcDbText
 10
-20.29767878169246
 20
17.59913877687038
 30
0.0
 40
0.0666666660043928
  1
2
  7
ERSTELLTER_STIL_3
 11
-20.29767878169246
 21
17.66580544287477
 31
0.0
100
AcDbAttributeDefinition
  3
DUMMY_559
  2
DUMMY_559
 70
     0
 74
     3
280
     0
  0
ATTDEF
  5
1EC
330
1C5
100
AcDbEntity
  8
01_RAUMSTEMPEL_TEXT
  6
Continuous
100
AcDbText
 10
-20.12649811277802
 20
17.36175782482056
 30
0.0
 40
0.0999999990065892
  1
-
  7
ERSTELLTER_STIL_3
 72
     2
 11
-20.07999811323996
 21
17.46175782382715
 31
0.0
100
AcDbAttributeDefinition
  3
DUMMY_560
  2
DUMMY_560
 70
     0
 74
     3
280
     0
  0
ATTDEF
  5
1ED
330
1C5
100
AcDbEntity
  8
01_RAUMSTEMPEL_TEXT
  6
Continuous
100
AcDbText
 10
-20.12649811277802
 20
17.16532925339199
 30
0.0
 40
0.0999999990065892
  1
-
  7
ERSTELLTER_STIL_3
 72
     2
 11
-20.07999811323996
 21
17.26532925239858
 31
0.0
100
AcDbAttributeDefinition
  3
DUMMY_561
  2
DUMMY_561
 70
     0
 74
     3
280
     0
  0
ENDBLK
  5
1F0
330
1C5
100
AcDbEntity
  8
0
100
AcDbBlockEnd
  0
BLOCK
  5
1EF
330
1EE
100
AcDbEntity
  8
0
100
AcDbBlockBegin
  2
GARAGE_3_UG-03_2
 70
     2
 10
-20.39999938407139
 20
12.01967490486033
 30
0.0
  3
GARAGE_3_UG-03_2
  1

  0
LINE
  5
1F1
102
{ACAD_XDICTIONARY
360
1F2
102
}
330
1EE
100
AcDbEntity
  8
01_RAUMSTEMPEL_TEXTRAHMEN
  6
Continuous
100
AcDbLine
 10
-21.02136189967717
 20
12.79850941021946
 30
0.0
 11
-19.77863686846561
 21
12.79850941021946
 31
0.0
  0
LINE
  5
1F4
102
{ACAD_XDICTIONARY
360
1F5
102
}
330
1EE
100
AcDbEntity
  8
01_RAUMSTEMPEL_TEXTRAHMEN
  6
Continuous
100
AcDbLine
 10
-19.77863686846561
 20
12.79850941021946
 30
0.0
 11
-19.77863686846561
 21
12.40565226736231
 31
0.0
  0
LINE
  5
1F7
102
{ACAD_XDICTIONARY
360
1F8
102
}
330
1EE
100
AcDbEntity
  8
01_RAUMSTEMPEL_TEXTRAHMEN
  6
Continuous
100
AcDbLine
 10
-19.77863686846561
 20
12.40565226736231
 30
0.0
 11
-21.02136189967717
 21
12.40565226736231
 31
0.0
  0
LINE
  5
1FA
102
{ACAD_XDICTIONARY
360
1FB
102
}
330
1EE
100
AcDbEntity
  8
01_RAUMSTEMPEL_TEXTRAHMEN
  6
Continuous
100
AcDbLine
 10
-21.02136189967717
 20
12.40565226736231
 30
0.0
 11
-21.02136189967717
 21
12.79850941021946
 31
0.0
  0
LINE
  5
1FD
102
{ACAD_XDICTIONARY
360
1FE
102
}
330
1EE
100
AcDbEntity
  8
01_RAUMSTEMPEL_TEXTRAHMEN
  6
Continuous
100
AcDbLine
 10
-20.17975363478151
 20
12.79850941021946
 30
0.0
 11
-20.17975363478151
 21
12.40565226736231
 31
0.0
  0
LINE
  5
200
102
{ACAD_XDICTIONARY
360
201
102
}
330
1EE
100
AcDbEntity
  8
01_RAUMSTEMPEL_TEXTRAHMEN
  6
Continuous
100
AcDbLine
 10
-20.17975363478151
 20
12.60208083879088
 30
0.0
 11
-19.77863686846561
 21
12.60208083879088
 31
0.0
  0
ATTDEF
  5
203
102
{ACAD_XDICTIONARY
360
204
102
}
330
1EE
100
AcDbEntity
  8
01_RAUMSTEMPEL_TEXT
  6
Continuous
100
AcDbText
 10
-21.02136189967717
 20
13.08565226885243
 30
0.0
 40
0.1499999985098839
  1
Garage 3
  7
ERSTELLTER_STIL_2
 11
-21.02136189967717
 21
13.23565226736231
 31
0.0
100
AcDbAttributeDefinition
  3
Raumname
  2
ROOM_NAME
 70
     0
 74
     3
280
     0
  0
ATTDEF
  5
206
102
{ACAD_XDICTIONARY
360
207
102
}
330
1EE
100
AcDbEntity
  8
01_RAUMSTEMPEL_TEXT
  6
Continuous
100
AcDbText
 10
-20.90350475682002
 20
12.53565226885243
 30
0.0
 40
0.1499999985098839
  1
UG-03
  7
ERSTELLTER_STIL_2
 11
-20.90350475682002
 21
12.68565226736231
 31
0.0
100
AcDbAttributeDefinition
  3
Raumnummer
  2
ROOM_NUMBER
 70
     0
 74
     3
280
     0
  0
ATTDEF
  5
209
330
1EE
100
AcDbEntity
  8
01_RAUMSTEMPEL_TEXT
  6
Continuous
100
AcDbText
 10
-20.8080132773155
 20
12.85243798264144
 30
0.0
 40
0.0999999990065892
  1
30.46
  7
ERSTELLTER_STIL_3
 11
-20.8080132773155
 21
12.95243798164803
 31
0.0
100
AcDbAttributeDefinition
  3
Gemessene FlÃ¤che
  2
ROOM_AREA
 70
     0
 74
     3
280
     0
  0
ATTDEF
  5
20A
330
1EE
100
AcDbEntity
  8
01_RAUMSTEMPEL_TEXT
  6
Continuous
100
AcDbText
 10
-20.06519971749865
 20
12.65600941121287
 30
0.0
 40
0.0999999990065892
  1
0.00
  7
ERSTELLTER_STIL_3
 11
-20.06519971749865
 21
12.75600941021946
 31
0.0
100
AcDbAttributeDefinition
  3
GesamtlÃ¤nge aller Bodenkanten
  2
ROOM_HOLES_PRM
 70
     0
 74
     3
280
     0
  0
ATTDEF
  5
20B
330
1EE
100
AcDbEntity
  8
01_RAUMSTEMPEL_TEXT
  6
Continuous
100
AcDbText
 10
-20.06519971749865
 20
12.45958083978429
 30
0.0
 40
0.0999999990065892
  1
5.03
  7
ERSTELLTER_STIL_3
 11
-20.06519971749865
 21
12.55958083879088
 31
0.0
100
AcDbAttributeDefinition
  3

  2
orders_temp
 70
     0
 74
     3
280
     0
  0
ATTDEF
  5
20C
330
1EE
100
AcDbEntity
  8
01_RAUMSTEMPEL_TEXT
  6
Continuous
100
AcDbText
 10
-21.02136189967717
 20
12.26315226835572
 30
0.0
 40
0.0999999990065892
  1
B:
  7
ERSTELLTER_STIL_3
 11
-21.02136189967717
 21
12.36315226736231
 31
0.0
100
AcDbAttributeDefinition
  3
Bodenbelag Titel
  2
floor_bez
 70
     0
 74
     3
280
     0
  0
ATTDEF
  5
20D
330
1EE
100
AcDbEntity
  8
01_RAUMSTEMPEL_TEXT
  6
Continuous
100
AcDbText
 10
-20.85629490757363
 20
12.26315226835572
 30
0.0
 40
0.0999999990065892
  1
Hartbeton
  7
ERSTELLTER_STIL_3
 11
-20.85629490757363
 21
12.36315226736231
 31
0.0
100
AcDbAttributeDefinition
  3
Bodenbelag
  2
floor_f
 70
     0
 74
     3
280
     0
  0
ATTDEF
  5
20E
330
1EE
100
AcDbEntity
  8
01_RAUMSTEMPEL_TEXT
  6
Continuous
100
AcDbText
 10
-21.02136189967717
 20
12.06672369692715
 30
0.0
 40
0.0999999990065892
  1
W:
  7
ERSTELLTER_STIL_3
 11
-21.02136189967717
 21
12.16672369593374
 31
0.0
100
AcDbAttributeDefinition
  3
Bezeichnung Wandbelag
  2
wall_bez
 70
     0
 74
     3
280
     0
  0
ATTDEF
  5
20F
330
1EE
100
AcDbEntity
  8
01_RAUMSTEMPEL_TEXT
  6
Continuous
100
AcDbText
 10
-20.85629490757363
 20
12.06672369692715
 30
0.0
 40
0.0999999990065892
  1
Beton 
  7
ERSTELLTER_STIL_3
 11
-20.85629490757363
 21
12.16672369593374
 31
0.0
100
AcDbAttributeDefinition
  3
Wandbelag Material
  2
wall_mat_0
 70
     0
 74
     3
280
     0
  0
ATTDEF
  5
210
330
1EE
100
AcDbEntity
  8
01_RAUMSTEMPEL_TEXT
  6
Continuous
100
AcDbText
 10
-20.85629490757363
 20
11.87029512549858
 30
0.0
 40
0.0999999990065892
  1
Beton
  7
ERSTELLTER_STIL_3
 11
-20.85629490757363
 21
11.97029512450517
 31
0.0
100
AcDbAttributeDefinition
  3
Wandbelag Material
  2
wall_mat_1
 70
     0
 74
     3
280
     0
  0
ATTDEF
  5
211
330
1EE
100
AcDbEntity
  8
01_RAUMSTEMPEL_TEXT
  6
Continuous
100
AcDbText
 10
-21.02136189967717
 20
11.87029512549858
 30
0.0
 40
0.0999999990065892
  1
D:
  7
ERSTELLTER_STIL_3
 11
-21.02136189967717
 21
11.97029512450517
 31
0.0
100
AcDbAttributeDefinition
  3
Deckenbelag Titel
  2
ceil_bez
 70
     0
 74
     3
280
     0
  0
ATTDEF
  5
212
330
1EE
100
AcDbEntity
  8
01_RAUMSTEMPEL_TEXT
  6
Continuous
100
AcDbText
 10
-21.02136189967717
 20
12.85243798264144
 30
0.0
 40
0.0999999990065892
  1
BF:
  7
ERSTELLTER_STIL_3
 11
-21.02136189967717
 21
12.95243798164803
 31
0.0
100
AcDbAttributeDefinition
  3
Bezeichnung GrundflÃ¤che
  2
gf_bez
 70
     0
 74
     3
280
     0
  0
ATTDEF
  5
213
330
1EE
100
AcDbEntity
  8
01_RAUMSTEMPEL_TEXT
  6
Continuous
100
AcDbText
 10
-20.46482110865177
 20
12.85243798264144
 30
0.0
 40
0.0999999990065892
  1
 m
  7
ERSTELLTER_STIL_3
 11
-20.46482110865177
 21
12.95243798164803
 31
0.0
100
AcDbAttributeDefinition
  3
DUMMY_558
  2
DUMMY_558
 70
     0
 74
     3
280
     0
  0
ATTDEF
  5
214
330
1EE
100
AcDbEntity
  8
01_RAUMSTEMPEL_TEXT
  6
Continuous
100
AcDbText
 10
-20.31247717698204
 20
12.89339036326269
 30
0.0
 40
0.0666666660043928
  1
2
  7
ERSTELLTER_STIL_3
 11
-20.31247717698204
 21
12.96005702926708
 31
0.0
100
AcDbAttributeDefinition
  3
DUMMY_559
  2
DUMMY_559
 70
     0
 74
     3
280
     0
  0
ATTDEF
  5
215
330
1EE
100
AcDbEntity
  8
01_RAUMSTEMPEL_TEXT
  6
Continuous
100
AcDbText
 10
-20.23489971581283
 20
12.65600941121287
 30
0.0
 40
0.0999999990065892
  1
Â±
  7
ERSTELLTER_STIL_3
 72
     2
 11
-20.06519971749865
 21
12.75600941021946
 31
0.0
100
AcDbAttributeDefinition
  3
DUMMY_560
  2
DUMMY_560
 70
     0
 74
     3
280
     0
  0
ATTDEF
  5
216
330
1EE
100
AcDbEntity
  8
01_RAUMSTEMPEL_TEXT
  6
Continuous
100
AcDbText
 10
-20.14129783344757
 20
12.45958083978429
 30
0.0
 40
0.0999999990065892
  1
-
  7
ERSTELLTER_STIL_3
 72
     2
 11
-20.09479783390951
 21
12.55958083879088
 31
0.0
100
AcDbAttributeDefinition
  3
DUMMY_561
  2
DUMMY_561
 70
     0
 74
     3
280
     0
  0
ENDBLK
  5
219
330
1EE
100
AcDbEntity
  8
0
100
AcDbBlockEnd
  0
BLOCK
  5
218
330
217
100
AcDbEntity
  8
0
100
AcDbBlockBegin
  2
GARAGE_2_UG-02_3
 70
     2
 10
-15.72708362820174
 20
12.01967490486033
 30
0.0
  3
GARAGE_2_UG-02_3
  1

  0
LINE
  5
21A
102
{ACAD_XDICTIONARY
360
21B
102
}
330
217
100
AcDbEntity
  8
01_RAUMSTEMPEL_TEXTRAHMEN
  6
Continuous
100
AcDbLine
 10
-16.33364691202769
 20
11.49824633343176
 30
0.0
 11
-15.12052034437579
 21
11.49824633343176
 31
0.0
  0
LINE
  5
21D
102
{ACAD_XDICTIONARY
360
21E
102
}
330
217
100
AcDbEntity
  8
01_RAUMSTEMPEL_TEXTRAHMEN
  6
Continuous
100
AcDbLine
 10
-15.12052034437579
 20
11.49824633343176
 30
0.0
 11
-15.12052034437579
 21
11.10538919057461
 31
0.0
  0
LINE
  5
220
102
{ACAD_XDICTIONARY
360
221
102
}
330
217
100
AcDbEntity
  8
01_RAUMSTEMPEL_TEXTRAHMEN
  6
Continuous
100
AcDbLine
 10
-15.12052034437579
 20
11.10538919057461
 30
0.0
 11
-16.33364691202769
 21
11.10538919057461
 31
0.0
  0
LINE
  5
223
102
{ACAD_XDICTIONARY
360
224
102
}
330
217
100
AcDbEntity
  8
01_RAUMSTEMPEL_TEXTRAHMEN
  6
Continuous
100
AcDbLine
 10
-16.33364691202769
 20
11.10538919057461
 30
0.0
 11
-16.33364691202769
 21
11.49824633343176
 31
0.0
  0
LINE
  5
226
102
{ACAD_XDICTIONARY
360
227
102
}
330
217
100
AcDbEntity
  8
01_RAUMSTEMPEL_TEXTRAHMEN
  6
Continuous
100
AcDbLine
 10
-15.49203914146056
 20
11.49824633343176
 30
0.0
 11
-15.49203914146056
 21
11.10538919057461
 31
0.0
  0
LINE
  5
229
102
{ACAD_XDICTIONARY
360
22A
102
}
330
217
100
AcDbEntity
  8
01_RAUMSTEMPEL_TEXTRAHMEN
  6
Continuous
100
AcDbLine
 10
-15.49203914146056
 20
11.30181776200319
 30
0.0
 11
-15.12052034437579
 21
11.30181776200319
 31
0.0
  0
ATTDEF
  5
22C
102
{ACAD_XDICTIONARY
360
22D
102
}
330
217
100
AcDbEntity
  8
01_RAUMSTEMPEL_TEXT
  6
Continuous
100
AcDbText
 10
-16.33364691202769
 20
11.78538919206473
 30
0.0
 40
0.1499999985098839
  1
Garage 2
  7
ERSTELLTER_STIL_2
 11
-16.33364691202769
 21
11.93538919057461
 31
0.0
100
AcDbAttributeDefinition
  3
Raumname
  2
ROOM_NAME
 70
     0
 74
     3
280
     0
  0
ATTDEF
  5
22F
102
{ACAD_XDICTIONARY
360
230
102
}
330
217
100
AcDbEntity
  8
01_RAUMSTEMPEL_TEXT
  6
Continuous
100
AcDbText
 10
-16.21578976917054
 20
11.23538919206474
 30
0.0
 40
0.1499999985098839
  1
UG-02
  7
ERSTELLTER_STIL_2
 11
-16.21578976917054
 21
11.38538919057462
 31
0.0
100
AcDbAttributeDefinition
  3
Raumnummer
  2
ROOM_NUMBER
 70
     0
 74
     3
280
     0
  0
ATTDEF
  5
232
330
217
100
AcDbEntity
  8
01_RAUMSTEMPEL_TEXT
  6
Continuous
100
AcDbText
 10
-16.12029766948867
 20
11.55217490585374
 30
0.0
 40
0.0999999990065892
  1
71.03
  7
ERSTELLTER_STIL_3
 11
-16.12029766948867
 21
11.65217490486033
 31
0.0
100
AcDbAttributeDefinition
  3
Gemessene FlÃ¤che
  2
ROOM_AREA
 70
     0
 74
     3
280
     0
  0
ATTDEF
  5
233
330
217
100
AcDbEntity
  8
01_RAUMSTEMPEL_TEXT
  6
Continuous
100
AcDbText
 10
-15.40708374874669
 20
11.35574633442517
 30
0.0
 40
0.0999999990065892
  1
4.97
  7
ERSTELLTER_STIL_3
 11
-15.40708374874669
 21
11.45574633343176
 31
0.0
100
AcDbAttributeDefinition
  3

  2
orders_temp_0
 70
     0
 74
     3
280
     0
  0
ATTDEF
  5
234
330
217
100
AcDbEntity
  8
01_RAUMSTEMPEL_TEXT
  6
Continuous
100
AcDbText
 10
-15.40708374874669
 20
11.1593177629966
 30
0.0
 40
0.0999999990065892
  1
5.03
  7
ERSTELLTER_STIL_3
 11
-15.40708374874669
 21
11.25931776200319
 31
0.0
100
AcDbAttributeDefinition
  3

  2
orders_temp_1
 70
     0
 74
     3
280
     0
  0
ATTDEF
  5
235
330
217
100
AcDbEntity
  8
01_RAUMSTEMPEL_TEXT
  6
Continuous
100
AcDbText
 10
-16.33364691202769
 20
10.96288919156802
 30
0.0
 40
0.0999999990065892
  1
B:
  7
ERSTELLTER_STIL_3
 11
-16.33364691202769
 21
11.06288919057461
 31
0.0
100
AcDbAttributeDefinition
  3
Bodenbelag Titel
  2
floor_bez
 70
     0
 74
     3
280
     0
  0
ATTDEF
  5
236
330
217
100
AcDbEntity
  8
01_RAUMSTEMPEL_TEXT
  6
Continuous
100
AcDbText
 10
-16.16857940132178
 20
10.96288919156802
 30
0.0
 40
0.0999999990065892
  1
Hartbeton
  7
ERSTELLTER_STIL_3
 11
-16.16857940132178
 21
11.06288919057461
 31
0.0
100
AcDbAttributeDefinition
  3
Bodenbelag
  2
floor_f
 70
     0
 74
     3
280
     0
  0
ATTDEF
  5
237
330
217
100
AcDbEntity
  8
01_RAUMSTEMPEL_TEXT
  6
Continuous
100
AcDbText
 10
-16.33364691202769
 20
10.76646062013945
 30
0.0
 40
0.0999999990065892
  1
W:
  7
ERSTELLTER_STIL_3
 11
-16.33364691202769
 21
10.86646061914604
 31
0.0
100
AcDbAttributeDefinition
  3
Bezeichnung Wandbelag
  2
wall_bez
 70
     0
 74
     3
280
     0
  0
ATTDEF
  5
238
330
217
100
AcDbEntity
  8
01_RAUMSTEMPEL_TEXT
  6
Continuous
100
AcDbText
 10
-16.16857940132178
 20
10.76646062013945
 30
0.0
 40
0.0999999990065892
  1
Beton 
  7
ERSTELLTER_STIL_3
 11
-16.16857940132178
 21
10.86646061914604
 31
0.0
100
AcDbAttributeDefinition
  3
Wandbelag Material
  2
wall_mat_0
 70
     0
 74
     3
280
     0
  0
ATTDEF
  5
239
330
217
100
AcDbEntity
  8
01_RAUMSTEMPEL_TEXT
  6
Continuous
100
AcDbText
 10
-16.16857940132178
 20
10.57003204871088
 30
0.0
 40
0.0999999990065892
  1
Beton
  7
ERSTELLTER_STIL_3
 11
-16.16857940132178
 21
10.67003204771747
 31
0.0
100
AcDbAttributeDefinition
  3
Wandbelag Material
  2
wall_mat_1
 70
     0
 74
     3
280
     0
  0
ATTDEF
  5
23A
330
217
100
AcDbEntity
  8
01_RAUMSTEMPEL_TEXT
  6
Continuous
100
AcDbText
 10
-16.33364691202769
 20
10.57003204871088
 30
0.0
 40
0.0999999990065892
  1
D:
  7
ERSTELLTER_STIL_3
 11
-16.33364691202769
 21
10.67003204771747
 31
0.0
100
AcDbAttributeDefinition
  3
Deckenbelag Titel
  2
ceil_bez
 70
     0
 74
     3
280
     0
  0
ATTDEF
  5
23B
330
217
100
AcDbEntity
  8
01_RAUMSTEMPEL_TEXT
  6
Continuous
100
AcDbText
 10
-16.33364691202769
 20
11.55217490585374
 30
0.0
 40
0.0999999990065892
  1
BF:
  7
ERSTELLTER_STIL_3
 11
-16.33364691202769
 21
11.65217490486033
 31
0.0
100
AcDbAttributeDefinition
  3
Bezeichnung GrundflÃ¤che
  2
gf_bez
 70
     0
 74
     3
280
     0
  0
ATTDEF
  5
23C
330
217
100
AcDbEntity
  8
01_RAUMSTEMPEL_TEXT
  6
Continuous
100
AcDbText
 10
-15.77710499551085
 20
11.55217490585374
 30
0.0
 40
0.0999999990065892
  1
 m
  7
ERSTELLTER_STIL_3
 11
-15.77710499551085
 21
11.65217490486033
 31
0.0
100
AcDbAttributeDefinition
  3
DUMMY_558
  2
DUMMY_558
 70
     0
 74
     3
280
     0
  0
ATTDEF
  5
23D
330
217
100
AcDbEntity
  8
01_RAUMSTEMPEL_TEXT
  6
Continuous
100
AcDbText
 10
-15.62476048665648
 20
11.59312728647499
 30
0.0
 40
0.0666666660043928
  1
2
  7
ERSTELLTER_STIL_3
 11
-15.62476048665648
 21
11.65979395247938
 31
0.0
100
AcDbAttributeDefinition
  3
DUMMY_559
  2
DUMMY_559
 70
     0
 74
     3
280
     0
  0
ATTDEF
  5
23E
330
217
100
AcDbEntity
  8
01_RAUMSTEMPEL_TEXT
  6
Continuous
100
AcDbText
 10
-15.45358374828475
 20
11.35574633442517
 30
0.0
 40
0.0999999990065892
  1
-
  7
ERSTELLTER_STIL_3
 72
     2
 11
-15.40708374874669
 21
11.45574633343176
 31
0.0
100
AcDbAttributeDefinition
  3
DUMMY_560
  2
DUMMY_560
 70
     0
 74
     3
280
     0
  0
ATTDEF
  5
23F
330
217
100
AcDbEntity
  8
01_RAUMSTEMPEL_TEXT
  6
Continuous
100
AcDbText
 10
-15.45358374828475
 20
11.1593177629966
 30
0.0
 40
0.0999999990065892
  1
-
  7
ERSTELLTER_STIL_3
 72
     2
 11
-15.40708374874669
 21
11.25931776200319
 31
0.0
100
AcDbAttributeDefinition
  3
DUMMY_561
  2
DUMMY_561
 70
     0
 74
     3
280
     0
  0
ENDBLK
  5
242
330
217
100
AcDbEntity
  8
0
100
AcDbBlockEnd
  0
BLOCK
  5
241
330
240
100
AcDbEntity
  8
0
100
AcDbBlockBegin
  2
GARAGE_1_UG-01_4
 70
     2
 10
-10.95430595637504
 20
12.01967490486033
 30
0.0
  3
GARAGE_1_UG-01_4
  1

  0
LINE
  5
243
102
{ACAD_XDICTIONARY
360
244
102
}
330
240
100
AcDbEntity
  8
01_RAUMSTEMPEL_TEXTRAHMEN
  6
Continuous
100
AcDbLine
 10
-11.56086917614109
 20
11.49824633343176
 30
0.0
 11
-10.34774273660899
 21
11.49824633343176
 31
0.0
  0
LINE
  5
246
102
{ACAD_XDICTIONARY
360
247
102
}
330
240
100
AcDbEntity
  8
01_RAUMSTEMPEL_TEXTRAHMEN
  6
Continuous
100
AcDbLine
 10
-10.34774273660899
 20
11.49824633343176
 30
0.0
 11
-10.34774273660899
 21
11.10538919057461
 31
0.0
  0
LINE
  5
249
102
{ACAD_XDICTIONARY
360
24A
102
}
330
240
100
AcDbEntity
  8
01_RAUMSTEMPEL_TEXTRAHMEN
  6
Continuous
100
AcDbLine
 10
-10.34774273660899
 20
11.10538919057461
 30
0.0
 11
-11.56086917614109
 21
11.10538919057461
 31
0.0
  0
LINE
  5
24C
102
{ACAD_XDICTIONARY
360
24D
102
}
330
240
100
AcDbEntity
  8
01_RAUMSTEMPEL_TEXTRAHMEN
  6
Continuous
100
AcDbLine
 10
-11.56086917614109
 20
11.10538919057461
 30
0.0
 11
-11.56086917614109
 21
11.49824633343176
 31
0.0
  0
LINE
  5
24F
102
{ACAD_XDICTIONARY
360
250
102
}
330
240
100
AcDbEntity
  8
01_RAUMSTEMPEL_TEXTRAHMEN
  6
Continuous
100
AcDbLine
 10
-10.71926102302547
 20
11.49824633343176
 30
0.0
 11
-10.71926102302547
 21
11.10538919057461
 31
0.0
  0
LINE
  5
252
102
{ACAD_XDICTIONARY
360
253
102
}
330
240
100
AcDbEntity
  8
01_RAUMSTEMPEL_TEXTRAHMEN
  6
Continuous
100
AcDbLine
 10
-10.71926102302547
 20
11.30181776200319
 30
0.0
 11
-10.34774273660899
 21
11.30181776200319
 31
0.0
  0
ATTDEF
  5
255
102
{ACAD_XDICTIONARY
360
256
102
}
330
240
100
AcDbEntity
  8
01_RAUMSTEMPEL_TEXT
  6
Continuous
100
AcDbText
 10
-11.56086917614109
 20
11.78538919206473
 30
0.0
 40
0.1499999985098839
  1
Garage 1
  7
ERSTELLTER_STIL_2
 11
-11.56086917614109
 21
11.93538919057461
 31
0.0
100
AcDbAttributeDefinition
  3
Raumname
  2
ROOM_NAME
 70
     0
 74
     3
280
     0
  0
ATTDEF
  5
258
102
{ACAD_XDICTIONARY
360
259
102
}
330
240
100
AcDbEntity
  8
01_RAUMSTEMPEL_TEXT
  6
Continuous
100
AcDbText
 10
-11.44301203328395
 20
11.23538919206474
 30
0.0
 40
0.1499999985098839
  1
UG-01
  7
ERSTELLTER_STIL_2
 11
-11.44301203328395
 21
11.38538919057462
 31
0.0
100
AcDbAttributeDefinition
  3
Raumnummer
  2
ROOM_NUMBER
 70
     0
 74
     3
280
     0
  0
ATTDEF
  5
25B
330
240
100
AcDbEntity
  8
01_RAUMSTEMPEL_TEXT
  6
Continuous
100
AcDbText
 10
-11.34751990643887
 20
11.55217490585374
 30
0.0
 40
0.0999999990065892
  1
51.07
  7
ERSTELLTER_STIL_3
 11
-11.34751990643887
 21
11.65217490486033
 31
0.0
100
AcDbAttributeDefinition
  3
Gemessene FlÃ¤che
  2
ROOM_AREA
 70
     0
 74
     3
280
     0
  0
ATTDEF
  5
25C
330
240
100
AcDbEntity
  8
01_RAUMSTEMPEL_TEXT
  6
Continuous
100
AcDbText
 10
-10.63430558639773
 20
11.35574633442517
 30
0.0
 40
0.0999999990065892
  1
4.86
  7
ERSTELLTER_STIL_3
 11
-10.63430558639773
 21
11.45574633343176
 31
0.0
100
AcDbAttributeDefinition
  3

  2
orders_temp_0
 70
     0
 74
     3
280
     0
  0
ATTDEF
  5
25D
330
240
100
AcDbEntity
  8
01_RAUMSTEMPEL_TEXT
  6
Continuous
100
AcDbText
 10
-10.63430558639773
 20
11.1593177629966
 30
0.0
 40
0.0999999990065892
  1
5.03
  7
ERSTELLTER_STIL_3
 11
-10.63430558639773
 21
11.25931776200319
 31
0.0
100
AcDbAttributeDefinition
  3

  2
orders_temp_1
 70
     0
 74
     3
280
     0
  0
ATTDEF
  5
25E
330
240
100
AcDbEntity
  8
01_RAUMSTEMPEL_TEXT
  6
Continuous
100
AcDbText
 10
-11.56086917614109
 20
10.96288919156802
 30
0.0
 40
0.0999999990065892
  1
B:
  7
ERSTELLTER_STIL_3
 11
-11.56086917614109
 21
11.06288919057461
 31
0.0
100
AcDbAttributeDefinition
  3
Bodenbelag Titel
  2
floor_bez
 70
     0
 74
     3
280
     0
  0
ATTDEF
  5
25F
330
240
100
AcDbEntity
  8
01_RAUMSTEMPEL_TEXT
  6
Continuous
100
AcDbText
 10
-11.3958009569282
 20
10.96288919156802
 30
0.0
 40
0.0999999990065892
  1
Hartbeton
  7
ERSTELLTER_STIL_3
 11
-11.3958009569282
 21
11.06288919057461
 31
0.0
100
AcDbAttributeDefinition
  3
Bodenbelag
  2
floor_f
 70
     0
 74
     3
280
     0
  0
ATTDEF
  5
260
330
240
100
AcDbEntity
  8
01_RAUMSTEMPEL_TEXT
  6
Continuous
100
AcDbText
 10
-11.56086917614109
 20
10.76646062013945
 30
0.0
 40
0.0999999990065892
  1
W:
  7
ERSTELLTER_STIL_3
 11
-11.56086917614109
 21
10.86646061914604
 31
0.0
100
AcDbAttributeDefinition
  3
Bezeichnung Wandbelag
  2
wall_bez
 70
     0
 74
     3
280
     0
  0
ATTDEF
  5
261
330
240
100
AcDbEntity
  8
01_RAUMSTEMPEL_TEXT
  6
Continuous
100
AcDbText
 10
-11.3958009569282
 20
10.76646062013945
 30
0.0
 40
0.0999999990065892
  1
Beton 
  7
ERSTELLTER_STIL_3
 11
-11.3958009569282
 21
10.86646061914604
 31
0.0
100
AcDbAttributeDefinition
  3
Wandbelag Material
  2
wall_mat_0
 70
     0
 74
     3
280
     0
  0
ATTDEF
  5
262
330
240
100
AcDbEntity
  8
01_RAUMSTEMPEL_TEXT
  6
Continuous
100
AcDbText
 10
-11.3958009569282
 20
10.57003204871088
 30
0.0
 40
0.0999999990065892
  1
Beton
  7
ERSTELLTER_STIL_3
 11
-11.3958009569282
 21
10.67003204771747
 31
0.0
100
AcDbAttributeDefinition
  3
Wandbelag Material
  2
wall_mat_1
 70
     0
 74
     3
280
     0
  0
ATTDEF
  5
263
330
240
100
AcDbEntity
  8
01_RAUMSTEMPEL_TEXT
  6
Continuous
100
AcDbText
 10
-11.56086917614109
 20
10.57003204871088
 30
0.0
 40
0.0999999990065892
  1
D:
  7
ERSTELLTER_STIL_3
 11
-11.56086917614109
 21
10.67003204771747
 31
0.0
100
AcDbAttributeDefinition
  3
Deckenbelag Titel
  2
ceil_bez
 70
     0
 74
     3
280
     0
  0
ATTDEF
  5
264
330
240
100
AcDbEntity
  8
01_RAUMSTEMPEL_TEXT
  6
Continuous
100
AcDbText
 10
-11.56086917614109
 20
11.55217490585374
 30
0.0
 40
0.0999999990065892
  1
BF:
  7
ERSTELLTER_STIL_3
 11
-11.56086917614109
 21
11.65217490486033
 31
0.0
100
AcDbAttributeDefinition
  3
Bezeichnung GrundflÃ¤che
  2
gf_bez
 70
     0
 74
     3
280
     0
  0
ATTDEF
  5
265
330
240
100
AcDbEntity
  8
01_RAUMSTEMPEL_TEXT
  6
Continuous
100
AcDbText
 10
-11.00432682727653
 20
11.55217490585374
 30
0.0
 40
0.0999999990065892
  1
 m
  7
ERSTELLTER_STIL_3
 11
-11.00432682727653
 21
11.65217490486033
 31
0.0
100
AcDbAttributeDefinition
  3
DUMMY_558
  2
DUMMY_558
 70
     0
 74
     3
280
     0
  0
ATTDEF
  5
266
330
240
100
AcDbEntity
  8
01_RAUMSTEMPEL_TEXT
  6
Continuous
100
AcDbText
 10
-10.85198272587028
 20
11.59312728647499
 30
0.0
 40
0.0666666660043928
  1
2
  7
ERSTELLTER_STIL_3
 11
-10.85198272587028
 21
11.65979395247938
 31
0.0
100
AcDbAttributeDefinition
  3
DUMMY_559
  2
DUMMY_559
 70
     0
 74
     3
280
     0
  0
ATTDEF
  5
267
330
240
100
AcDbEntity
  8
01_RAUMSTEMPEL_TEXT
  6
Continuous
100
AcDbText
 10
-10.6808055859358
 20
11.35574633442517
 30
0.0
 40
0.0999999990065892
  1
-
  7
ERSTELLTER_STIL_3
 72
     2
 11
-10.63430558639774
 21
11.45574633343176
 31
0.0
100
AcDbAttributeDefinition
  3
DUMMY_560
  2
DUMMY_560
 70
     0
 74
     3
280
     0
  0
ATTDEF
  5
268
330
240
100
AcDbEntity
  8
01_RAUMSTEMPEL_TEXT
  6
Continuous
100
AcDbText
 10
-10.6808055859358
 20
11.1593177629966
 30
0.0
 40
0.0999999990065892
  1
-
  7
ERSTELLTER_STIL_3
 72
     2
 11
-10.63430558639774
 21
11.25931776200319
 31
0.0
100
AcDbAttributeDefinition
  3
DUMMY_561
  2
DUMMY_561
 70
     0
 74
     3
280
     0
  0
ENDBLK
  5
26B
330
240
100
AcDbEntity
  8
0
100
AcDbBlockEnd
  0
BLOCK
  5
26A
330
269
100
AcDbEntity
  8
0
100
AcDbBlockBegin
  2
ENTRÃ‰E_UG_UG-06_5
 70
     2
 10
-8.935173617804411
 20
15.59436880506935
 30
0.0
  3
ENTRÃ‰E_UG_UG-06_5
  1

  0
LINE
  5
26C
102
{ACAD_XDICTIONARY
360
26D
102
}
330
269
100
AcDbEntity
  8
01_RAUMSTEMPEL_TEXTRAHMEN
  6
Continuous
100
AcDbLine
 10
-9.541737274445378
 20
15.07294023364078
 30
0.0
 11
-8.328609961163444
 21
15.07294023364078
 31
0.0
  0
LINE
  5
26F
102
{ACAD_XDICTIONARY
360
270
102
}
330
269
100
AcDbEntity
  8
01_RAUMSTEMPEL_TEXTRAHMEN
  6
Continuous
100
AcDbLine
 10
-7.91357398472772
 20
14.13151185500101
 30
0.0
 11
-7.91357398472772
 21
13.73865471214386
 31
0.0
  0
LINE
  5
272
102
{ACAD_XDICTIONARY
360
273
102
}
330
269
100
AcDbEntity
  8
01_RAUMSTEMPEL_TEXTRAHMEN
  6
Continuous
100
AcDbLine
 10
-8.328609961163444
 20
14.68008309078363
 30
0.0
 11
-9.541737274445378
 21
14.68008309078363
 31
0.0
  0
LINE
  5
275
102
{ACAD_XDICTIONARY
360
276
102
}
330
269
100
AcDbEntity
  8
01_RAUMSTEMPEL_TEXTRAHMEN
  6
Continuous
100
AcDbLine
 10
-9.541737274445378
 20
14.68008309078363
 30
0.0
 11
-9.541737274445378
 21
15.07294023364078
 31
0.0
  0
LINE
  5
278
102
{ACAD_XDICTIONARY
360
279
102
}
330
269
100
AcDbEntity
  8
01_RAUMSTEMPEL_TEXTRAHMEN
  6
Continuous
100
AcDbLine
 10
-8.285092318679808
 20
14.13151185500101
 30
0.0
 11
-8.285092318679808
 21
13.73865471214386
 31
0.0
  0
LINE
  5
27B
102
{ACAD_XDICTIONARY
360
27C
102
}
330
269
100
AcDbEntity
  8
01_RAUMSTEMPEL_TEXTRAHMEN
  6
Continuous
100
AcDbLine
 10
-8.285092318679808
 20
13.93508328357243
 30
0.0
 11
-7.91357398472772
 21
13.93508328357243
 31
0.0
  0
ATTDEF
  5
27E
102
{ACAD_XDICTIONARY
360
27F
102
}
330
269
100
AcDbEntity
  8
01_RAUMSTEMPEL_TEXT
  6
Continuous
100
AcDbText
 10
-9.634308084880393
 20
15.36008309227375
 30
0.0
 40
0.1499999985098839
  1
EntrÃ©e UG
  7
ERSTELLTER_STIL_2
 11
-9.634308084880393
 21
15.51008309078363
 31
0.0
100
AcDbAttributeDefinition
  3
Raumname
  2
dfdasROOM_NAME
 70
     0
 74
     3
280
     0
  0
ATTDEF
  5
281
102
{ACAD_XDICTIONARY
360
282
102
}
330
269
100
AcDbEntity
  8
01_RAUMSTEMPEL_TEXT
  6
Continuous
100
AcDbText
 10
-9.423880131588234
 20
14.81008309227375
 30
0.0
 40
0.1499999985098839
  1
UG-06
  7
ERSTELLTER_STIL_2
 11
-9.423880131588234
 21
14.96008309078363
 31
0.0
100
AcDbAttributeDefinition
  3
Raumnummer
  2
ROOM_NUMBER
 70
     0
 74
     3
280
     0
  0
ATTDEF
  5
284
330
269
100
AcDbEntity
  8
01_RAUMSTEMPEL_TEXT
  6
Continuous
100
AcDbText
 10
-9.328388944137414
 20
15.12686880606276
 30
0.0
 40
0.0999999990065892
  1
18.12
  7
ERSTELLTER_STIL_3
 11
-9.328388944137414
 21
15.22686880506935
 31
0.0
100
AcDbAttributeDefinition
  3

  2
orders_temp_0
 70
     0
 74
     3
280
     0
  0
ATTDEF
  5
285
330
269
100
AcDbEntity
  8
01_RAUMSTEMPEL_TEXT
  6
Continuous
100
AcDbText
 10
-8.615172924132219
 20
14.93044023463419
 30
0.0
 40
0.0999999990065892
  1
4.86
  7
ERSTELLTER_STIL_3
 11
-8.615172924132219
 21
15.03044023364078
 31
0.0
100
AcDbAttributeDefinition
  3

  2
orders_temp_1
 70
     0
 74
     3
280
     0
  0
ATTDEF
  5
286
330
269
100
AcDbEntity
  8
01_RAUMSTEMPEL_TEXT
  6
Continuous
100
AcDbText
 10
-8.615172924132219
 20
14.73401166320561
 30
0.0
 40
0.0999999990065892
  1
5.03
  7
ERSTELLTER_STIL_3
 11
-8.615172924132219
 21
14.8340116622122
 31
0.0
100
AcDbAttributeDefinition
  3

  2
orders_temp_2
 70
     0
 74
     3
280
     0
  0
ATTDEF
  5
287
330
269
100
AcDbEntity
  8
01_RAUMSTEMPEL_TEXT
  6
Continuous
100
AcDbText
 10
-9.541737274445378
 20
14.55673917843293
 30
0.0
 40
0.1128908168110583
  1
B:
  7
ERSTELLTER_STIL_3
 11
-9.541737274445378
 21
14.66962999524399
 31
0.0
100
AcDbAttributeDefinition
  3
Bodenbelag Titel
  2
floor_bez
 70
     0
 74
     3
280
     0
  0
ATTDEF
  5
288
330
269
100
AcDbEntity
  8
01_RAUMSTEMPEL_TEXT
  6
Continuous
100
AcDbText
 10
-9.355391477673255
 20
14.55673917843293
 30
0.0
 40
0.1128908168110583
  1
Parkett
  7
ERSTELLTER_STIL_3
 11
-9.355391477673255
 21
14.66962999524399
 31
0.0
100
AcDbAttributeDefinition
  3
Bodenbelag
  2
floor_f
 70
     0
 74
     3
280
     0
  0
ATTDEF
  5
289
330
269
100
AcDbEntity
  8
01_RAUMSTEMPEL_TEXT
  6
Continuous
100
AcDbText
 10
-9.541737274445378
 20
14.33498934889888
 30
0.0
 40
0.1128908168110583
  1
W:
  7
ERSTELLTER_STIL_3
 11
-9.541737274445378
 21
14.44788016570994
 31
0.0
100
AcDbAttributeDefinition
  3
Bezeichnung Wandbelag
  2
wall_bez
 70
     0
 74
     3
280
     0
  0
ATTDEF
  5
28A
330
269
100
AcDbEntity
  8
01_RAUMSTEMPEL_TEXT
  6
Continuous
100
AcDbText
 10
-9.355391477673255
 20
14.33498934889888
 30
0.0
 40
0.1128908168110583
  1
Abrieb
  7
ERSTELLTER_STIL_3
 11
-9.355391477673255
 21
14.44788016570994
 31
0.0
100
AcDbAttributeDefinition
  3
Wandbelag Material
  2
wall_mat
 70
     0
 74
     3
280
     0
  0
ATTDEF
  5
28B
330
269
100
AcDbEntity
  8
01_RAUMSTEMPEL_TEXT
  6
Continuous
100
AcDbText
 10
-9.720330488001878
 20
13.88455856693057
 30
0.0
 40
0.1128908168110583
  1
D:
  7
ERSTELLTER_STIL_3
 11
-9.720330488001878
 21
13.99744938374163
 31
0.0
100
AcDbAttributeDefinition
  3
Deckenbelag Titel
  2
ceil_bez
 70
     0
 74
     3
280
     0
  0
ATTDEF
  5
28C
330
269
100
AcDbEntity
  8
01_RAUMSTEMPEL_TEXT
  6
Continuous
100
AcDbText
 10
-9.04642622324169
 20
13.90804041899226
 30
0.0
 40
0.1128908168110583
  1
Weissputz
  7
ERSTELLTER_STIL_3
 11
-9.04642622324169
 21
14.02093123580332
 31
0.0
100
AcDbAttributeDefinition
  3
Deckenbelag
  2
ceil_mat
 70
     0
 74
     3
280
     0
  0
ATTDEF
  5
28D
330
269
100
AcDbEntity
  8
01_RAUMSTEMPEL_TEXT
  6
Continuous
100
AcDbText
 10
-9.541737274445378
 20
15.12686880606276
 30
0.0
 40
0.0999999990065892
  1
BF:
  7
ERSTELLTER_STIL_3
 11
-9.541737274445378
 21
15.22686880506935
 31
0.0
100
AcDbAttributeDefinition
  3
Bezeichnung GrundflÃ¤che
  2
gf_bez
 70
     0
 74
     3
280
     0
  0
ATTDEF
  5
28E
330
269
100
AcDbEntity
  8
01_RAUMSTEMPEL_TEXT
  6
Continuous
100
AcDbText
 10
-8.985196781733327
 20
15.12686880606276
 30
0.0
 40
0.0999999990065892
  1
 m
  7
ERSTELLTER_STIL_3
 11
-8.985196781733327
 21
15.22686880506935
 31
0.0
100
AcDbAttributeDefinition
  3
DUMMY_558
  2
DUMMY_558
 70
     0
 74
     3
280
     0
  0
ATTDEF
  5
28F
330
269
100
AcDbEntity
  8
01_RAUMSTEMPEL_TEXT
  6
Continuous
100
AcDbText
 10
-8.417817043431437
 20
14.22639280804424
 30
0.0
 40
0.0666666660043928
  1
2
  7
ERSTELLTER_STIL_3
 11
-8.417817043431437
 21
14.29305947404863
 31
0.0
100
AcDbAttributeDefinition
  3
DUMMY_559
  2
DUMMY_559
 70
     0
 74
     3
280
     0
  0
ATTDEF
  5
290
330
269
100
AcDbEntity
  8
01_RAUMSTEMPEL_TEXT
  6
Continuous
100
AcDbText
 10
-8.661672923670283
 20
14.93044023463419
 30
0.0
 40
0.0999999990065892
  1
-
  7
ERSTELLTER_STIL_3
 72
     2
 11
-8.615172924132219
 21
15.03044023364078
 31
0.0
100
AcDbAttributeDefinition
  3
DUMMY_560
  2
DUMMY_560
 70
     0
 74
     3
280
     0
  0
ATTDEF
  5
291
330
269
100
AcDbEntity
  8
01_RAUMSTEMPEL_TEXT
  6
Continuous
100
AcDbText
 10
-8.661672923670283
 20
14.73401166320561
 30
0.0
 40
0.0999999990065892
  1
-
  7
ERSTELLTER_STIL_3
 72
     2
 11
-8.615172924132219
 21
14.8340116622122
 31
0.0
100
AcDbAttributeDefinition
  3
DUMMY_561
  2
DUMMY_561
 70
     0
 74
     3
280
     0
  0
ENDBLK
  5
294
330
269
100
AcDbEntity
  8
0
100
AcDbBlockEnd
  0
BLOCK
  5
293
330
292
100
AcDbEntity
  8
0
100
AcDbBlockBegin
  2
KELLER_2_UG-05_6
 70
     2
 10
-14.320444456866
 20
17.12247820236941
 30
0.0
  3
KELLER_2_UG-05_6
  1

  0
LINE
  5
295
102
{ACAD_XDICTIONARY
360
296
102
}
330
292
100
AcDbEntity
  8
01_RAUMSTEMPEL_TEXTRAHMEN
  6
Continuous
100
AcDbLine
 10
-14.92700854279185
 20
16.60104963094084
 30
0.0
 11
-13.71388037094015
 21
16.60104963094084
 31
0.0
  0
LINE
  5
298
102
{ACAD_XDICTIONARY
360
299
102
}
330
292
100
AcDbEntity
  8
01_RAUMSTEMPEL_TEXTRAHMEN
  6
Continuous
100
AcDbLine
 10
-13.71388037094015
 20
16.60104963094084
 30
0.0
 11
-13.71388037094015
 21
16.20819248808369
 31
0.0
  0
LINE
  5
29B
102
{ACAD_XDICTIONARY
360
29C
102
}
330
292
100
AcDbEntity
  8
01_RAUMSTEMPEL_TEXTRAHMEN
  6
Continuous
100
AcDbLine
 10
-13.71388037094015
 20
16.20819248808369
 30
0.0
 11
-14.92700854279185
 21
16.20819248808369
 31
0.0
  0
LINE
  5
29E
102
{ACAD_XDICTIONARY
360
29F
102
}
330
292
100
AcDbEntity
  8
01_RAUMSTEMPEL_TEXTRAHMEN
  6
Continuous
100
AcDbLine
 10
-14.92700854279185
 20
16.20819248808369
 30
0.0
 11
-14.92700854279185
 21
16.60104963094084
 31
0.0
  0
LINE
  5
2A1
102
{ACAD_XDICTIONARY
360
2A2
102
}
330
292
100
AcDbEntity
  8
01_RAUMSTEMPEL_TEXTRAHMEN
  6
Continuous
100
AcDbLine
 10
-14.0854003457318
 20
16.60104963094084
 30
0.0
 11
-14.0854003457318
 21
16.20819248808369
 31
0.0
  0
LINE
  5
2A4
102
{ACAD_XDICTIONARY
360
2A5
102
}
330
292
100
AcDbEntity
  8
01_RAUMSTEMPEL_TEXTRAHMEN
  6
Continuous
100
AcDbLine
 10
-14.0854003457318
 20
16.40462105951227
 30
0.0
 11
-13.71388037094015
 21
16.40462105951227
 31
0.0
  0
ATTDEF
  5
2A7
102
{ACAD_XDICTIONARY
360
2A8
102
}
330
292
100
AcDbEntity
  8
01_RAUMSTEMPEL_TEXT
  6
Continuous
100
AcDbText
 10
-14.92700854279185
 20
16.88819248957381
 30
0.0
 40
0.1499999985098839
  1
Keller 2
  7
ERSTELLTER_STIL_2
 11
-14.92700854279185
 21
17.03819248808369
 31
0.0
100
AcDbAttributeDefinition
  3
Raumname
  2
ROOM_NAME
 70
     0
 74
     3
280
     0
  0
ATTDEF
  5
2AA
102
{ACAD_XDICTIONARY
360
2AB
102
}
330
292
100
AcDbEntity
  8
01_RAUMSTEMPEL_TEXT
  6
Continuous
100
AcDbText
 10
-14.8091513999347
 20
16.33819248957381
 30
0.0
 40
0.1499999985098839
  1
UG-05
  7
ERSTELLTER_STIL_2
 11
-14.8091513999347
 21
16.48819248808369
 31
0.0
100
AcDbAttributeDefinition
  3
Raumnummer
  2
ROOM_NUMBER
 70
     0
 74
     3
280
     0
  0
ATTDEF
  5
2AD
330
292
100
AcDbEntity
  8
01_RAUMSTEMPEL_TEXT
  6
Continuous
100
AcDbText
 10
-14.71366016637375
 20
16.65497820336282
 30
0.0
 40
0.0999999990065892
  1
13.58
  7
ERSTELLTER_STIL_3
 11
-14.71366016637375
 21
16.75497820236941
 31
0.0
100
AcDbAttributeDefinition
  3
Gemessene FlÃ¤che
  2
ROOM_AREA
 70
     0
 74
     3
280
     0
  0
ATTDEF
  5
2AE
330
292
100
AcDbEntity
  8
01_RAUMSTEMPEL_TEXT
  6
Continuous
100
AcDbText
 10
-14.00044488758645
 20
16.45854963193425
 30
0.0
 40
0.0999999990065892
  1
4.86
  7
ERSTELLTER_STIL_3
 11
-14.00044488758645
 21
16.55854963094084
 31
0.0
100
AcDbAttributeDefinition
  3

  2
orders_temp_0
 70
     0
 74
     3
280
     0
  0
ATTDEF
  5
2AF
330
292
100
AcDbEntity
  8
01_RAUMSTEMPEL_TEXT
  6
Continuous
100
AcDbText
 10
-14.00044488758645
 20
16.26212106050568
 30
0.0
 40
0.0999999990065892
  1
5.03
  7
ERSTELLTER_STIL_3
 11
-14.00044488758645
 21
16.36212105951227
 31
0.0
100
AcDbAttributeDefinition
  3

  2
orders_temp_1
 70
     0
 74
     3
280
     0
  0
ATTDEF
  5
2B0
330
292
100
AcDbEntity
  8
01_RAUMSTEMPEL_TEXT
  6
Continuous
100
AcDbText
 10
-14.92700854279185
 20
16.06569248907711
 30
0.0
 40
0.0999999990065892
  1
B:
  7
ERSTELLTER_STIL_3
 11
-14.92700854279185
 21
16.1656924880837
 31
0.0
100
AcDbAttributeDefinition
  3
Bodenbelag Titel
  2
floor_bez
 70
     0
 74
     3
280
     0
  0
ATTDEF
  5
2B1
330
292
100
AcDbEntity
  8
01_RAUMSTEMPEL_TEXT
  6
Continuous
100
AcDbText
 10
-14.7619414934099
 20
16.06569248907711
 30
0.0
 40
0.0999999990065892
  1
Hartbeton
  7
ERSTELLTER_STIL_3
 11
-14.7619414934099
 21
16.1656924880837
 31
0.0
100
AcDbAttributeDefinition
  3
Bodenbelag
  2
floor_f
 70
     0
 74
     3
280
     0
  0
ATTDEF
  5
2B2
330
292
100
AcDbEntity
  8
01_RAUMSTEMPEL_TEXT
  6
Continuous
100
AcDbText
 10
-14.92700854279185
 20
15.86926391764853
 30
0.0
 40
0.0999999990065892
  1
W:
  7
ERSTELLTER_STIL_3
 11
-14.92700854279185
 21
15.96926391665512
 31
0.0
100
AcDbAttributeDefinition
  3
Bezeichnung Wandbelag
  2
wall_bez
 70
     0
 74
     3
280
     0
  0
ATTDEF
  5
2B3
330
292
100
AcDbEntity
  8
01_RAUMSTEMPEL_TEXT
  6
Continuous
100
AcDbText
 10
-14.7619414934099
 20
15.86926391764853
 30
0.0
 40
0.0999999990065892
  1
Beton 
  7
ERSTELLTER_STIL_3
 11
-14.7619414934099
 21
15.96926391665512
 31
0.0
100
AcDbAttributeDefinition
  3
Wandbelag Material
  2
wall_mat_0
 70
     0
 74
     3
280
     0
  0
ATTDEF
  5
2B4
330
292
100
AcDbEntity
  8
01_RAUMSTEMPEL_TEXT
  6
Continuous
100
AcDbText
 10
-14.7619414934099
 20
15.67283534621996
 30
0.0
 40
0.0999999990065892
  1
Beton
  7
ERSTELLTER_STIL_3
 11
-14.7619414934099
 21
15.77283534522655
 31
0.0
100
AcDbAttributeDefinition
  3
Wandbelag Material
  2
wall_mat_1
 70
     0
 74
     3
280
     0
  0
ATTDEF
  5
2B5
330
292
100
AcDbEntity
  8
01_RAUMSTEMPEL_TEXT
  6
Continuous
100
AcDbText
 10
-14.92700854279185
 20
15.67283534621996
 30
0.0
 40
0.0999999990065892
  1
D:
  7
ERSTELLTER_STIL_3
 11
-14.92700854279185
 21
15.77283534522655
 31
0.0
100
AcDbAttributeDefinition
  3
Deckenbelag Titel
  2
ceil_bez
 70
     0
 74
     3
280
     0
  0
ATTDEF
  5
2B6
330
292
100
AcDbEntity
  8
01_RAUMSTEMPEL_TEXT
  6
Continuous
100
AcDbText
 10
-14.92700854279185
 20
16.65497820336282
 30
0.0
 40
0.0999999990065892
  1
BF:
  7
ERSTELLTER_STIL_3
 11
-14.92700854279185
 21
16.75497820236941
 31
0.0
100
AcDbAttributeDefinition
  3
Bezeichnung GrundflÃ¤che
  2
gf_bez
 70
     0
 74
     3
280
     0
  0
ATTDEF
  5
2B7
330
292
100
AcDbEntity
  8
01_RAUMSTEMPEL_TEXT
  6
Continuous
100
AcDbText
 10
-14.37046793124747
 20
16.65497820336282
 30
0.0
 40
0.0999999990065892
  1
 m
  7
ERSTELLTER_STIL_3
 11
-14.37046793124747
 21
16.75497820236941
 31
0.0
100
AcDbAttributeDefinition
  3
DUMMY_558
  2
DUMMY_558
 70
     0
 74
     3
280
     0
  0
ATTDEF
  5
2B8
330
292
100
AcDbEntity
  8
01_RAUMSTEMPEL_TEXT
  6
Continuous
100
AcDbText
 10
-14.21812410941869
 20
16.69593058398405
 30
0.0
 40
0.0666666660043928
  1
2
  7
ERSTELLTER_STIL_3
 11
-14.21812410941869
 21
16.76259724998845
 31
0.0
100
AcDbAttributeDefinition
  3
DUMMY_559
  2
DUMMY_559
 70
     0
 74
     3
280
     0
  0
ATTDEF
  5
2B9
330
292
100
AcDbEntity
  8
01_RAUMSTEMPEL_TEXT
  6
Continuous
100
AcDbText
 10
-14.04694488712451
 20
16.45854963193425
 30
0.0
 40
0.0999999990065892
  1
-
  7
ERSTELLTER_STIL_3
 72
     2
 11
-14.00044488758645
 21
16.55854963094084
 31
0.0
100
AcDbAttributeDefinition
  3
DUMMY_560
  2
DUMMY_560
 70
     0
 74
     3
280
     0
  0
ATTDEF
  5
2BA
330
292
100
AcDbEntity
  8
01_RAUMSTEMPEL_TEXT
  6
Continuous
100
AcDbText
 10
-14.04694488712451
 20
16.26212106050568
 30
0.0
 40
0.0999999990065892
  1
-
  7
ERSTELLTER_STIL_3
 72
     2
 11
-14.00044488758645
 21
16.36212105951227
 31
0.0
100
AcDbAttributeDefinition
  3
DUMMY_561
  2
DUMMY_561
 70
     0
 74
     3
280
     0
  0
ENDBLK
  5
2BD
330
292
100
AcDbEntity
  8
0
100
AcDbBlockEnd
  0
BLOCK
  5
2BC
330
2BB
100
AcDbEntity
  8
0
100
AcDbBlockBegin
  2
KELLER_1_UG-07_8
 70
     0
 10
-8.502892582058541
 20
18.02568639525572
 30
0.0
  3
KELLER_1_UG-07_8
  1

  0
LINE
  5
2BE
102
{ACAD_XDICTIONARY
360
2BF
102
}
330
2BB
100
AcDbEntity
  8
01_RAUMSTEMPEL_TEXTRAHMEN
  6
Continuous
100
AcDbLine
 10
-9.109457029827922
 20
17.50425782382715
 30
0.0
 11
-7.89632813428916
 21
17.50425782382715
 31
0.0
  0
LINE
  5
2C1
102
{ACAD_XDICTIONARY
360
2C2
102
}
330
2BB
100
AcDbEntity
  8
01_RAUMSTEMPEL_TEXTRAHMEN
  6
Continuous
100
AcDbLine
 10
-7.89632813428916
 20
17.50425782382715
 30
0.0
 11
-7.89632813428916
 21
17.11140068097001
 31
0.0
  0
LINE
  5
2C4
102
{ACAD_XDICTIONARY
360
2C5
102
}
330
2BB
100
AcDbEntity
  8
01_RAUMSTEMPEL_TEXTRAHMEN
  6
Continuous
100
AcDbLine
 10
-7.89632813428916
 20
17.11140068097001
 30
0.0
 11
-9.109457029827922
 21
17.11140068097001
 31
0.0
  0
LINE
  5
2C7
102
{ACAD_XDICTIONARY
360
2C8
102
}
330
2BB
100
AcDbEntity
  8
01_RAUMSTEMPEL_TEXTRAHMEN
  6
Continuous
100
AcDbLine
 10
-9.109457029827922
 20
17.11140068097001
 30
0.0
 11
-9.109457029827922
 21
17.50425782382715
 31
0.0
  0
LINE
  5
2CA
102
{ACAD_XDICTIONARY
360
2CB
102
}
330
2BB
100
AcDbEntity
  8
01_RAUMSTEMPEL_TEXTRAHMEN
  6
Continuous
100
AcDbLine
 10
-8.267848005226062
 20
17.50425782382715
 30
0.0
 11
-8.267848005226062
 21
17.11140068097001
 31
0.0
  0
LINE
  5
2CD
102
{ACAD_XDICTIONARY
360
2CE
102
}
330
2BB
100
AcDbEntity
  8
01_RAUMSTEMPEL_TEXTRAHMEN
  6
Continuous
100
AcDbLine
 10
-8.267848005226062
 20
17.30782925239858
 30
0.0
 11
-7.89632813428916
 21
17.30782925239858
 31
0.0
  0
ENDBLK
  5
2D2
330
2BB
100
AcDbEntity
  8
0
100
AcDbBlockEnd
  0
BLOCK
  5
2D1
330
2D0
100
AcDbEntity
  8
0
100
AcDbBlockBegin
  2
LIFT_EG-02_9
 70
     2
 10
-11.53026616579689
 20
18.33439308549319
 30
0.0
  3
LIFT_EG-02_9
  1

  0
ATTDEF
  5
2D3
102
{ACAD_XDICTIONARY
360
2D4
102
}
330
2D0
100
AcDbEntity
  8
01_RAUMSTEMPEL_TEXT
  6
Continuous
100
AcDbText
 10
-11.87199665304799
 20
18.1001073726976
 30
0.0
 40
0.1499999985098839
  1
Lift
  7
ERSTELLTER_STIL_2
 11
-11.87199665304799
 21
18.25010737120748
 31
0.0
100
AcDbAttributeDefinition
  3
Raumname
  2
ROOM_NAME
 70
     0
 74
     3
280
     0
  0
ATTDEF
  5
2D6
330
2D0
100
AcDbEntity
  8
01_RAUMSTEMPEL_TEXT
  6
Continuous
100
AcDbText
 10
-11.65864803068632
 20
17.8668930864866
 30
0.0
 40
0.0999999990065892
  1
2.56
  7
ERSTELLTER_STIL_3
 11
-11.65864803068632
 21
17.96689308549319
 31
0.0
100
AcDbAttributeDefinition
  3
Gemessene FlÃ¤che
  2
ROOM_AREA
 70
     0
 74
     3
280
     0
  0
ATTDEF
  5
2D7
330
2D0
100
AcDbEntity
  8
01_RAUMSTEMPEL_TEXT
  6
Continuous
100
AcDbText
 10
-11.87199665304799
 20
17.8668930864866
 30
0.0
 40
0.0999999990065892
  1
BF:
  7
ERSTELLTER_STIL_3
 11
-11.87199665304799
 21
17.96689308549319
 31
0.0
100
AcDbAttributeDefinition
  3
Bezeichnung GrundflÃ¤che
  2
gf_bez
 70
     0
 74
     3
280
     0
  0
ATTDEF
  5
2D8
330
2D0
100
AcDbEntity
  8
01_RAUMSTEMPEL_TEXT
  6
Continuous
100
AcDbText
 10
-11.39172803879615
 20
17.8668930864866
 30
0.0
 40
0.0999999990065892
  1
 m
  7
ERSTELLTER_STIL_3
 11
-11.39172803879615
 21
17.96689308549319
 31
0.0
100
AcDbAttributeDefinition
  3
DUMMY_558
  2
DUMMY_558
 70
     0
 74
     3
280
     0
  0
ATTDEF
  5
2D9
330
2D0
100
AcDbEntity
  8
01_RAUMSTEMPEL_TEXT
  6
Continuous
100
AcDbText
 10
-11.23938410712642
 20
17.90784546710784
 30
0.0
 40
0.0666666660043928
  1
2
  7
ERSTELLTER_STIL_3
 11
-11.23938410712642
 21
17.97451213311224
 31
0.0
100
AcDbAttributeDefinition
  3
DUMMY_559
  2
DUMMY_559
 70
     0
 74
     3
280
     0
  0
ENDBLK
  5
2DC
330
2D0
100
AcDbEntity
  8
0
100
AcDbBlockEnd
  0
BLOCK
  5
2DB
330
2DA
100
AcDbEntity
  8
0
100
AcDbBlockBegin
  2
RESERVE_UG-09_10
 70
     2
 10
-3.241587739834467
 20
12.01967490486033
 30
0.0
  3
RESERVE_UG-09_10
  1

  0
LINE
  5
2DD
102
{ACAD_XDICTIONARY
360
2DE
102
}
330
2DA
100
AcDbEntity
  8
01_RAUMSTEMPEL_TEXTRAHMEN
  6
Continuous
100
AcDbLine
 10
-3.848151172998137
 20
11.49824633343176
 30
0.0
 11
-2.635024306670798
 21
11.49824633343176
 31
0.0
  0
LINE
  5
2E0
102
{ACAD_XDICTIONARY
360
2E1
102
}
330
2DA
100
AcDbEntity
  8
01_RAUMSTEMPEL_TEXTRAHMEN
  6
Continuous
100
AcDbLine
 10
-2.635024306670798
 20
11.49824633343176
 30
0.0
 11
-2.635024306670798
 21
11.10538919057461
 31
0.0
  0
LINE
  5
2E3
102
{ACAD_XDICTIONARY
360
2E4
102
}
330
2DA
100
AcDbEntity
  8
01_RAUMSTEMPEL_TEXTRAHMEN
  6
Continuous
100
AcDbLine
 10
-2.635024306670798
 20
11.10538919057461
 30
0.0
 11
-3.848151172998137
 21
11.10538919057461
 31
0.0
  0
LINE
  5
2E6
102
{ACAD_XDICTIONARY
360
2E7
102
}
330
2DA
100
AcDbEntity
  8
01_RAUMSTEMPEL_TEXTRAHMEN
  6
Continuous
100
AcDbLine
 10
-3.848151172998137
 20
11.10538919057461
 30
0.0
 11
-3.848151172998137
 21
11.49824633343176
 31
0.0
  0
LINE
  5
2E9
102
{ACAD_XDICTIONARY
360
2EA
102
}
330
2DA
100
AcDbEntity
  8
01_RAUMSTEMPEL_TEXTRAHMEN
  6
Continuous
100
AcDbLine
 10
-3.006543244431981
 20
11.49824633343176
 30
0.0
 11
-3.006543244431981
 21
11.10538919057461
 31
0.0
  0
LINE
  5
2EC
102
{ACAD_XDICTIONARY
360
2ED
102
}
330
2DA
100
AcDbEntity
  8
01_RAUMSTEMPEL_TEXTRAHMEN
  6
Continuous
100
AcDbLine
 10
-3.006543244431981
 20
11.30181776200319
 30
0.0
 11
-2.635024306670798
 21
11.30181776200319
 31
0.0
  0
ATTDEF
  5
2EF
102
{ACAD_XDICTIONARY
360
2F0
102
}
330
2DA
100
AcDbEntity
  8
01_RAUMSTEMPEL_TEXT
  6
Continuous
100
AcDbText
 10
-3.848151172998137
 20
11.78538919206473
 30
0.0
 40
0.1499999985098839
  1
Reserve
  7
ERSTELLTER_STIL_2
 11
-3.848151172998137
 21
11.93538919057461
 31
0.0
100
AcDbAttributeDefinition
  3
Raumname
  2
ROOM_NAME
 70
     0
 74
     3
280
     0
  0
ATTDEF
  5
2F2
102
{ACAD_XDICTIONARY
360
2F3
102
}
330
2DA
100
AcDbEntity
  8
01_RAUMSTEMPEL_TEXT
  6
Continuous
100
AcDbText
 10
-3.730294030140994
 20
11.23538919206474
 30
0.0
 40
0.1499999985098839
  1
UG-09
  7
ERSTELLTER_STIL_2
 11
-3.730294030140994
 21
11.38538919057462
 31
0.0
100
AcDbAttributeDefinition
  3
Raumnummer
  2
ROOM_NUMBER
 70
     0
 74
     3
280
     0
  0
ATTDEF
  5
2F5
330
2DA
100
AcDbEntity
  8
01_RAUMSTEMPEL_TEXT
  6
Continuous
100
AcDbText
 10
-3.634802068942032
 20
11.55217490585374
 30
0.0
 40
0.0999999990065892
  1
9.19
  7
ERSTELLTER_STIL_3
 11
-3.634802068942032
 21
11.65217490486033
 31
0.0
100
AcDbAttributeDefinition
  3
Gemessene FlÃ¤che
  2
ROOM_AREA
 70
     0
 74
     3
280
     0
  0
ATTDEF
  5
2F6
330
2DA
100
AcDbEntity
  8
01_RAUMSTEMPEL_TEXT
  6
Continuous
100
AcDbText
 10
-2.921587865283232
 20
11.35574633442517
 30
0.0
 40
0.0999999990065892
  1
3.50
  7
ERSTELLTER_STIL_3
 11
-2.921587865283232
 21
11.45574633343176
 31
0.0
100
AcDbAttributeDefinition
  3

  2
orders_temp_0
 70
     0
 74
     3
280
     0
  0
ATTDEF
  5
2F7
330
2DA
100
AcDbEntity
  8
01_RAUMSTEMPEL_TEXT
  6
Continuous
100
AcDbText
 10
-2.921587865283232
 20
11.1593177629966
 30
0.0
 40
0.0999999990065892
  1
3.55
  7
ERSTELLTER_STIL_3
 11
-2.921587865283232
 21
11.25931776200319
 31
0.0
100
AcDbAttributeDefinition
  3

  2
orders_temp_1
 70
     0
 74
     3
280
     0
  0
ATTDEF
  5
2F8
330
2DA
100
AcDbEntity
  8
01_RAUMSTEMPEL_TEXT
  6
Continuous
100
AcDbText
 10
-3.848151172998137
 20
10.96288919156802
 30
0.0
 40
0.0999999990065892
  1
B:
  7
ERSTELLTER_STIL_3
 11
-3.848151172998137
 21
11.06288919057461
 31
0.0
100
AcDbAttributeDefinition
  3
Bodenbelag Titel
  2
floor_bez
 70
     0
 74
     3
280
     0
  0
ATTDEF
  5
2F9
330
2DA
100
AcDbEntity
  8
01_RAUMSTEMPEL_TEXT
  6
Continuous
100
AcDbText
 10
-3.683083940283861
 20
10.96288919156802
 30
0.0
 40
0.0999999990065892
  1
Hartbeton
  7
ERSTELLTER_STIL_3
 11
-3.683083940283861
 21
11.06288919057461
 31
0.0
100
AcDbAttributeDefinition
  3
Bodenbelag
  2
floor_f
 70
     0
 74
     3
280
     0
  0
ATTDEF
  5
2FA
330
2DA
100
AcDbEntity
  8
01_RAUMSTEMPEL_TEXT
  6
Continuous
100
AcDbText
 10
-3.848151172998137
 20
10.76646062013945
 30
0.0
 40
0.0999999990065892
  1
W:
  7
ERSTELLTER_STIL_3
 11
-3.848151172998137
 21
10.86646061914604
 31
0.0
100
AcDbAttributeDefinition
  3
Bezeichnung Wandbelag
  2
wall_bez
 70
     0
 74
     3
280
     0
  0
ATTDEF
  5
2FB
330
2DA
100
AcDbEntity
  8
01_RAUMSTEMPEL_TEXT
  6
Continuous
100
AcDbText
 10
-3.683083940283861
 20
10.76646062013945
 30
0.0
 40
0.0999999990065892
  1
Beton 
  7
ERSTELLTER_STIL_3
 11
-3.683083940283861
 21
10.86646061914604
 31
0.0
100
AcDbAttributeDefinition
  3
Wandbelag Material
  2
wall_mat_0
 70
     0
 74
     3
280
     0
  0
ATTDEF
  5
2FC
330
2DA
100
AcDbEntity
  8
01_RAUMSTEMPEL_TEXT
  6
Continuous
100
AcDbText
 10
-3.683083940283861
 20
10.57003204871088
 30
0.0
 40
0.0999999990065892
  1
Beton
  7
ERSTELLTER_STIL_3
 11
-3.683083940283861
 21
10.67003204771747
 31
0.0
100
AcDbAttributeDefinition
  3
Wandbelag Material
  2
wall_mat_1
 70
     0
 74
     3
280
     0
  0
ATTDEF
  5
2FD
330
2DA
100
AcDbEntity
  8
01_RAUMSTEMPEL_TEXT
  6
Continuous
100
AcDbText
 10
-3.848151172998137
 20
10.57003204871088
 30
0.0
 40
0.0999999990065892
  1
D:
  7
ERSTELLTER_STIL_3
 11
-3.848151172998137
 21
10.67003204771747
 31
0.0
100
AcDbAttributeDefinition
  3
Deckenbelag Titel
  2
ceil_bez
 70
     0
 74
     3
280
     0
  0
ATTDEF
  5
2FE
330
2DA
100
AcDbEntity
  8
01_RAUMSTEMPEL_TEXT
  6
Continuous
100
AcDbText
 10
-3.848151172998137
 20
11.55217490585374
 30
0.0
 40
0.0999999990065892
  1
BF:
  7
ERSTELLTER_STIL_3
 11
-3.848151172998137
 21
11.65217490486033
 31
0.0
100
AcDbAttributeDefinition
  3
Bezeichnung GrundflÃ¤che
  2
gf_bez
 70
     0
 74
     3
280
     0
  0
ATTDEF
  5
2FF
330
2DA
100
AcDbEntity
  8
01_RAUMSTEMPEL_TEXT
  6
Continuous
100
AcDbText
 10
-3.367881367472455
 20
11.55217490585374
 30
0.0
 40
0.0999999990065892
  1
 m
  7
ERSTELLTER_STIL_3
 11
-3.367881367472455
 21
11.65217490486033
 31
0.0
100
AcDbAttributeDefinition
  3
DUMMY_558
  2
DUMMY_558
 70
     0
 74
     3
280
     0
  0
ATTDEF
  5
300
330
2DA
100
AcDbEntity
  8
01_RAUMSTEMPEL_TEXT
  6
Continuous
100
AcDbText
 10
-3.215537468664715
 20
11.59312728647499
 30
0.0
 40
0.0666666660043928
  1
2
  7
ERSTELLTER_STIL_3
 11
-3.215537468664715
 21
11.65979395247938
 31
0.0
100
AcDbAttributeDefinition
  3
DUMMY_559
  2
DUMMY_559
 70
     0
 74
     3
280
     0
  0
ATTDEF
  5
301
330
2DA
100
AcDbEntity
  8
01_RAUMSTEMPEL_TEXT
  6
Continuous
100
AcDbText
 10
-2.968087864821296
 20
11.35574633442517
 30
0.0
 40
0.0999999990065892
  1
-
  7
ERSTELLTER_STIL_3
 72
     2
 11
-2.921587865283232
 21
11.45574633343176
 31
0.0
100
AcDbAttributeDefinition
  3
DUMMY_560
  2
DUMMY_560
 70
     0
 74
     3
280
     0
  0
ATTDEF
  5
302
330
2DA
100
AcDbEntity
  8
01_RAUMSTEMPEL_TEXT
  6
Continuous
100
AcDbText
 10
-2.968087864821296
 20
11.1593177629966
 30
0.0
 40
0.0999999990065892
  1
-
  7
ERSTELLTER_STIL_3
 72
     2
 11
-2.921587865283232
 21
11.25931776200319
 31
0.0
100
AcDbAttributeDefinition
  3
DUMMY_561
  2
DUMMY_561
 70
     0
 74
     3
280
     0
  0
ENDBLK
  5
305
330
2DA
100
AcDbEntity
  8
0
100
AcDbBlockEnd
  0
BLOCK
  5
304
330
303
100
AcDbEntity
  8
0
100
AcDbBlockBegin
  2
ARROWHEAD_12
 70
     0
 10
0.0
 20
0.0
 30
0.0
  3
ARROWHEAD_12
  1

  0
CIRCLE
  5
306
102
{ACAD_XDICTIONARY
360
307
102
}
330
303
100
AcDbEntity
  8
0
  6
Continuous
 62
     0
100
AcDbCircle
 10
0.0
 20
0.0
 30
0.0
 40
0.25
  0
LWPOLYLINE
  5
309
330
303
100
AcDbEntity
  8
0
  6
Continuous
 62
     0
370
   211
100
AcDbPolyline
 90
        2
 70
   128
 43
0.25
 10
-0.125
 20
0.0
 42
0.4142135623730951
 10
0.0
 20
-0.125
  0
LWPOLYLINE
  5
30A
330
303
100
AcDbEntity
  8
0
  6
Continuous
 62
     0
370
   211
100
AcDbPolyline
 90
        2
 70
   128
 43
0.25
 10
0.125
 20
0.0
 42
0.4142135623730951
 10
0.0
 20
0.125
  0
LINE
  5
30B
102
{ACAD_XDICTIONARY
360
30C
102
}
330
303
100
AcDbEntity
  8
0
  6
Continuous
 62
     0
100
AcDbLine
 10
0.0
 20
0.0
 30
0.0
 11
-1.0
 21
0.0
 31
0.0
  0
ENDBLK
  5
310
330
303
100
AcDbEntity
  8
0
100
AcDbBlockEnd
  0
BLOCK
  5
30F
330
30E
100
AcDbEntity
  8
0
100
AcDbBlockBegin
  2
ARROWHEAD_10
 70
     0
 10
0.0
 20
0.0
 30
0.0
  3
ARROWHEAD_10
  1

  0
LWPOLYLINE
  5
311
102
{ACAD_REACTORS
330
312
102
}
330
30E
100
AcDbEntity
  8
0
  6
Continuous
 62
     0
100
AcDbPolyline
 90
        4
 70
   129
 43
0.0
 10
-0.525
 20
0.525
 10
0.0
 20
0.0
 10
-0.525
 20
-0.525
 10
-0.525
 20
-0.525
  0
HATCH
  5
312
330
30E
100
AcDbEntity
  8
0
  6
Continuous
 62
     0
370
     0
100
AcDbHatch
 10
0.0
 20
0.0
 30
0.0
210
0.0
220
0.0
230
1.0
  2
SOLID
 70
     1
 71
     1
 91
        1
 92
        1
 93
        4
 72
     1
 10
-0.525
 20
0.525
 11
0.0
 21
0.0
 72
     1
 10
0.0
 20
0.0
 11
-0.525
 21
-0.525
 72
     1
 10
-0.525
 20
-0.525
 11
-0.525
 21
-0.525
 72
     1
 10
-0.525
 20
-0.525
 11
-0.525
 21
0.525
 97
        1
330
311
 75
     0
 76
     1
 98
        0
  0
LINE
  5
313
102
{ACAD_XDICTIONARY
360
314
102
}
330
30E
100
AcDbEntity
  8
0
  6
Continuous
 62
     0
100
AcDbLine
 10
0.0
 20
0.0
 30
0.0
 11
-1.0
 21
0.0
 31
0.0
  0
ENDBLK
  5
316
330
30E
100
AcDbEntity
  8
0
100
AcDbBlockEnd
  0
ENDSEC
  0
SECTION
  2
ENTITIES
  0
INSERT
  5
317
330
1F
100
AcDbEntity
  8
0_WP_PLANKOPF_1_50__AAA_
  6
Continuous
100
AcDbBlockReference
  2
_X0
 10
0.0
 20
0.0
 30
0.0
  0
INSERT
  5
318
330
1F
100
AcDbEntity
  8
01_RAUMSTEMPEL
  6
Continuous
100
AcDbBlockReference
 66
     1
  2
TECHNIK_UG-08_7
 10
-6.04640119175458
 20
18.02568639525572
 30
0.0
  0
ATTRIB
  5
319
102
{ACAD_XDICTIONARY
360
31A
102
}
330
318
100
AcDbEntity
  8
01_RAUMSTEMPEL_TEXT
  6
Continuous
 62
     7
100
AcDbText
 10
-6.652965023824594
 20
17.79140068246013
 30
0.0
 40
0.1499999985098839
  1
Technik
  7
ERSTELLTER_STIL_2
 11
-6.652965023824594
 21
17.94140068097001
 31
0.0
100
AcDbAttribute
  2
ROOM_NAME
 70
     0
 74
     3
280
     0
  0
ATTRIB
  5
31C
102
{ACAD_XDICTIONARY
360
31D
102
}
330
318
100
AcDbEntity
  8
01_RAUMSTEMPEL_TEXT
  6
Continuous
 62
     7
100
AcDbText
 10
-6.535107880967451
 20
17.24140068246012
 30
0.0
 40
0.1499999985098839
  1
UG-08
  7
ERSTELLTER_STIL_2
 11
-6.535107880967451
 21
17.39140068097
 31
0.0
100
AcDbAttribute
  2
ROOM_NUMBER
 70
     0
 74
     3
280
     0
  0
ATTRIB
  5
31F
330
318
100
AcDbEntity
  8
01_RAUMSTEMPEL_TEXT
  6
Continuous
 62
     7
100
AcDbText
 10
-6.439616526010184
 20
17.55818639624913
 30
0.0
 40
0.0999999990065892
  1
18.99
  7
ERSTELLTER_STIL_3
 11
-6.439616526010184
 21
17.65818639525572
 31
0.0
100
AcDbAttribute
  2
ROOM_AREA
 70
     0
 74
     3
280
     0
  0
ATTRIB
  5
320
330
318
100
AcDbEntity
  8
01_RAUMSTEMPEL_TEXT
  6
Continuous
 62
     7
100
AcDbText
 10
-5.726400051021266
 20
17.36175782482056
 30
0.0
 40
0.0999999990065892
  1
4.86
  7
ERSTELLTER_STIL_3
 11
-5.726400051021266
 21
17.46175782382715
 31
0.0
100
AcDbAttribute
  2
orders_temp
 70
     0
 74
     3
280
     0
  0
ATTRIB
  5
321
330
318
100
AcDbEntity
  8
01_RAUMSTEMPEL_TEXT
  6
Continuous
 62
     7
100
AcDbText
 10
-5.726400051021266
 20
17.16532925339199
 30
0.0
 40
0.0999999990065892
  1
5.03
  7
ERSTELLTER_STIL_3
 11
-5.726400051021266
 21
17.26532925239858
 31
0.0
100
AcDbAttribute
  2
orders_temp_1
 70
     0
 74
     3
280
     0
  0
ATTRIB
  5
322
330
318
100
AcDbEntity
  8
01_RAUMSTEMPEL_TEXT
  6
Continuous
 62
     7
100
AcDbText
 10
-6.652965023824594
 20
16.96890068196342
 30
0.0
 40
0.0999999990065892
  1
B:
  7
ERSTELLTER_STIL_3
 11
-6.652965023824594
 21
17.06890068097001
 31
0.0
100
AcDbAttribute
  2
floor_bez
 70
     0
 74
     3
280
     0
  0
ATTRIB
  5
323
330
318
100
AcDbEntity
  8
01_RAUMSTEMPEL_TEXT
  6
Continuous
 62
     7
100
AcDbText
 10
-6.4878979092488
 20
16.96890068196342
 30
0.0
 40
0.0999999990065892
  1
Hartbeton
  7
ERSTELLTER_STIL_3
 11
-6.4878979092488
 21
17.06890068097001
 31
0.0
100
AcDbAttribute
  2
floor_f
 70
     0
 74
     3
280
     0
  0
ATTRIB
  5
324
330
318
100
AcDbEntity
  8
01_RAUMSTEMPEL_TEXT
  6
Continuous
 62
     7
100
AcDbText
 10
-6.652965023824594
 20
16.77247211053485
 30
0.0
 40
0.0999999990065892
  1
W:
  7
ERSTELLTER_STIL_3
 11
-6.652965023824594
 21
16.87247210954144
 31
0.0
100
AcDbAttribute
  2
wall_bez
 70
     0
 74
     3
280
     0
  0
ATTRIB
  5
325
330
318
100
AcDbEntity
  8
01_RAUMSTEMPEL_TEXT
  6
Continuous
 62
     7
100
AcDbText
 10
-6.4878979092488
 20
16.77247211053485
 30
0.0
 40
0.0999999990065892
  1
Beton 
  7
ERSTELLTER_STIL_3
 11
-6.4878979092488
 21
16.87247210954144
 31
0.0
100
AcDbAttribute
  2
wall_mat
 70
     0
 74
     3
280
     0
  0
ATTRIB
  5
326
330
318
100
AcDbEntity
  8
01_RAUMSTEMPEL_TEXT
  6
Continuous
 62
     7
100
AcDbText
 10
-6.4878979092488
 20
16.57604353910627
 30
0.0
 40
0.0999999990065892
  1
Beton
  7
ERSTELLTER_STIL_3
 11
-6.4878979092488
 21
16.67604353811286
 31
0.0
100
AcDbAttribute
  2
wall_mat_1
 70
     0
 74
     3
280
     0
  0
ATTRIB
  5
327
330
318
100
AcDbEntity
  8
01_RAUMSTEMPEL_TEXT
  6
Continuous
 62
     7
100
AcDbText
 10
-6.652965023824594
 20
16.57604353910627
 30
0.0
 40
0.0999999990065892
  1
D:
  7
ERSTELLTER_STIL_3
 11
-6.652965023824594
 21
16.67604353811286
 31
0.0
100
AcDbAttribute
  2
ceil_bez
 70
     0
 74
     3
280
     0
  0
ATTRIB
  5
328
330
318
100
AcDbEntity
  8
01_RAUMSTEMPEL_TEXT
  6
Continuous
 62
     7
100
AcDbText
 10
-6.652965023824594
 20
17.55818639624913
 30
0.0
 40
0.0999999990065892
  1
BF:
  7
ERSTELLTER_STIL_3
 11
-6.652965023824594
 21
17.65818639525572
 31
0.0
100
AcDbAttribute
  2
gf_bez
 70
     0
 74
     3
280
     0
  0
ATTRIB
  5
329
330
318
100
AcDbEntity
  8
01_RAUMSTEMPEL_TEXT
  6
Continuous
 62
     7
100
AcDbText
 10
-6.096423661889907
 20
17.55818639624913
 30
0.0
 40
0.0999999990065892
  1
 m
  7
ERSTELLTER_STIL_3
 11
-6.096423661889907
 21
17.65818639525572
 31
0.0
100
AcDbAttribute
  2
DUMMY_558
 70
     0
 74
     3
280
     0
  0
ATTRIB
  5
32A
330
318
100
AcDbEntity
  8
01_RAUMSTEMPEL_TEXT
  6
Continuous
 62
     7
100
AcDbText
 10
-5.944079620469068
 20
17.59913877687038
 30
0.0
 40
0.0666666660043928
  1
2
  7
ERSTELLTER_STIL_3
 11
-5.944079620469068
 21
17.66580544287477
 31
0.0
100
AcDbAttribute
  2
DUMMY_559
 70
     0
 74
     3
280
     0
  0
ATTRIB
  5
32B
330
318
100
AcDbEntity
  8
01_RAUMSTEMPEL_TEXT
  6
Continuous
 62
     7
100
AcDbText
 10
-5.77290005055933
 20
17.36175782482056
 30
0.0
 40
0.0999999990065892
  1
-
  7
ERSTELLTER_STIL_3
 72
     2
 11
-5.726400051021266
 21
17.46175782382715
 31
0.0
100
AcDbAttribute
  2
DUMMY_560
 70
     0
 74
     3
280
     0
  0
ATTRIB
  5
32C
330
318
100
AcDbEntity
  8
01_RAUMSTEMPEL_TEXT
  6
Continuous
 62
     7
100
AcDbText
 10
-5.77290005055933
 20
17.16532925339199
 30
0.0
 40
0.0999999990065892
  1
-
  7
ERSTELLTER_STIL_3
 72
     2
 11
-5.726400051021266
 21
17.26532925239858
 31
0.0
100
AcDbAttribute
  2
DUMMY_561
 70
     0
 74
     3
280
     0
  0
SEQEND
  5
32E
330
318
100
AcDbEntity
  8
01_RAUMSTEMPEL
  6
Continuous
  0
VIEWPORT
  5
32D
330
1B
100
AcDbEntity
 67
     1
  8
0
100
AcDbViewport
 10
-8.623990303503426
 20
17.41742328120064
 30
0.0
 40
6.49601269908913
 41
1.743629048801441
 68
     1
 69
     1
 12
-8.623990303503426
 22
17.41742328120064
 13
0.0
 23
0.0
 14
0.5
 24
0.5
 15
0.5
 25
0.5
 16
0.0
 26
0.0
 36
1.0
 17
0.0
 27
0.0
 37
0.0
 42
50.0
 43
0.0
 44
0.0
 45
1.743629048801441
 50
0.0
 51
0.0
 72
  1000
 90
    32800
  1

281
     0
 71
     1
 74
     0
110
0.0
120
0.0
130
0.0
111
1.0
121
0.0
131
0.0
112
0.0
122
1.0
132
0.0
 79
     0
146
0.0
170
     0
 61
     5
292
     1
282
     1
141
0.0
142
0.0
 63
   256
  0
ENDSEC
  0
SECTION
  2
OBJECTS
  0
DICTIONARY
  5
C
330
0
100
AcDbDictionary
281
     1
  3
ACAD_GROUP
350
D
  3
ACAD_LAYOUT
350
1A
  3
ACAD_MATERIAL
350
3B
  3
ACAD_MLEADERSTYLE
350
183
  3
ACAD_MLINESTYLE
350
17
  3
ACAD_PLOTSETTINGS
350
19
  3
ACAD_PLOTSTYLENAME
350
E
  3
ACAD_TABLESTYLE
350
192
  3
ACAD_VISUALSTYLE
350
2A
  3
ACDB_RECOMPOSE_DATA
350
331
  3
AcDbVariableDictionary
350
332
  0
SUN
  5
3F
330
29
100
AcDbSun
 90
        1
290
     0
 63
     7
421
 16777215
 40
1.0
291
     1
 91
  2455826
 92
 54000000
292
     0
 70
     2
 71
   256
280
     1
  0
DICTIONARY
  5
186
330
1F
100
AcDbDictionary
280
     1
281
     1
  3
ACAD_GEOGRAPHICDATA
360
187
  0
DICTIONARY
  5
195
330
194
100
AcDbDictionary
280
     1
281
     1
  3
TC_EXTENDED_DATA
360
196
  0
DICTIONARY
  5
198
330
197
100
AcDbDictionary
280
     1
281
     1
  3
TC_EXTENDED_DATA
360
199
  0
DICTIONARY
  5
1A0
330
19F
100
AcDbDictionary
280
     1
281
     1
  3
TC_EXTENDED_DATA
360
1A1
  0
DICTIONARY
  5
1A3
330
1A2
100
AcDbDictionary
280
     1
281
     1
  3
TC_EXTENDED_DATA
360
1A4
  0
DICTIONARY
  5
1A6
330
1A5
100
AcDbDictionary
280
     1
281
     1
  3
TC_EXTENDED_DATA
360
1A7
  0
DICTIONARY
  5
1A9
330
1A8
100
AcDbDictionary
280
     1
281
     1
  3
TC_EXTENDED_DATA
360
1AA
  0
DICTIONARY
  5
1AC
330
1AB
100
AcDbDictionary
280
     1
281
     1
  3
TC_EXTENDED_DATA
360
1AD
  0
DICTIONARY
  5
1AF
330
1AE
100
AcDbDictionary
280
     1
281
     1
  3
TC_EXTENDED_DATA
360
1B0
  0
DICTIONARY
  5
1B2
330
1B1
100
AcDbDictionary
280
     1
281
     1
  3
TC_EXTENDED_DATA
360
1B3
  0
DICTIONARY
  5
1B5
330
1B4
100
AcDbDictionary
280
     1
281
     1
  3
TC_EXTENDED_DATA
360
1B6
  0
DICTIONARY
  5
1C9
330
1C8
100
AcDbDictionary
280
     1
281
     1
  3
TC_EXTENDED_DATA
360
1CA
  0
DICTIONARY
  5
1CC
330
1CB
100
AcDbDictionary
280
     1
281
     1
  3
TC_EXTENDED_DATA
360
1CD
  0
DICTIONARY
  5
1CF
330
1CE
100
AcDbDictionary
280
     1
281
     1
  3
TC_EXTENDED_DATA
360
1D0
  0
DICTIONARY
  5
1D2
330
1D1
100
AcDbDictionary
280
     1
281
     1
  3
TC_EXTENDED_DATA
360
1D3
  0
DICTIONARY
  5
1D5
330
1D4
100
AcDbDictionary
280
     1
281
     1
  3
TC_EXTENDED_DATA
360
1D6
  0
DICTIONARY
  5
1D8
330
1D7
100
AcDbDictionary
280
     1
281
     1
  3
TC_EXTENDED_DATA
360
1D9
  0
DICTIONARY
  5
1DB
330
1DA
100
AcDbDictionary
280
     1
281
     1
  3
TC_EXTENDED_DATA
360
1DC
  0
DICTIONARY
  5
1DE
330
1DD
100
AcDbDictionary
280
     1
281
     1
  3
TC_EXTENDED_DATA
360
1DF
  0
DICTIONARY
  5
1F2
330
1F1
100
AcDbDictionary
280
     1
281
     1
  3
TC_EXTENDED_DATA
360
1F3
  0
DICTIONARY
  5
1F5
330
1F4
100
AcDbDictionary
280
     1
281
     1
  3
TC_EXTENDED_DATA
360
1F6
  0
DICTIONARY
  5
1F8
330
1F7
100
AcDbDictionary
280
     1
281
     1
  3
TC_EXTENDED_DATA
360
1F9
  0
DICTIONARY
  5
1FB
330
1FA
100
AcDbDictionary
280
     1
281
     1
  3
TC_EXTENDED_DATA
360
1FC
  0
DICTIONARY
  5
1FE
330
1FD
100
AcDbDictionary
280
     1
281
     1
  3
TC_EXTENDED_DATA
360
1FF
  0
DICTIONARY
  5
201
330
200
100
AcDbDictionary
280
     1
281
     1
  3
TC_EXTENDED_DATA
360
202
  0
DICTIONARY
  5
204
330
203
100
AcDbDictionary
280
     1
281
     1
  3
TC_EXTENDED_DATA
360
205
  0
DICTIONARY
  5
207
330
206
100
AcDbDictionary
280
     1
281
     1
  3
TC_EXTENDED_DATA
360
208
  0
DICTIONARY
  5
21B
330
21A
100
AcDbDictionary
280
     1
281
     1
  3
TC_EXTENDED_DATA
360
21C
  0
DICTIONARY
  5
21E
330
21D
100
AcDbDictionary
280
     1
281
     1
  3
TC_EXTENDED_DATA
360
21F
  0
DICTIONARY
  5
221
330
220
100
AcDbDictionary
280
     1
281
     1
  3
TC_EXTENDED_DATA
360
222
  0
DICTIONARY
  5
224
330
223
100
AcDbDictionary
280
     1
281
     1
  3
TC_EXTENDED_DATA
360
225
  0
DICTIONARY
  5
227
330
226
100
AcDbDictionary
280
     1
281
     1
  3
TC_EXTENDED_DATA
360
228
  0
DICTIONARY
  5
22A
330
229
100
AcDbDictionary
280
     1
281
     1
  3
TC_EXTENDED_DATA
360
22B
  0
DICTIONARY
  5
22D
330
22C
100
AcDbDictionary
280
     1
281
     1
  3
TC_EXTENDED_DATA
360
22E
  0
DICTIONARY
  5
230
330
22F
100
AcDbDictionary
280
     1
281
     1
  3
TC_EXTENDED_DATA
360
231
  0
DICTIONARY
  5
244
330
243
100
AcDbDictionary
280
     1
281
     1
  3
TC_EXTENDED_DATA
360
245
  0
DICTIONARY
  5
247
330
246
100
AcDbDictionary
280
     1
281
     1
  3
TC_EXTENDED_DATA
360
248
  0
DICTIONARY
  5
24A
330
249
100
AcDbDictionary
280
     1
281
     1
  3
TC_EXTENDED_DATA
360
24B
  0
DICTIONARY
  5
24D
330
24C
100
AcDbDictionary
280
     1
281
     1
  3
TC_EXTENDED_DATA
360
24E
  0
DICTIONARY
  5
250
330
24F
100
AcDbDictionary
280
     1
281
     1
  3
TC_EXTENDED_DATA
360
251
  0
DICTIONARY
  5
253
330
252
100
AcDbDictionary
280
     1
281
     1
  3
TC_EXTENDED_DATA
360
254
  0
DICTIONARY
  5
256
330
255
100
AcDbDictionary
280
     1
281
     1
  3
TC_EXTENDED_DATA
360
257
  0
DICTIONARY
  5
259
330
258
100
AcDbDictionary
280
     1
281
     1
  3
TC_EXTENDED_DATA
360
25A
  0
DICTIONARY
  5
26D
330
26C
100
AcDbDictionary
280
     1
281
     1
  3
TC_EXTENDED_DATA
360
26E
  0
DICTIONARY
  5
270
330
26F
100
AcDbDictionary
280
     1
281
     1
  3
TC_EXTENDED_DATA
360
271
  0
DICTIONARY
  5
273
330
272
100
AcDbDictionary
280
     1
281
     1
  3
TC_EXTENDED_DATA
360
274
  0
DICTIONARY
  5
276
330
275
100
AcDbDictionary
280
     1
281
     1
  3
TC_EXTENDED_DATA
360
277
  0
DICTIONARY
  5
279
330
278
100
AcDbDictionary
280
     1
281
     1
  3
TC_EXTENDED_DATA
360
27A
  0
DICTIONARY
  5
27C
330
27B
100
AcDbDictionary
280
     1
281
     1
  3
TC_EXTENDED_DATA
360
27D
  0
DICTIONARY
  5
27F
330
27E
100
AcDbDictionary
280
     1
281
     1
  3
TC_EXTENDED_DATA
360
280
  0
DICTIONARY
  5
282
330
281
100
AcDbDictionary
280
     1
281
     1
  3
TC_EXTENDED_DATA
360
283
  0
DICTIONARY
  5
296
330
295
100
AcDbDictionary
280
     1
281
     1
  3
TC_EXTENDED_DATA
360
297
  0
DICTIONARY
  5
299
330
298
100
AcDbDictionary
280
     1
281
     1
  3
TC_EXTENDED_DATA
360
29A
  0
DICTIONARY
  5
29C
330
29B
100
AcDbDictionary
280
     1
281
     1
  3
TC_EXTENDED_DATA
360
29D
  0
DICTIONARY
  5
29F
330
29E
100
AcDbDictionary
280
     1
281
     1
  3
TC_EXTENDED_DATA
360
2A0
  0
DICTIONARY
  5
2A2
330
2A1
100
AcDbDictionary
280
     1
281
     1
  3
TC_EXTENDED_DATA
360
2A3
  0
DICTIONARY
  5
2A5
330
2A4
100
AcDbDictionary
280
     1
281
     1
  3
TC_EXTENDED_DATA
360
2A6
  0
DICTIONARY
  5
2A8
330
2A7
100
AcDbDictionary
280
     1
281
     1
  3
TC_EXTENDED_DATA
360
2A9
  0
DICTIONARY
  5
2AB
330
2AA
100
AcDbDictionary
280
     1
281
     1
  3
TC_EXTENDED_DATA
360
2AC
  0
DICTIONARY
  5
2BF
330
2BE
100
AcDbDictionary
280
     1
281
     1
  3
TC_EXTENDED_DATA
360
2C0
  0
DICTIONARY
  5
2C2
330
2C1
100
AcDbDictionary
280
     1
281
     1
  3
TC_EXTENDED_DATA
360
2C3
  0
DICTIONARY
  5
2C5
330
2C4
100
AcDbDictionary
280
     1
281
     1
  3
TC_EXTENDED_DATA
360
2C6
  0
DICTIONARY
  5
2C8
330
2C7
100
AcDbDictionary
280
     1
281
     1
  3
TC_EXTENDED_DATA
360
2C9
  0
DICTIONARY
  5
2CB
330
2CA
100
AcDbDictionary
280
     1
281
     1
  3
TC_EXTENDED_DATA
360
2CC
  0
DICTIONARY
  5
2CE
330
2CD
100
AcDbDictionary
280
     1
281
     1
  3
TC_EXTENDED_DATA
360
2CF
  0
DICTIONARY
  5
2D4
330
2D3
100
AcDbDictionary
280
     1
281
     1
  3
TC_EXTENDED_DATA
360
2D5
  0
DICTIONARY
  5
2DE
330
2DD
100
AcDbDictionary
280
     1
281
     1
  3
TC_EXTENDED_DATA
360
2DF
  0
DICTIONARY
  5
2E1
330
2E0
100
AcDbDictionary
280
     1
281
     1
  3
TC_EXTENDED_DATA
360
2E2
  0
DICTIONARY
  5
2E4
330
2E3
100
AcDbDictionary
280
     1
281
     1
  3
TC_EXTENDED_DATA
360
2E5
  0
DICTIONARY
  5
2E7
330
2E6
100
AcDbDictionary
280
     1
281
     1
  3
TC_EXTENDED_DATA
360
2E8
  0
DICTIONARY
  5
2EA
330
2E9
100
AcDbDictionary
280
     1
281
     1
  3
TC_EXTENDED_DATA
360
2EB
  0
DICTIONARY
  5
2ED
330
2EC
100
AcDbDictionary
280
     1
281
     1
  3
TC_EXTENDED_DATA
360
2EE
  0
DICTIONARY
  5
2F0
330
2EF
100
AcDbDictionary
280
     1
281
     1
  3
TC_EXTENDED_DATA
360
2F1
  0
DICTIONARY
  5
2F3
330
2F2
100
AcDbDictionary
280
     1
281
     1
  3
TC_EXTENDED_DATA
360
2F4
  0
DICTIONARY
  5
307
330
306
100
AcDbDictionary
280
     1
281
     1
  3
TC_EXTENDED_DATA
360
308
  0
DICTIONARY
  5
30C
330
30B
100
AcDbDictionary
280
     1
281
     1
  3
TC_EXTENDED_DATA
360
30D
  0
DICTIONARY
  5
314
330
313
100
AcDbDictionary
280
     1
281
     1
  3
TC_EXTENDED_DATA
360
315
  0
DICTIONARY
  5
31A
330
319
100
AcDbDictionary
280
     1
281
     1
  3
TC_EXTENDED_DATA
360
31B
  0
DICTIONARY
  5
31D
330
31C
100
AcDbDictionary
280
     1
281
     1
  3
TC_EXTENDED_DATA
360
31E
  0
DICTIONARY
  5
D
102
{ACAD_REACTORS
330
C
102
}
330
C
100
AcDbDictionary
281
     1
  0
DICTIONARY
  5
1A
102
{ACAD_REACTORS
330
C
102
}
330
C
100
AcDbDictionary
281
     1
  3
_Paper_Space
350
1E
  3
Model
350
22
  0
DICTIONARY
  5
3B
102
{ACAD_REACTORS
330
C
102
}
330
C
100
AcDbDictionary
281
     1
  3
ByBlock
350
3D
  3
ByLayer
350
3C
  3
Global
350
3E
  0
DICTIONARY
  5
183
102
{ACAD_REACTORS
330
C
102
}
330
C
100
AcDbDictionary
281
     1
  3
Standard
350
184
  0
DICTIONARY
  5
17
102
{ACAD_REACTORS
330
C
102
}
330
C
100
AcDbDictionary
281
     1
  3
Standard
350
18
  0
DICTIONARY
  5
19
102
{ACAD_REACTORS
330
C
102
}
330
C
100
AcDbDictionary
281
     1
  0
ACDBDICTIONARYWDFLT
  5
E
102
{ACAD_REACTORS
330
C
102
}
330
C
100
AcDbDictionary
281
     1
  3
Normal
350
F
100
AcDbDictionaryWithDefault
340
F
  0
DICTIONARY
  5
192
102
{ACAD_REACTORS
330
C
102
}
330
C
100
AcDbDictionary
281
     1
  3
Standard
350
193
  0
DICTIONARY
  5
2A
102
{ACAD_REACTORS
330
C
102
}
330
C
100
AcDbDictionary
281
     1
  3
2dWireframe
350
2F
  3
3D Hidden
350
31
  3
3dWireframe
350
30
  3
Basic
350
32
  3
Brighten
350
36
  3
ColorChange
350
3A
  3
Conceptual
350
34
  3
Dim
350
35
  3
Facepattern
350
39
  3
Flat
350
2B
  3
FlatWithEdges
350
2C
  3
Gouraud
350
2D
  3
GouraudWithEdges
350
2E
  3
Linepattern
350
38
  3
Realistic
350
33
  3
Thicken
350
37
  0
XRECORD
  5
331
102
{ACAD_REACTORS
330
C
102
}
330
C
100
AcDbXrecord
280
     1
 90
        1
330
193
  0
DICTIONARY
  5
332
102
{ACAD_REACTORS
330
C
102
}
330
C
100
AcDbDictionary
281
     1
  3
GEOMARKERVISIBILITY
350
333
  0
GEODATA
  5
187
102
{ACAD_REACTORS
330
186
102
}
330
186
100
AcDbGeoData
 90
        2
330
1F
 70
     1
 10
0.0
 20
0.0
 30
0.0
 11
-122.394
 21
37.795
 31
0.0
 40
1.0
 91
        6
 41
1.0
 92
        6
210
0.0
220
0.0
230
1.0
 12
0.0
 22
1.0
 95
        3
141
1.0
294
     0
142
0.0
143
0.0
301

302
<georss:point>37.7950 -122.3940</georss:point>
305

306

307

 93
        0
 96
        0
  0
TCOPTIONALDATA
  5
196
102
{ACAD_REACTORS
330
195
102
}
330
195
100
TcOptionalData
 70
     2
 70
    32
 40
3.0
  0
TCOPTIONALDATA
  5
199
102
{ACAD_REACTORS
330
198
102
}
330
198
100
TcOptionalData
 70
     2
 70
    32
 40
3.0
  0
TCOPTIONALDATA
  5
1A1
102
{ACAD_REACTORS
330
1A0
102
}
330
1A0
100
TcOptionalData
 70
     2
 70
    32
 40
3.0
  0
TCOPTIONALDATA
  5
1A4
102
{ACAD_REACTORS
330
1A3
102
}
330
1A3
100
TcOptionalData
 70
     2
 70
    32
 40
3.0
  0
TCOPTIONALDATA
  5
1A7
102
{ACAD_REACTORS
330
1A6
102
}
330
1A6
100
TcOptionalData
 70
     2
 70
    32
 40
3.0
  0
TCOPTIONALDATA
  5
1AA
102
{ACAD_REACTORS
330
1A9
102
}
330
1A9
100
TcOptionalData
 70
     2
 70
    32
 40
3.0
  0
TCOPTIONALDATA
  5
1AD
102
{ACAD_REACTORS
330
1AC
102
}
330
1AC
100
TcOptionalData
 70
     2
 70
    32
 40
3.0
  0
TCOPTIONALDATA
  5
1B0
102
{ACAD_REACTORS
330
1AF
102
}
330
1AF
100
TcOptionalData
 70
     2
 70
    32
 40
3.0
  0
TCOPTIONALDATA
  5
1B3
102
{ACAD_REACTORS
330
1B2
102
}
330
1B2
100
TcOptionalData
 70
     2
 70
    16
  1
Arial
 70
     2
  0
TCOPTIONALDATA
  5
1B6
102
{ACAD_REACTORS
330
1B5
102
}
330
1B5
100
TcOptionalData
 70
     2
 70
    16
  1
Arial
 70
     2
  0
TCOPTIONALDATA
  5
1CA
102
{ACAD_REACTORS
330
1C9
102
}
330
1C9
100
TcOptionalData
 70
     2
 70
    32
 40
3.0
  0
TCOPTIONALDATA
  5
1CD
102
{ACAD_REACTORS
330
1CC
102
}
330
1CC
100
TcOptionalData
 70
     2
 70
    32
 40
3.0
  0
TCOPTIONALDATA
  5
1D0
102
{ACAD_REACTORS
330
1CF
102
}
330
1CF
100
TcOptionalData
 70
     2
 70
    32
 40
3.0
  0
TCOPTIONALDATA
  5
1D3
102
{ACAD_REACTORS
330
1D2
102
}
330
1D2
100
TcOptionalData
 70
     2
 70
    32
 40
3.0
  0
TCOPTIONALDATA
  5
1D6
102
{ACAD_REACTORS
330
1D5
102
}
330
1D5
100
TcOptionalData
 70
     2
 70
    32
 40
3.0
  0
TCOPTIONALDATA
  5
1D9
102
{ACAD_REACTORS
330
1D8
102
}
330
1D8
100
TcOptionalData
 70
     2
 70
    32
 40
3.0
  0
TCOPTIONALDATA
  5
1DC
102
{ACAD_REACTORS
330
1DB
102
}
330
1DB
100
TcOptionalData
 70
     2
 70
    16
  1
Arial
 70
     2
  0
TCOPTIONALDATA
  5
1DF
102
{ACAD_REACTORS
330
1DE
102
}
330
1DE
100
TcOptionalData
 70
     2
 70
    16
  1
Arial
 70
     2
  0
TCOPTIONALDATA
  5
1F3
102
{ACAD_REACTORS
330
1F2
102
}
330
1F2
100
TcOptionalData
 70
     2
 70
    32
 40
3.0
  0
TCOPTIONALDATA
  5
1F6
102
{ACAD_REACTORS
330
1F5
102
}
330
1F5
100
TcOptionalData
 70
     2
 70
    32
 40
3.0
  0
TCOPTIONALDATA
  5
1F9
102
{ACAD_REACTORS
330
1F8
102
}
330
1F8
100
TcOptionalData
 70
     2
 70
    32
 40
3.0
  0
TCOPTIONALDATA
  5
1FC
102
{ACAD_REACTORS
330
1FB
102
}
330
1FB
100
TcOptionalData
 70
     2
 70
    32
 40
3.0
  0
TCOPTIONALDATA
  5
1FF
102
{ACAD_REACTORS
330
1FE
102
}
330
1FE
100
TcOptionalData
 70
     2
 70
    32
 40
3.0
  0
TCOPTIONALDATA
  5
202
102
{ACAD_REACTORS
330
201
102
}
330
201
100
TcOptionalData
 70
     2
 70
    32
 40
3.0
  0
TCOPTIONALDATA
  5
205
102
{ACAD_REACTORS
330
204
102
}
330
204
100
TcOptionalData
 70
     2
 70
    16
  1
Arial
 70
     2
  0
TCOPTIONALDATA
  5
208
102
{ACAD_REACTORS
330
207
102
}
330
207
100
TcOptionalData
 70
     2
 70
    16
  1
Arial
 70
     2
  0
TCOPTIONALDATA
  5
21C
102
{ACAD_REACTORS
330
21B
102
}
330
21B
100
TcOptionalData
 70
     2
 70
    32
 40
3.0
  0
TCOPTIONALDATA
  5
21F
102
{ACAD_REACTORS
330
21E
102
}
330
21E
100
TcOptionalData
 70
     2
 70
    32
 40
3.0
  0
TCOPTIONALDATA
  5
222
102
{ACAD_REACTORS
330
221
102
}
330
221
100
TcOptionalData
 70
     2
 70
    32
 40
3.0
  0
TCOPTIONALDATA
  5
225
102
{ACAD_REACTORS
330
224
102
}
330
224
100
TcOptionalData
 70
     2
 70
    32
 40
3.0
  0
TCOPTIONALDATA
  5
228
102
{ACAD_REACTORS
330
227
102
}
330
227
100
TcOptionalData
 70
     2
 70
    32
 40
3.0
  0
TCOPTIONALDATA
  5
22B
102
{ACAD_REACTORS
330
22A
102
}
330
22A
100
TcOptionalData
 70
     2
 70
    32
 40
3.0
  0
TCOPTIONALDATA
  5
22E
102
{ACAD_REACTORS
330
22D
102
}
330
22D
100
TcOptionalData
 70
     2
 70
    16
  1
Arial
 70
     2
  0
TCOPTIONALDATA
  5
231
102
{ACAD_REACTORS
330
230
102
}
330
230
100
TcOptionalData
 70
     2
 70
    16
  1
Arial
 70
     2
  0
TCOPTIONALDATA
  5
245
102
{ACAD_REACTORS
330
244
102
}
330
244
100
TcOptionalData
 70
     2
 70
    32
 40
3.0
  0
TCOPTIONALDATA
  5
248
102
{ACAD_REACTORS
330
247
102
}
330
247
100
TcOptionalData
 70
     2
 70
    32
 40
3.0
  0
TCOPTIONALDATA
  5
24B
102
{ACAD_REACTORS
330
24A
102
}
330
24A
100
TcOptionalData
 70
     2
 70
    32
 40
3.0
  0
TCOPTIONALDATA
  5
24E
102
{ACAD_REACTORS
330
24D
102
}
330
24D
100
TcOptionalData
 70
     2
 70
    32
 40
3.0
  0
TCOPTIONALDATA
  5
251
102
{ACAD_REACTORS
330
250
102
}
330
250
100
TcOptionalData
 70
     2
 70
    32
 40
3.0
  0
TCOPTIONALDATA
  5
254
102
{ACAD_REACTORS
330
253
102
}
330
253
100
TcOptionalData
 70
     2
 70
    32
 40
3.0
  0
TCOPTIONALDATA
  5
257
102
{ACAD_REACTORS
330
256
102
}
330
256
100
TcOptionalData
 70
     2
 70
    16
  1
Arial
 70
     2
  0
TCOPTIONALDATA
  5
25A
102
{ACAD_REACTORS
330
259
102
}
330
259
100
TcOptionalData
 70
     2
 70
    16
  1
Arial
 70
     2
  0
TCOPTIONALDATA
  5
26E
102
{ACAD_REACTORS
330
26D
102
}
330
26D
100
TcOptionalData
 70
     2
 70
    32
 40
3.0
  0
TCOPTIONALDATA
  5
271
102
{ACAD_REACTORS
330
270
102
}
330
270
100
TcOptionalData
 70
     2
 70
    32
 40
3.0
  0
TCOPTIONALDATA
  5
274
102
{ACAD_REACTORS
330
273
102
}
330
273
100
TcOptionalData
 70
     2
 70
    32
 40
3.0
  0
TCOPTIONALDATA
  5
277
102
{ACAD_REACTORS
330
276
102
}
330
276
100
TcOptionalData
 70
     2
 70
    32
 40
3.0
  0
TCOPTIONALDATA
  5
27A
102
{ACAD_REACTORS
330
279
102
}
330
279
100
TcOptionalData
 70
     2
 70
    32
 40
3.0
  0
TCOPTIONALDATA
  5
27D
102
{ACAD_REACTORS
330
27C
102
}
330
27C
100
TcOptionalData
 70
     2
 70
    32
 40
3.0
  0
TCOPTIONALDATA
  5
280
102
{ACAD_REACTORS
330
27F
102
}
330
27F
100
TcOptionalData
 70
     2
 70
   144
 90
        1
  1
#$AUX@_ToolInfo Properties
 70
     8
 90
        9
310
434D445F5445585440
  1
Arial
 70
     2
  0
TCOPTIONALDATA
  5
283
102
{ACAD_REACTORS
330
282
102
}
330
282
100
TcOptionalData
 70
     2
 70
    16
  1
Arial
 70
     2
  0
TCOPTIONALDATA
  5
297
102
{ACAD_REACTORS
330
296
102
}
330
296
100
TcOptionalData
 70
     2
 70
    32
 40
3.0
  0
TCOPTIONALDATA
  5
29A
102
{ACAD_REACTORS
330
299
102
}
330
299
100
TcOptionalData
 70
     2
 70
    32
 40
3.0
  0
TCOPTIONALDATA
  5
29D
102
{ACAD_REACTORS
330
29C
102
}
330
29C
100
TcOptionalData
 70
     2
 70
    32
 40
3.0
  0
TCOPTIONALDATA
  5
2A0
102
{ACAD_REACTORS
330
29F
102
}
330
29F
100
TcOptionalData
 70
     2
 70
    32
 40
3.0
  0
TCOPTIONALDATA
  5
2A3
102
{ACAD_REACTORS
330
2A2
102
}
330
2A2
100
TcOptionalData
 70
     2
 70
    32
 40
3.0
  0
TCOPTIONALDATA
  5
2A6
102
{ACAD_REACTORS
330
2A5
102
}
330
2A5
100
TcOptionalData
 70
     2
 70
    32
 40
3.0
  0
TCOPTIONALDATA
  5
2A9
102
{ACAD_REACTORS
330
2A8
102
}
330
2A8
100
TcOptionalData
 70
     2
 70
    16
  1
Arial
 70
     2
  0
TCOPTIONALDATA
  5
2AC
102
{ACAD_REACTORS
330
2AB
102
}
330
2AB
100
TcOptionalData
 70
     2
 70
    16
  1
Arial
 70
     2
  0
TCOPTIONALDATA
  5
2C0
102
{ACAD_REACTORS
330
2BF
102
}
330
2BF
100
TcOptionalData
 70
     2
 70
    32
 40
3.0
  0
TCOPTIONALDATA
  5
2C3
102
{ACAD_REACTORS
330
2C2
102
}
330
2C2
100
TcOptionalData
 70
     2
 70
    32
 40
3.0
  0
TCOPTIONALDATA
  5
2C6
102
{ACAD_REACTORS
330
2C5
102
}
330
2C5
100
TcOptionalData
 70
     2
 70
    32
 40
3.0
  0
TCOPTIONALDATA
  5
2C9
102
{ACAD_REACTORS
330
2C8
102
}
330
2C8
100
TcOptionalData
 70
     2
 70
    32
 40
3.0
  0
TCOPTIONALDATA
  5
2CC
102
{ACAD_REACTORS
330
2CB
102
}
330
2CB
100
TcOptionalData
 70
     2
 70
    32
 40
3.0
  0
TCOPTIONALDATA
  5
2CF
102
{ACAD_REACTORS
330
2CE
102
}
330
2CE
100
TcOptionalData
 70
     2
 70
    32
 40
3.0
  0
TCOPTIONALDATA
  5
2D5
102
{ACAD_REACTORS
330
2D4
102
}
330
2D4
100
TcOptionalData
 70
     2
 70
    16
  1
Arial
 70
     2
  0
TCOPTIONALDATA
  5
2DF
102
{ACAD_REACTORS
330
2DE
102
}
330
2DE
100
TcOptionalData
 70
     2
 70
    32
 40
3.0
  0
TCOPTIONALDATA
  5
2E2
102
{ACAD_REACTORS
330
2E1
102
}
330
2E1
100
TcOptionalData
 70
     2
 70
    32
 40
3.0
  0
TCOPTIONALDATA
  5
2E5
102
{ACAD_REACTORS
330
2E4
102
}
330
2E4
100
TcOptionalData
 70
     2
 70
    32
 40
3.0
  0
TCOPTIONALDATA
  5
2E8
102
{ACAD_REACTORS
330
2E7
102
}
330
2E7
100
TcOptionalData
 70
     2
 70
    32
 40
3.0
  0
TCOPTIONALDATA
  5
2EB
102
{ACAD_REACTORS
330
2EA
102
}
330
2EA
100
TcOptionalData
 70
     2
 70
    32
 40
3.0
  0
TCOPTIONALDATA
  5
2EE
102
{ACAD_REACTORS
330
2ED
102
}
330
2ED
100
TcOptionalData
 70
     2
 70
    32
 40
3.0
  0
TCOPTIONALDATA
  5
2F1
102
{ACAD_REACTORS
330
2F0
102
}
330
2F0
100
TcOptionalData
 70
     2
 70
    16
  1
Arial
 70
     2
  0
TCOPTIONALDATA
  5
2F4
102
{ACAD_REACTORS
330
2F3
102
}
330
2F3
100
TcOptionalData
 70
     2
 70
    16
  1
Arial
 70
     2
  0
TCOPTIONALDATA
  5
308
102
{ACAD_REACTORS
330
307
102
}
330
307
100
TcOptionalData
 70
     2
 70
    32
 40
3.0
  0
TCOPTIONALDATA
  5
30D
102
{ACAD_REACTORS
330
30C
102
}
330
30C
100
TcOptionalData
 70
     2
 70
    32
 40
3.0
  0
TCOPTIONALDATA
  5
315
102
{ACAD_REACTORS
330
314
102
}
330
314
100
TcOptionalData
 70
     2
 70
    32
 40
3.0
  0
TCOPTIONALDATA
  5
31B
102
{ACAD_REACTORS
330
31A
102
}
330
31A
100
TcOptionalData
 70
     2
 70
    16
  1
Arial
 70
     2
  0
TCOPTIONALDATA
  5
31E
102
{ACAD_REACTORS
330
31D
102
}
330
31D
100
TcOptionalData
 70
     2
 70
    16
  1
Arial
 70
     2
  0
LAYOUT
  5
1E
102
{ACAD_REACTORS
330
1A
102
}
330
1A
100
AcDbPlotSettings
  1

  2
TCAD_Plot
  4
6.50 x 1.74 Inches
  6

 40
0.0
 41
0.0
 42
0.0
 43
0.0
 44
164.9987225568639
 45
44.28817783955661
 46
0.0
 47
0.0
 48
0.0
 49
0.0
140
0.0
141
0.0
142
1.0
143
1.0
 70
   672
 72
     0
 73
     0
 74
     5
  7

 75
    16
 76
     0
 77
     2
 78
   300
147
1.0
148
0.0
149
0.0
100
AcDbLayout
  1
_Paper_Space
 70
     1
 71
     1
 10
0.0
 20
0.0
 11
0.0
 21
0.0
 12
0.0
 22
0.0
 32
0.0
 14
0.0
 24
0.0
 34
0.0
 15
0.0
 25
0.0
 35
0.0
146
0.0
 13
0.0
 23
0.0
 33
0.0
 16
1.0
 26
0.0
 36
0.0
 17
0.0
 27
1.0
 37
0.0
 76
     0
330
1B
331
32D
  0
LAYOUT
  5
22
102
{ACAD_REACTORS
330
1A
102
}
330
1A
100
AcDbPlotSettings
  1

  2
TCAD_Plot
  4
6.50 x 1.74 Inches
  6

 40
0.0
 41
0.0
 42
0.0
 43
0.0
 44
164.9987225568639
 45
44.28817783955661
 46
0.0
 47
0.0
 48
-3.248006349544564
 49
-0.8718145244007225
140
3.248006349544566
141
0.8718145244007189
142
1.0
143
1.0
 70
  1696
 72
     0
 73
     0
 74
     4
  7

 75
     0
 76
     0
 77
     2
 78
   300
147
0.4543782723237625
148
82.49936127843192
149
22.14408891977835
100
AcDbLayout
  1
Model
 70
     1
 71
     0
 10
-11.87199665304799
 20
16.54560875679992
 11
-5.37598395395886
 21
18.28923780560136
 12
0.0
 22
0.0
 32
0.0
 14
-6.652965023824594
 24
16.54560875679992
 34
0.0
 15
-5.439837359684565
 25
17.98053111536389
 35
0.0
146
0.0
 13
0.0
 23
0.0
 33
0.0
 16
1.0
 26
0.0
 36
0.0
 17
0.0
 27
1.0
 37
0.0
 76
     0
330
1F
331
29
  0
MATERIAL
  5
3D
102
{ACAD_REACTORS
330
3B
102
}
330
3B
100
AcDbMaterial
  1
ByBlock
 72
     1
 94
      127
  0
MATERIAL
  5
3C
102
{ACAD_REACTORS
330
3B
102
}
330
3B
100
AcDbMaterial
  1
ByLayer
 72
     1
 94
      127
  0
MATERIAL
  5
3E
102
{ACAD_REACTORS
330
3B
102
}
330
3B
100
AcDbMaterial
  1
Global
 72
     1
 94
      127
  0
MLEADERSTYLE
  5
184
102
{ACAD_REACTORS
330
183
102
}
330
183
100
AcDbMLeaderStyle
179
     2
170
     2
171
     1
172
     0
 90
        2
 40
0.0
 41
0.0
173
     1
 91
-1056964608
340
14
 92
       -2
290
     1
 42
0.09
291
     1
 43
0.36
  3

341
0
 44
0.18
300

342
11
174
     1
178
     6
175
     1
176
     0
 93
-1056964608
 45
0.18
292
     0
297
     0
 46
0.18
343
0
 94
-1056964608
 47
1.0
 49
1.0
140
1.0
293
     1
141
0.0
294
     1
177
     0
142
1.0
295
     0
296
     0
143
0.125
271
     0
272
     9
273
     9
1001
ACAD_MLEADERVER
1070
     2
  0
MLINESTYLE
  5
18
102
{ACAD_REACTORS
330
17
102
}
330
17
100
AcDbMlineStyle
  2
Standard
 70
     0
  3

 62
     0
 51
90.0
 52
90.0
 71
     2
 49
0.5
 62
   256
  6
BYLAYER
 49
-0.5
 62
   256
  6
BYLAYER
  0
ACDBPLACEHOLDER
  5
F
102
{ACAD_REACTORS
330
E
102
}
330
E
  0
TABLESTYLE
  5
193
102
{ACAD_REACTORS
330
192
102
}
102
{ACAD_XDICTIONARY
360
32F
102
}
330
192
100
AcDbTableStyle
  3

 70
     0
 71
     0
 40
0.06
 41
0.06
280
     0
281
     0
  7
Standard
140
0.18
170
     2
 62
     0
 63
   257
283
     0
 90
        4
 91
        0
  1

274
    -2
284
     1
 64
     0
275
    -2
285
     1
 65
     0
276
    -2
286
     1
 66
     0
277
    -2
287
     1
 67
     0
278
    -2
288
     1
 68
     0
279
    -2
289
     1
 69
     0
  7
Standard
140
0.25
170
     5
 62
     0
 63
   257
283
     0
 90
        4
 91
        0
  1

274
    -2
284
     1
 64
     0
275
    -2
285
     1
 65
     0
276
    -2
286
     1
 66
     0
277
    -2
287
     1
 67
     0
278
    -2
288
     1
 68
     0
279
    -2
289
     1
 69
     0
  7
Standard
140
0.18
170
     5
 62
     0
 63
   257
283
     0
 90
        4
 91
        0
  1

274
    -2
284
     1
 64
     0
275
    -2
285
     1
 65
     0
276
    -2
286
     1
 66
     0
277
    -2
287
     1
 67
     0
278
    -2
288
     1
 68
     0
279
    -2
289
     1
 69
     0
  0
VISUALSTYLE
  5
2F
102
{ACAD_REACTORS
330
2A
102
}
330
2A
100
AcDbVisualStyle
  2
2dWireframe
 70
     4
177
     2
291
     0
 71
     0
176
     1
 72
     2
176
     1
 73
     0
176
     1
 90
        0
176
     1
 40
-0.6
176
     1
 41
-30.0
176
     1
 62
     5
 63
     7
421
 16777215
176
     1
 74
     1
176
     1
 91
        4
176
     1
 64
     7
176
     1
 65
   257
176
     1
 75
     1
176
     1
175
     1
176
     1
 42
1.0
176
     1
 92
        0
176
     1
 66
   257
176
     1
 43
1.0
176
     1
 76
     1
176
     1
 77
     6
176
     1
 78
     2
176
     1
 67
     7
176
     1
 79
     5
176
     1
170
     0
176
     1
171
     0
176
     1
290
     0
176
     1
 93
        1
176
     1
 44
0.0
176
     1
173
     0
176
     1
  0
VISUALSTYLE
  5
31
102
{ACAD_REACTORS
330
2A
102
}
330
2A
100
AcDbVisualStyle
  2
3D Hidden
 70
     6
177
     2
291
     0
 71
     1
176
     1
 72
     2
176
     1
 73
     2
176
     1
 90
        0
176
     1
 40
-0.6
176
     1
 41
-30.0
176
     1
 62
     5
 63
     7
421
 16777215
176
     1
 74
     2
176
     1
 91
        2
176
     1
 64
     7
176
     1
 65
   257
176
     1
 75
     2
176
     1
175
     1
176
     1
 42
40.0
176
     1
 92
        0
176
     1
 66
   257
176
     1
 43
1.0
176
     1
 76
     1
176
     1
 77
     6
176
     1
 78
     2
176
     1
 67
     7
176
     1
 79
     3
176
     1
170
     0
176
     1
171
     0
176
     1
290
     0
176
     1
 93
        1
176
     1
 44
0.0
176
     1
173
     0
176
     1
  0
VISUALSTYLE
  5
30
102
{ACAD_REACTORS
330
2A
102
}
330
2A
100
AcDbVisualStyle
  2
3dWireframe
 70
     5
177
     2
291
     0
 71
     0
176
     1
 72
     2
176
     1
 73
     0
176
     1
 90
        0
176
     1
 40
-0.6
176
     1
 41
-30.0
176
     1
 62
     5
 63
     7
421
 16777215
176
     1
 74
     1
176
     1
 91
        4
176
     1
 64
     7
176
     1
 65
   257
176
     1
 75
     1
176
     1
175
     1
176
     1
 42
1.0
176
     1
 92
        0
176
     1
 66
   257
176
     1
 43
1.0
176
     1
 76
     1
176
     1
 77
     6
176
     1
 78
     2
176
     1
 67
     7
176
     1
 79
     5
176
     1
170
     0
176
     1
171
     0
176
     1
290
     0
176
     1
 93
        1
176
     1
 44
0.0
176
     1
173
     0
176
     1
  0
VISUALSTYLE
  5
32
102
{ACAD_REACTORS
330
2A
102
}
330
2A
100
AcDbVisualStyle
  2
Basic
 70
     7
177
     2
291
     1
 71
     1
176
     1
 72
     0
176
     1
 73
     1
176
     1
 90
        0
176
     1
 40
-0.6
176
     1
 41
-30.0
176
     1
 62
     5
 63
     7
421
 16777215
176
     1
 74
     0
176
     1
 91
        4
176
     1
 64
     7
176
     1
 65
   257
176
     1
 75
     1
176
     1
175
     1
176
     1
 42
1.0
176
     1
 92
        8
176
     1
 66
     7
176
     1
 43
1.0
176
     1
 76
     1
176
     1
 77
     6
176
     1
 78
     2
176
     1
 67
     7
176
     1
 79
     5
176
     1
170
     0
176
     1
171
     0
176
     1
290
     0
176
     1
 93
        1
176
     1
 44
0.0
176
     1
173
     0
176
     1
  0
VISUALSTYLE
  5
36
102
{ACAD_REACTORS
330
2A
102
}
330
2A
100
AcDbVisualStyle
  2
Brighten
 70
    12
177
     2
291
     1
 71
     2
176
     1
 72
     2
176
     1
 73
     0
176
     1
 90
        0
176
     1
 40
-0.6
176
     1
 41
-30.0
176
     1
 62
     5
 63
     7
421
 16777215
176
     1
 74
     1
176
     1
 91
        4
176
     1
 64
     7
176
     1
 65
   257
176
     1
 75
     1
176
     1
175
     1
176
     1
 42
1.0
176
     1
 92
        8
176
     1
 66
     7
176
     1
 43
1.0
176
     1
 76
     1
176
     1
 77
     6
176
     1
 78
     2
176
     1
 67
     7
176
     1
 79
     5
176
     1
170
     0
176
     1
171
     0
176
     1
290
     0
176
     1
 93
        1
176
     1
 44
50.0
176
     1
173
     0
176
     1
  0
VISUALSTYLE
  5
3A
102
{ACAD_REACTORS
330
2A
102
}
330
2A
100
AcDbVisualStyle
  2
ColorChange
 70
    16
177
     2
291
     1
 71
     2
176
     1
 72
     2
176
     1
 73
     3
176
     1
 90
        0
176
     1
 40
-0.6
176
     1
 41
-30.0
176
     1
 62
     5
 63
     8
421
  8421504
176
     1
 74
     1
176
     1
 91
        4
176
     1
 64
     7
176
     1
 65
   257
176
     1
 75
     1
176
     1
175
     1
176
     1
 42
1.0
176
     1
 92
        8
176
     1
 66
     8
424
  8421504
176
     1
 43
1.0
176
     1
 76
     1
176
     1
 77
     6
176
     1
 78
     2
176
     1
 67
     7
176
     1
 79
     5
176
     1
170
     0
176
     1
171
     0
176
     1
290
     0
176
     1
 93
        1
176
     1
 44
0.0
176
     1
173
     0
176
     1
  0
VISUALSTYLE
  5
34
102
{ACAD_REACTORS
330
2A
102
}
330
2A
100
AcDbVisualStyle
  2
Conceptual
 70
     9
177
     2
291
     0
 71
     3
176
     1
 72
     2
176
     1
 73
     0
176
     1
 90
        0
176
     1
 40
-0.6
176
     1
 41
-30.0
176
     1
 62
     5
 63
     7
421
 16777215
176
     1
 74
     2
176
     1
 91
        2
176
     1
 64
     7
176
     1
 65
   257
176
     1
 75
     1
176
     1
175
     1
176
     1
 42
40.0
176
     1
 92
        8
176
     1
 66
     7
176
     1
 43
1.0
176
     1
 76
     1
176
     1
 77
     6
176
     1
 78
     2
176
     1
 67
     7
176
     1
 79
     3
176
     1
170
     0
176
     1
171
     0
176
     1
290
     0
176
     1
 93
        1
176
     1
 44
0.0
176
     1
173
     0
176
     1
  0
VISUALSTYLE
  5
35
102
{ACAD_REACTORS
330
2A
102
}
330
2A
100
AcDbVisualStyle
  2
Dim
 70
    11
177
     2
291
     1
 71
     2
176
     1
 72
     2
176
     1
 73
     0
176
     1
 90
        0
176
     1
 40
-0.6
176
     1
 41
-30.0
176
     1
 62
     5
 63
     7
421
 16777215
176
     1
 74
     1
176
     1
 91
        4
176
     1
 64
     7
176
     1
 65
   257
176
     1
 75
     1
176
     1
175
     1
176
     1
 42
1.0
176
     1
 92
        8
176
     1
 66
     7
176
     1
 43
1.0
176
     1
 76
     1
176
     1
 77
     6
176
     1
 78
     2
176
     1
 67
     7
176
     1
 79
     5
176
     1
170
     0
176
     1
171
     0
176
     1
290
     0
176
     1
 93
        1
176
     1
 44
-50.0
176
     1
173
     0
176
     1
  0
VISUALSTYLE
  5
39
102
{ACAD_REACTORS
330
2A
102
}
330
2A
100
AcDbVisualStyle
  2
Facepattern
 70
    15
177
     2
291
     1
 71
     2
176
     1
 72
     2
176
     1
 73
     0
176
     1
 90
        0
176
     1
 40
-0.6
176
     1
 41
-30.0
176
     1
 62
     5
 63
     7
421
 16777215
176
     1
 74
     1
176
     1
 91
        4
176
     1
 64
     7
176
     1
 65
   257
176
     1
 75
     1
176
     1
175
     1
176
     1
 42
1.0
176
     1
 92
        8
176
     1
 66
     7
176
     1
 43
1.0
176
     1
 76
     1
176
     1
 77
     6
176
     1
 78
     2
176
     1
 67
     7
176
     1
 79
     5
176
     1
170
     0
176
     1
171
     0
176
     1
290
     0
176
     1
 93
        1
176
     1
 44
0.0
176
     1
173
     0
176
     1
  0
VISUALSTYLE
  5
2B
102
{ACAD_REACTORS
330
2A
102
}
330
2A
100
AcDbVisualStyle
  2
Flat
 70
     0
177
     2
291
     1
 71
     2
176
     1
 72
     1
176
     1
 73
     1
176
     1
 90
        2
176
     1
 40
-0.6
176
     1
 41
30.0
176
     1
 62
     5
 63
     7
421
 16777215
176
     1
 74
     0
176
     1
 91
        4
176
     1
 64
     7
176
     1
 65
   257
176
     1
 75
     1
176
     1
175
     1
176
     1
 42
1.0
176
     1
 92
        8
176
     1
 66
     7
176
     1
 43
1.0
176
     1
 76
     1
176
     1
 77
     6
176
     1
 78
     2
176
     1
 67
     7
176
     1
 79
     5
176
     1
170
     0
176
     1
171
     0
176
     1
290
     0
176
     1
 93
       13
176
     1
 44
0.0
176
     1
173
     0
176
     1
  0
VISUALSTYLE
  5
2C
102
{ACAD_REACTORS
330
2A
102
}
330
2A
100
AcDbVisualStyle
  2
FlatWithEdges
 70
     1
177
     2
291
     1
 71
     2
176
     1
 72
     1
176
     1
 73
     1
176
     1
 90
        2
176
     1
 40
-0.6
176
     1
 41
30.0
176
     1
 62
     5
 63
     7
421
 16777215
176
     1
 74
     1
176
     1
 91
        4
176
     1
 64
     7
176
     1
 65
   257
176
     1
 75
     1
176
     1
175
     1
176
     1
 42
1.0
176
     1
 92
        0
176
     1
 66
   257
176
     1
 43
1.0
176
     1
 76
     1
176
     1
 77
     6
176
     1
 78
     2
176
     1
 67
     7
176
     1
 79
     5
176
     1
170
     0
176
     1
171
     0
176
     1
290
     0
176
     1
 93
       13
176
     1
 44
0.0
176
     1
173
     0
176
     1
  0
VISUALSTYLE
  5
2D
102
{ACAD_REACTORS
330
2A
102
}
330
2A
100
AcDbVisualStyle
  2
Gouraud
 70
     2
177
     2
291
     1
 71
     2
176
     1
 72
     2
176
     1
 73
     1
176
     1
 90
        2
176
     1
 40
-0.6
176
     1
 41
30.0
176
     1
 62
     5
 63
     7
421
 16777215
176
     1
 74
     0
176
     1
 91
        4
176
     1
 64
     7
176
     1
 65
   257
176
     1
 75
     1
176
     1
175
     1
176
     1
 42
1.0
176
     1
 92
        0
176
     1
 66
     7
176
     1
 43
1.0
176
     1
 76
     1
176
     1
 77
     6
176
     1
 78
     2
176
     1
 67
     7
176
     1
 79
     5
176
     1
170
     0
176
     1
171
     0
176
     1
290
     0
176
     1
 93
       13
176
     1
 44
0.0
176
     1
173
     0
176
     1
  0
VISUALSTYLE
  5
2E
102
{ACAD_REACTORS
330
2A
102
}
330
2A
100
AcDbVisualStyle
  2
GouraudWithEdges
 70
     3
177
     2
291
     1
 71
     2
176
     1
 72
     2
176
     1
 73
     1
176
     1
 90
        2
176
     1
 40
-0.6
176
     1
 41
30.0
176
     1
 62
     5
 63
     7
421
 16777215
176
     1
 74
     1
176
     1
 91
        4
176
     1
 64
     7
176
     1
 65
   257
176
     1
 75
     1
176
     1
175
     1
176
     1
 42
1.0
176
     1
 92
        0
176
     1
 66
   257
176
     1
 43
1.0
176
     1
 76
     1
176
     1
 77
     6
176
     1
 78
     2
176
     1
 67
     7
176
     1
 79
     5
176
     1
170
     0
176
     1
171
     0
176
     1
290
     0
176
     1
 93
       13
176
     1
 44
0.0
176
     1
173
     0
176
     1
  0
VISUALSTYLE
  5
38
102
{ACAD_REACTORS
330
2A
102
}
330
2A
100
AcDbVisualStyle
  2
Linepattern
 70
    14
177
     2
291
     1
 71
     2
176
     1
 72
     2
176
     1
 73
     0
176
     1
 90
        0
176
     1
 40
-0.6
176
     1
 41
-30.0
176
     1
 62
     5
 63
     7
421
 16777215
176
     1
 74
     1
176
     1
 91
        4
176
     1
 64
     7
176
     1
 65
   257
176
     1
 75
     7
176
     1
175
     7
176
     1
 42
1.0
176
     1
 92
        8
176
     1
 66
     7
176
     1
 43
1.0
176
     1
 76
     1
176
     1
 77
     6
176
     1
 78
     2
176
     1
 67
     7
176
     1
 79
     5
176
     1
170
     0
176
     1
171
     0
176
     1
290
     0
176
     1
 93
        1
176
     1
 44
0.0
176
     1
173
     0
176
     1
  0
VISUALSTYLE
  5
33
102
{ACAD_REACTORS
330
2A
102
}
330
2A
100
AcDbVisualStyle
  2
Realistic
 70
     8
177
     2
291
     0
 71
     2
176
     1
 72
     2
176
     1
 73
     0
176
     1
 90
        0
176
     1
 40
-0.6
176
     1
 41
-30.0
176
     1
 62
     5
 63
     7
421
 16777215
176
     1
 74
     1
176
     1
 91
        0
176
     1
 64
     7
176
     1
 65
   257
176
     1
 75
     1
176
     1
175
     1
176
     1
 42
1.0
176
     1
 92
        8
176
     1
 66
     8
424
  7895160
176
     1
 43
1.0
176
     1
 76
     1
176
     1
 77
     6
176
     1
 78
     2
176
     1
 67
     7
176
     1
 79
     5
176
     1
170
     0
176
     1
171
     0
176
     1
290
     0
176
     1
 93
       13
176
     1
 44
0.0
176
     1
173
     0
176
     1
  0
VISUALSTYLE
  5
37
102
{ACAD_REACTORS
330
2A
102
}
330
2A
100
AcDbVisualStyle
  2
Thicken
 70
    13
177
     2
291
     1
 71
     2
176
     1
 72
     2
176
     1
 73
     0
176
     1
 90
        0
176
     1
 40
-0.6
176
     1
 41
-30.0
176
     1
 62
     5
 63
     7
421
 16777215
176
     1
 74
     1
176
     1
 91
        4
176
     1
 64
     7
176
     1
 65
   257
176
     1
 75
     1
176
     1
175
     1
176
     1
 42
1.0
176
     1
 92
       12
176
     1
 66
     7
176
     1
 43
1.0
176
     1
 76
     1
176
     1
 77
     6
176
     1
 78
     2
176
     1
 67
     7
176
     1
 79
     5
176
     1
170
     0
176
     1
171
     0
176
     1
290
     0
176
     1
 93
        1
176
     1
 44
0.0
176
     1
173
     0
176
     1
  0
DICTIONARYVAR
  5
333
102
{ACAD_REACTORS
330
332
102
}
330
332
100
DictionaryVariables
280
     0
  1
0
  0
DICTIONARY
  5
32F
330
193
100
AcDbDictionary
280
     1
281
     1
  3
ACAD_ROUNDTRIP_2008_TABLESTYLE_CELLSTYLEMAP
360
330
  0
CELLSTYLEMAP
  5
330
102
{ACAD_REACTORS
330
32F
102
}
330
32F
100
AcDbCellStyleMap
 90
        3
300
CELLSTYLE
  1
TABLEFORMAT_BEGIN
 90
        5
170
     1
 91
        0
 92
        0
 62
   257
 93
        1
300
CONTENTFORMAT
  1
CONTENTFORMAT_BEGIN
 90
        0
 91
        0
 92
        4
 93
        0
300

 40
0.0
140
1.0
 94
        5
 62
     0
340
11
144
0.25
309
CONTENTFORMAT_END
171
     0
 94
        6
 95
        1
302
GRIDFORMAT
  1
GRIDFORMAT_BEGIN
 90
        0
 91
        1
 62
     0
 92
       -2
340
0
 93
        0
 40
0.045
309
GRIDFORMAT_END
 95
        2
302
GRIDFORMAT
  1
GRIDFORMAT_BEGIN
 90
        0
 91
        1
 62
     0
 92
       -2
340
0
 93
        0
 40
0.045
309
GRIDFORMAT_END
 95
        4
302
GRIDFORMAT
  1
GRIDFORMAT_BEGIN
 90
        0
 91
        1
 62
     0
 92
       -2
340
0
 93
        0
 40
0.045
309
GRIDFORMAT_END
 95
        8
302
GRIDFORMAT
  1
GRIDFORMAT_BEGIN
 90
        0
 91
        1
 62
     0
 92
       -2
340
0
 93
        0
 40
0.045
309
GRIDFORMAT_END
 95
       16
302
GRIDFORMAT
  1
GRIDFORMAT_BEGIN
 90
        0
 91
        1
 62
     0
 92
       -2
340
0
 93
        0
 40
0.045
309
GRIDFORMAT_END
 95
       32
302
GRIDFORMAT
  1
GRIDFORMAT_BEGIN
 90
        0
 91
        1
 62
     0
 92
       -2
340
0
 93
        0
 40
0.045
309
GRIDFORMAT_END
309
TABLEFORMAT_END
  1
CELLSTYLE_BEGIN
 90
        1
 91
        1
300
_TITLE
309
CELLSTYLE_END
300
CELLSTYLE
  1
TABLEFORMAT_BEGIN
 90
        5
170
     1
 91
        0
 92
        0
 62
   257
 93
        1
300
CONTENTFORMAT
  1
CONTENTFORMAT_BEGIN
 90
        0
 91
        0
 92
        4
 93
        0
300

 40
0.0
140
1.0
 94
        5
 62
     0
340
11
144
0.18
309
CONTENTFORMAT_END
171
     0
 94
        6
 95
        1
302
GRIDFORMAT
  1
GRIDFORMAT_BEGIN
 90
        0
 91
        1
 62
     0
 92
       -2
340
0
 93
        0
 40
0.045
309
GRIDFORMAT_END
 95
        2
302
GRIDFORMAT
  1
GRIDFORMAT_BEGIN
 90
        0
 91
        1
 62
     0
 92
       -2
340
0
 93
        0
 40
0.045
309
GRIDFORMAT_END
 95
        4
302
GRIDFORMAT
  1
GRIDFORMAT_BEGIN
 90
        0
 91
        1
 62
     0
 92
       -2
340
0
 93
        0
 40
0.045
309
GRIDFORMAT_END
 95
        8
302
GRIDFORMAT
  1
GRIDFORMAT_BEGIN
 90
        0
 91
        1
 62
     0
 92
       -2
340
0
 93
        0
 40
0.045
309
GRIDFORMAT_END
 95
       16
302
GRIDFORMAT
  1
GRIDFORMAT_BEGIN
 90
        0
 91
        1
 62
     0
 92
       -2
340
0
 93
        0
 40
0.045
309
GRIDFORMAT_END
 95
       32
302
GRIDFORMAT
  1
GRIDFORMAT_BEGIN
 90
        0
 91
        1
 62
     0
 92
       -2
340
0
 93
        0
 40
0.045
309
GRIDFORMAT_END
309
TABLEFORMAT_END
  1
CELLSTYLE_BEGIN
 90
        2
 91
        1
300
_HEADER
309
CELLSTYLE_END
300
CELLSTYLE
  1
TABLEFORMAT_BEGIN
 90
        5
170
     1
 91
        0
 92
        0
 62
   257
 93
        1
300
CONTENTFORMAT
  1
CONTENTFORMAT_BEGIN
 90
        0
 91
        0
 92
        4
 93
        0
300

 40
0.0
140
1.0
 94
        2
 62
     0
340
11
144
0.18
309
CONTENTFORMAT_END
171
     0
 94
        6
 95
        1
302
GRIDFORMAT
  1
GRIDFORMAT_BEGIN
 90
        0
 91
        1
 62
     0
 92
       -2
340
0
 93
        0
 40
0.045
309
GRIDFORMAT_END
 95
        2
302
GRIDFORMAT
  1
GRIDFORMAT_BEGIN
 90
        0
 91
        1
 62
     0
 92
       -2
340
0
 93
        0
 40
0.045
309
GRIDFORMAT_END
 95
        4
302
GRIDFORMAT
  1
GRIDFORMAT_BEGIN
 90
        0
 91
        1
 62
     0
 92
       -2
340
0
 93
        0
 40
0.045
309
GRIDFORMAT_END
 95
        8
302
GRIDFORMAT
  1
GRIDFORMAT_BEGIN
 90
        0
 91
        1
 62
     0
 92
       -2
340
0
 93
        0
 40
0.045
309
GRIDFORMAT_END
 95
       16
302
GRIDFORMAT
  1
GRIDFORMAT_BEGIN
 90
        0
 91
        1
 62
     0
 92
       -2
340
0
 93
        0
 40
0.045
309
GRIDFORMAT_END
 95
       32
302
GRIDFORMAT
  1
GRIDFORMAT_BEGIN
 90
        0
 91
        1
 62
     0
 92
       -2
340
0
 93
        0
 40
0.045
309
GRIDFORMAT_END
309
TABLEFORMAT_END
  1
CELLSTYLE_BEGIN
 90
        3
 91
        2
300
_DATA
309
CELLSTYLE_END
  0
ENDSEC
  0
SECTION
  2
THUMBNAILIMAGE
 90
    16364
310
28000000B40000005500000001000800000000000000000000000000000000000000000000000000FFFFFF000000FF0000FFFF0000FF0000FFFF0000FF000000FF00FF000000000080808000C0C0C0000000FF007F7FFF000000A5005252A50000007F003F3F7F0000004C0026264C000000260013132600003FFF007F9FFF
310
000029A5005267A500001F7F003F4F7F0000134C00262F4C000009260013172600007FFF007FBFFF000052A500527CA500003F7F003F5F7F0000264C0026394C0000132600131C260000BFFF007FDFFF00007CA5005291A500005F7F003F6F7F0000394C0026424C00001C26001321260000FFFF007FFFFF0000A5A50052A5
310
A500007F7F003F7F7F00004C4C00264C4C00002626001326260000FFBF007FFFDF0000A57C0052A59100007F5F003F7F6F00004C3900264C420000261C001326210000FF7F007FFFBF0000A5520052A57C00007F3F003F7F5F00004C2600264C39000026130013261C0000FF3F007FFF9F0000A5290052A56700007F1F003F
310
7F4F00004C1300264C2F00002609001326170000FF00007FFF7F0000A5000052A55200007F00003F7F3F00004C0000264C260000260000132613003FFF00009FFF7F0029A5000067A552001F7F00004F7F3F00134C00002F4C260009260000172613007FFF0000BFFF7F0052A500007CA552003F7F00005F7F3F00264C0000
310
394C2600132600001C261300BFFF0000DFFF7F007CA5000091A552005F7F00006F7F3F00394C0000424C26001C26000021261300FFFF0000FFFF7F00A5A50000A5A552007F7F00007F7F3F004C4C00004C4C26002626000026261300FFBF0000FFDF7F00A57C0000A59152007F5F00007F6F3F004C3900004C422600261C00
310
0026211300FF7F0000FFBF7F00A5520000A57C52007F3F00007F5F3F004C2600004C39260026130000261C1300FF3F0000FF9F7F00A5290000A56752007F1F00007F4F3F004C1300004C2F26002609000026171300FF000000FF7F7F00A5000000A55252007F0000007F3F3F004C0000004C2626002600000026131300FF00
310
3F00FF7F9F00A5002900A55267007F001F007F3F4F004C0013004C262F002600090026131700FF007F00FF7FBF00A5005200A5527C007F003F007F3F5F004C0026004C2639002600130026131C00FF00BF00FF7FDF00A5007C00A55291007F005F007F3F6F004C0039004C26420026001C0026132100FF00FF00FF7FFF00A5
310
00A500A552A5007F007F007F3F7F004C004C004C264C002600260026132600BF00FF00DF7FFF007C00A5009152A5005F007F006F3F7F0039004C0042264C001C002600211326007F00FF00BF7FFF005200A5007C52A5003F007F005F3F7F0026004C0039264C00130026001C1326003F00FF009F7FFF002900A5006752A500
310
1F007F004F3F7F0013004C002F264C000900260017132600000000002D2D2D005B5B5B0089898900B7B7B700B3B3B30000000000000000000000000000000000000000000000000000000000000000000000000000000000000000000000000000000000000000000000000000000000000000000000000000000000000000
310
00000000000000000000000000000000000000000000000000000000000000000000000000000000000000000000000000000000000000000000000000000000000000000000000000000000000000000000000000000000000000000000000000000000000000000000000000000000000000000000000000000000000000
310
00000000000000000000000000000000000000000000000000000000000000000000000000000000000000000000000000000000000000000000000000000000000000000000000000000000000000000000000000000000000000000000000000000000000000000000000000000000000000000000000000000000000000
310
00000000000000000000000000000000000000000000000000000000000000000000000000000000000000000000000000000000000000000000000000000000000000000000000000000000000000000000000000000000000000000000000000000000000000000000000000000000000000000000000000000000000000
310
00000000000000000000000000000000000000000000000000000000000000000000000000000000000000000000000000000000000000000000000000000000000000000000000000000000000000000000000000000000000000000000000000000000000000000000000000000000000000000000000000000000000000
310
00000000000000000000000000000000000000000000000000000000000000000000000000000000000000000000000000000000000000000000000000000000000000000000000000000000000000000000000000000000000000000000000000000000000000000000000000000000000000000000000000000000000000
310
00000000000000000000000000000000000000000000000000000000000000000000000000000000000000000000000000000000000000000000000000000000000000000000000000000000000000000000000000000000000000000000000000000000000000000000000000000000000000000000000000000000000000
310
00000000000000000000000000000000000000000000000000000000000000000000000000000000000000000000000000000000000000000000000000000000000000000000000000000000000000000000000000000000000000000000000000000000000000000000000000000000000000000000000000000000000000
310
00000000000000000000000000000000000000000000000000000000000000000000000000000000000000000000000000000000000000000000000000000000000000000000000000000000000000000000000000000000000000000000000000000000000000000000000000000000000000000000000000000000000000
310
00000000000000000000000000000000000000000000000000000000000000000000000000000000000000000000000000000000000000000000000000000000000000000000000000000000000000000000000000000000000000000000000000000000000000000000000000000000000000000000000000000000000000
310
00000000000000000000000000000000000000000000000000000000000000000000000000000000000000000000000000000000000000000000000000000000000000000000000000000000000000000000000000000000000000000000000000000000000000000000000000000000000000000000000000000000000000
310
00000000000000000000000000000000000000000000000000000000000000000000000000000000000000000000000000000000000000000000000000000000000000000000000000000000000000000000000000000000000000000000000000000000000000000000000000000000000000000000000000000000000000
310
00000000000000000000000000000000000000000000000000000000000000000000000000000000000000000000000000000000000000000000000000000000000000000000000000000000000000000000000000000000000000000000000000000000000000000000000000000000000000000000000000000000000000
310
00000000000000000000000000000000000000000000000000000000000000000000000000000000000000000000000000000000000000000000000000000000000000000000000000000000000000000000000000000000000000000000000000000000000000000000000000000000000000000000000000000000000000
310
00000000000000000000000000000000000000000000000000000000000000000000000000000000000000000000000000000000000000000000000000000000000000000000000000000000000000000000000000000000000000000000000000000000000000000000000000000000000000000000000000000000000000
310
00000000000000000000000000000000000000000000000000000000000000000000000000000000000000000000000000000000000000000000000000000000000000000000000000000000000000000000000000000000000000000000000000000000000000000000000000000000000000000000000000000000000000
310
00000000000000000000000000000000000000000000000000000000000000000000000000000000000000000000000000000000000000000000000000000000000000000000000000000000000000000000000000000000000000000000000000000000000000000000000000000000000000000000000000000000000000
310
00000000000000000000000000000000000000000000000000000000000000000000000000000000000000000000000000000000000000000000000000000000000000000000000000000000000000000000000000000000000000000000000000000000000000000000000000000000000000000000000000000000000000
310
00000000000000000000000000000000000000000000000000000000000000000000000000000000000000000000000000000000000000000000000000000000000000000000000000000000000000000000000000000000000000000000000000000000000000000000000000000000000000000000000000000000000000
310
00000000000000000000000000000000000000000000000000000000000000000000000000000000000000000000000000000000000000000000000000000000000000000000000000000000000000000000000000000000000000000000000000000000000000000000000000000000000000000000000000000000000000
310
00000000000000000000000000000000000000000000000000000000000000000000000000000000000000000000000000000000000000000000000000000000000000000000000000000000000000000000000000000000000000000000000000000000000000000000000000000000000000000000000000000000000000
310
00000000000000000000000000000000000000000000000000000000000000000000000000000000000000000000000000000000000000000000000000000000000000000000000000000000000000000000000000000000000000000000000000000000000000000000000000000000000000000000000000000000000000
310
00000000000000000000000000000000000000000000000000000000000000000000000000000000000000000000000000000000000000000000000000000000000000000000000000000000000000000000000000000000000000000000000000000000000000000000000000000000000000000000000000000000000000
310
00000000000000000000000000000000000000000000000000000000000000000000000000000000000000000000000000000000000000000000000000000000000000000000000000000000000000000000000000000000000000000000000000000000000000000000000000000000000000000000000000000000000000
310
00000000000000000000000000000000000000000000000000000000000000000000000000000000000000000000000000000000000000000000000000000000000000000000000000000000000000000000000000000000000000000000000000000000000000000000000000000000000000000000000000000000000000
310
00000000000000000000000000000000000000000000000000000000000000000000000000000000000000000000000000000000000000000000000000000000000000000000000000000000000000000000000000000000000000000000000000000000000000000000000000000000000000000000000000000000000000
310
00000000000000000000000000000000000000000000000000000000000000000000000000000000000000000000000000000000000000000000000000000000000000000000000000000000000000000000000000000000000000000000000000000000000000000000000000000000000000000000000000000000000000
310
00000000000000000000000000000000000000000000000000000000000000000000000000000000000000000000000000000000000000000000000000000000000000000000000000000000000000000000000000000000000000000000000000000000000000000000000000000000000000000000000000000000000000
310
00000000000000000000000000000000000000000000000000000000000000000000000000000000000000000000000000000000000000000000000000000000000000000000000000000000000000000000000000000000000000000000000000000000000000000000000000000000000000000000000000000000000000
310
00000000000000000000000000000000000000000000000000000000000000000000000000000000000000000000000000000000000000000000000000000000000000000000000000000000000000000000000000000000000000000000000000000000000000000000000000000000000000000000000000000000000000
310
00000000000000000000000000000000000000000000000000000000000000000000000000000000000000000000000000000000000000000000000000000000000000000000000000000000000000000000000000000000000000000000000000000000000000000000000000000000000000000000000000000000000000
310
00000000000000000000000000000000000000000000000000000000000000000000000000000000000000000000000000000000000000000000000000000000000000000000000000000000000000000000000000000000000000000000000000000000000000000000000000000000000000000000000000000000000000
310
00000000000000000000000000000000000000000000000000000000000000000000000000000000000000000000000000000000000000000000000000000000000000000000000000000000000000000000000000000000000000000000000000000000000000000000000000000000000000000000000000000000000000
310
00000000000000000000000000000000000000000000000000000000000000000000000000000000000000000000000000000000000000000000000000000000000000000000000000000000000000000000000000000000000000000000000000000000000000000000000000000000000000000000000000000000000000
310
00000000000000000000000000000000000000000000000000000000000000000000000000000000000000000000000000000000000000000000000000000000000000000000000000000000000000000000000000000000000000000000000000000000000000000000000000000000000000000000000000000000000000
310
00000000000000000000000000000000000000000000000000000000000000000000000000000000000000000000000000000000000000000000000000000000000000000000000000000000000000000000000000000000000000000000000000000000000000000000000000000000000000000000000000000000000000
310
00000000000000000000000000000000000000000000000000000000000000000000000000000000000000000000000000000000000000000000000000000000000000000000000000000000000000000000000000000000000000000000000000000000000000000000000000000000000000000000000000000000000000
310
00000000000000000000000000000000000000000000000000000000000000000000000000000000000000000000000000000000000000000000000000000000000000000000000000000000000000000000000000000000000000000000000000000000000000000000000000000000000000000000000000000000000000
310
00000000000000000000000000000000000000000000000000000000000000000000000000000000000000000000000000000000000000000000000000000000000000000000000000000000000000000000000000000000000000000000000000000000000000000000000000000000000000000000000000000000000000
310
00000000000000000000000000000000000000000000000000000000000000000000000000000000000000000000000000000000000000000000000000000000000000000000000000000000000000000000000000000000000000000000000000000000000000000000000000000000000000000000000000000000000000
310
00000000000000000000000000000000000000000000000000000000000000000000000000000000000000000000000000000000000000000000000000000000000000000000000000000000000000000000000000000000000000000000000000000000000000000000000000000000000000000000000000000000000000
310
00000000000000000000000000000000000000000000000000000000000000000000000000000000000000000000000000000000000000000000000000000000000000000000000000000000000000000000000000000000000000000000000000000000000000000000000000000000000000000000000000000000000000
310
00000000000000000000000000000000000000000000000000000000000000000000000000000000000000000000000000000000000000000000000000000000000000000000000000000000000000000000000000000000000000000000000000000000000000000000000000000000000000000000000000000000000000
310
00000000000000000000000000000000000000000000000000000000000000000000000000000000000000000000000000000000000000000000000000000000000000000000000000000000000000000000000000000000000000000000000000000000000000000000000000000000000000000000000000000000000000
310
00000000000000000000000000000000000000000000000000000000000000000000000000000000000000000000000000000000000000000000000000000000000000000000000000000000000000000000000000000000000000000000000000000000000000000000000000000000000000000000000000000000000000
310
00000000000000000000000000000000000000000000000000000000000000000000000000000000000000000000000000000000000000000000000000000000000000000000000000000000000000000000000000000000000000000000000000000000000000000000000000000000000000000000000000000000000000
310
00000000000000000000000000000000000000000000000000000000000000000000000000000000000000000000000000000000000000000000000000000000000000000000000000000000000000000000000000000000000000000000000000000000000000000000000000000000000000000000000000000000000000
310
00000000000000000000000000000000000000000000000000000000000000000000000000000000000000000000000000000000000000000000000000000000000000000000000000000000000000000000000000000000000000000000000000000000070700070707070707000000000000000000000000000000000000
310
00000000000000000000000000000000000000000000000000000000000000000000000000000000000000000000000000000000000000000000000000000000000000000000000000000000000000000000000000000000000000000000000000000000000000000000000000000000000000000000000000000000000000
310
00000000000000000000000000000000000000000000000000000707000707070707070000000000000000000000000000000000000000000000000000000000000000000000000000000000000000000000000000000000000000000000000000000000000000000000000000000000000000000000000000000000000000
310
00000000000000000000000000000000000000000000000000000000000000000000000000000000000000000000000000000000000000000000000000000000000000000000000000000000000000000000000000000000000000000000000000000000000000000000000000000000000000000000000000000000000000
310
00000000000000000000000000000000000000000000000000000000000000000000000000000000000000000000000000000000000000000000000000000000000000000000000000000000000000000000000000000000000000000000000000000000000000000000000000000000000000000000000000000000000000
310
00000000000707070707070707070000000000000000000000000000000000000000000000000000000000000000000000000000000000000000000000000000000000000000000000000000000000000000000000000000000000000000000000000000000000000000000000000000000000000000000000000000000000
310
00000000000000000000000000000000000000000000000000000000000000000000000000000000000000000000000000000000000000000000070707070707070707000000000000000000000000000000000000000000000000000000000000000000000000000000000000000000000000000000000000000000000000
310
00000000000000000000000000000000000000000000000000000000000000000000000000000000000000000000000000000000000000000000000000000000000000000000000000000000000000000000000000000000000000000000000000000000000000000000000000000007070707070007000000000000000000
310
00000000000000000000000000000000000000000000000000000000000000000000000000000000000000000000000000000000000000000000000000000000000000000000000000000000000000000000000000000000000000000000000000000000000000000000000000000000000000000000000000000000000000
310
00000000000000000000000000000000000000000000000000000000000000000000000000070700070707070707070707070000000000000000000000000000000000000000000000000000000000000000000000000000000000000000000000000000000000000000000000000000000000000000000000000000000000
310
00000000000000000000000000000000000000000000000000000000000000000000000000000000000000000000000000000000000000000000000000000000000000000000000000000000000000000000000000000000000007070007070707070707070707000000000000000000000000000000000000000000000000
310
00000000000000000000000000000000000000000000000000000000000000000000000000000000000000000000000000000000000000000000000000000000000000000000000000000000000000000000000000000000000000000000000000000000000000000000000000000000000000000000000000000000000000
310
00000000000000000000000000000000070707070707070707070707070707070707070700000000000000000000000000000000000000000000000000000000000000000000000000000000000000000000000000000000000000000000000000000000000000000000000000000000000000000000000000000000000000
310
00000000000000000000000000000000000000000000000000000000000000000000000000000000000000000000000000000000000000000000000000000000000000000007000000000000000000000000070007070707070000000000000000000000000000000000000000000000000000000000000000000000000000
310
00000000000000000000000000000000000000000000000000000000000000000000000000000000000000000000000000000000000000000000000000000000000000000000000000000000000000000000000000000000000000000000000000000000000000000000000000000000000000000000000000000700000707
310
07070000070007000707070707070700000000000000000000000000000000000000000000000000000000000000000000000000000000000000000000000000000000000000000000000000000000000000000000000000000000000000000000000000000000000000000000000000000000000000000000000000000000
310
00000000000000000000000000000000000000000000000000000000000000000000000000000000000000000000000007000707070707070707070707070007070707070000000000000000000000000000000000000000000000000000000000000000000000000000000000000000000000000000000000000000000000
310
00000000000000000000000000000000000000000000000000000000000000000000000000000000000000000000000000000000000000000000000000000000000000000000000000000000000000000000000000000000000000000000000000000000000700070707070707070707070007070707070707000000000000
310
00000000000000000000000000000000000000000000000000000000000000000000000000000000000000000000000000000000000000000000000000000000000000000000000000000000000000000000000000000000000000000000000000000000000000000000000000000000000000000000000000000000000000
310
00000000000000000000000000000000000000000000000000000007000707070707000707070700070707070707070000000000000000000000000000000000000000000000000000000000000000000000000000000000000000000000000000000000000000000000000000000000000000000000000000000000000000
310
00000000000000000000000000000000000000000000000000000000000000000000000000000000000000000000000000000000000000000000000000000000000000000000000000000000000000000700000000000000000000000007000707070707000000000000000000000000000000000000000000000000000000
310
00000000000000000000000000000000000000000000000000000000000000000000000000000000000000000000000000000000000000000000000000000000000000000000000000000000000000000000000000000000000000000000000000000000000000000000000000000000000000000000000000000000000000
310
00000000000007070707070707070707070707070707070707070000000000000000000000000000000000000000000000000000000000000000000000000000000000000000000000000000000000000000000000000000000000000000000000000000000000000000000000000000000000000000000000000000000000
310
00000000000000000000000000000000000000000000000000000000000000000000000000000000000000000000000000000000000000000000000707070707070707070707070700000000000000000000000000000000000000000000000000000000000000000000000000000000000000000000000000000000000000
310
00000000000000000000000000000000000000000000000000000000000000000000000000000000000000000000000000000000000000000000000000000000000000000000000000000000000000000000000000000000000000000000000000000000000000000000000000000000070707070707070707070707070000
310
00000000000000000000000000000000000000000000000000000000000000000000000000000000000000000000000000000000000000000000000000000000000000000000000000000000000000000000000000000000000000000000000000000000000000000000000000000000000000000000000000000000000000
310
00000000000000000000000000000000000000000000000000000000000000000000000000000000000000000000000000000000000000000000000000000000000000000000000000000000000000000000000000000000000000000000000000000000000000000000000000000000000000000000000000000000000000
310
00000000000000000000000000000000000000000000000000000000000000000000000000000000000000000000000000000000000000000000000000000000000000000000000000000000000000000000000000000000000000000707070707070707070707070700000000000000000000000000000000000000000000
310
00000000000000000000000000000000000000000000000000000000000000000000000000000000000000000000000000000000000000000000000000000000000000000000000000000000000000000000000000000000000000000000000000000000000000000000000000000000000000000000000000000000000000
310
00000000000000000000000000000000000007070707070707070707070700000000000000000000000000000000000000000000000000000000000000000000000000000000000000000000000000000000000000000000000000000000000000000000000000000000000000000000000000000000000000000000000000
310
00000000000000000000000000000000000000000000000000000000000000000000000000000000000000000000000000000000000000000000000000000000000000000000070707070707070707070707070000000000000000000000000000000000000000000000000000000000000000000000000000000000000000
310
00000000000000000000000000000000000000000000000000000000000000000000000000000000000000000000000000000000000000000000000000000000000000000000000000000000000000000000000000000000000000000000000000000000000000000000000000000000000000000000000000000007070700
310
00000700000007070000000000000000000000000000000000000000000000000000000000000000000000000000000000000000000000000000000000000000000000000000000000000000000000000000000000000000000000000000000000000000000000000000000000000000000000000000000000000000000000
310
00000000000000000000000000000000000000000000000000000000000000000000000000000000000000000000000000000000000000000000000000000000000000000000000000000000000000000000000000000000000000000000000000000000000000000000000000000000000000000000000000000000000000
310
00000000000000000000000000000000000000000000000000000000000000000000000000000000000000000000000000000000000000000000000000000000000000000000000000000000000000000000000000000000000000000000000000000000000000000000000000000000000000000000000000000000000000
310
00000000000000000000000000000000000000000000000000000000000000000000000000000000000000000000000000000000000000000000000000000000000000000000000000000000000000000000000000000000000000000000000000000000000000000000000000000000000000000000000000000000000000
310
00000000000000000000000000000000000000000000000000000000000000000000000000000000000000000000000000000000000000000000000000000000000000000000000000000000000000000000000000000000000000000000000000000000000000000000000000000000000000000000000000000000000000
310
00000000000000000000000000000000000000000000000000000000000000000000000000000000000000000000000000000000000000000000000000000000000000000000000000000000000000000000000000000000000000000000000000000000000000000000000000000000000000000000000000000000000000
310
00000000000000000000000000000000000000000000000000000000000000000000000000000000000000000000000000000000000000000000000000000000000000000000000000000000000000000000000000000000000000000000000000000000000000000000000000000000000000000000000000000000000000
310
00000000000000000000000000000000000000000000000000000000000000000000000000000000000000000000000000000000000000000000000000000000000000000000000000000000000000000000000000000000000000000000000000000000000000000000000000000000000000000000000000000000000000
310
00000000000000000000000000000000000000000000000000000000000000000000000000000000000000000000000000000000000000000000000000000000000000000000000000000000000000000000000000000000000000000000000000000000000000000000000000000000000000000000000000000000000000
310
00000000000000000000000000000000000000000000000000000000000000000000000000000000000000000000000000000000000000000000000000000000000000000000000000000000000000000000000000000000000000000000000000000000000000000000000000000000000000000000000000000000000000
310
00000000000000000000000000000000000000000000000000000000000000000000000000000000000000000000000000000000000000000000000000000000000000000000000000000000000000000000000000000000000000000000000000000000000000000000000000000000000000000000000000000000000000
310
00000000000000000000000000000000000000000000000000000000000000000000000000000000000000000000000000000000000000000000000000000000000000000000000000000000000000000000000000000000000000000000000000000000000000000000000000000000000000000000000000000000000000
310
00000000000000000000000000000000000000000000000000000000000000000000000000000000000000000000000000000000000000000000000000000000000000000000000000000000000000000000000000000000000000000000000000000000000000000000000000000000000000000000000000000000000000
310
00000000000000000000000000000000000000000000000000000000000000000000000000000000000000000000000000000000000000000000000000000000000000000000000000000000000000000000000000000000000000000000000000000000000000000000000000000000000000000000000000000000000000
310
00000000000000000000000000000000000000000000000000000000000000000000000000000000000000000000000000000000000000000000000000000000000000000000000000000000000000000000000000000000000000000000000000000000000000000000000000000000000000000000000000000000000000
310
00000000000000000000000000000000000000000000000000000000000000000000000000000000000000000000000000000000000000000000000000000000000000000000000000000000000000000000000000000000000000000000000000000000000000000000000000000000000000000000000000000000000000
310
00000000000000000000000000000000000000000000000000000000000000000000000000000000000000000000000000000000000000000000000000000000000000000000000000000000000000000000000000000000000000000000000000000000000000000000000000000000000000000000000000000000000000
310
00000000000000000000000000000000000000000000000000000000000000000000000000000000000000000000000000000000000000000000000000000000000000000000000000000000000000000000000000000000000000000000000000000000000000000000000000000000000000000000000000000000000000
310
00000000000000000000000000000000000000000000000000000000000000000000000000000000000000000000000000000000000000000000000000000000000000000000000000000000000000000000000000000000000000000000000000000000000000000000000000000000000000000000000000000000000000
310
00000000000000000000000000000000000000000000000000000000000000000000000000000000000000000000000000000000000000000000000000000000000000000000000000000000000000000000000000000000000000000000000000000000000000000000000000000000000000000000000000000000000000
310
00000000000000000000000000000000000000000000000000000000000000000000000000000000000000000000000000000000000000000000000000000000000000000000000000000000000000000000000000000000000000000000000000000000000000000000000000000000000000000000000000000000000000
310
00000000000000000000000000000000000000000000000000000000000000000000000000000000000000000000000000000000000000000000000000000000000000000000000000000000000000000000000000000000000000000000000000000000000000000000000000000000000000000000000000000000000000
310
00000000000000000000000000000000000000000000000000000000000000000000000000000000000000000000000000000000000000000000000000000000000000000000000000000000000000000000000000000000000000000000000000000000000000000000000000000000000000000000000000000000000000
310
00000000000000000000000000000000000000000000000000000000000000000000000000000000000000000000000000000000000000000000000000000000000000000000000000000000000000000000000000000000000000000000000000000000000000000000000000000000000000000000000000000000000000
310
00000000000000000000000000000000000000000000000000000000000000000000000000000000000000000000000000000000000000000000000000000000000000000000000000000000000000000000000000000000000000000000000000000000000000000000000000000000000000000000000000000000000000
310
00000000000000000000000000000000000000000000000000000000000000000000000000000000000000000000000000000000000000000000000000000000000000000000000000000000000000000000000000000000000000000000000000000000000000000000000000000000000000000000000000000000000000
310
00000000000000000000000000000000000000000000000000000000000000000000000000000000000000000000000000000000000000000000000000000000000000000000000000000000000000000000000000000000000000000000000000000000000000000000000000000000000000000000000000000000000000
310
00000000000000000000000000000000000000000000000000000000000000000000000000000000000000000000000000000000000000000000000000000000000000000000000000000000000000000000000000000000000000000000000000000000000000000000000000000000000000000000000000000000000000
310
00000000000000000000000000000000000000000000000000000000000000000000000000000000000000000000000000000000000000000000000000000000000000000000000000000000000000000000000000000000000000000000000000000000000000000000000000000000000000000000000000000000000000
310
00000000000000000000000000000000000000000000000000000000000000000000000000000000000000000000000000000000000000000000000000000000000000000000000000000000000000000000000000000000000000000000000000000000000000000000000000000000000000000000000000000000000000
310
00000000000000000000000000000000000000000000000000000000000000000000000000000000000000000000000000000000000000000000000000000000000000000000000000000000000000000000000000000000000000000000000000000000000000000000000000000000000000000000000000000000000000
310
00000000000000000000000000000000000000000000000000000000000000000000000000000000000000000000000000000000000000000000000000000000000000000000000000000000000000000000000000000000000000000000000000000000000000000000000000000000000000000000000000000000000000
310
00000000000000000000000000000000000000000000000000000000000000000000000000000000000000000000000000000000000000000000000000000000000000000000000000000000000000000000000000000000000000000000000000000000000000000000000000000000000000000000000000000000000000
310
00000000000000000000000000000000000000000000000000000000000000000000000000000000000000000000000000000000000000000000000000000000000000000000000000000000000000000000000000000000000000000000000000000000000000000000000000000000000000000000000000000000000000
310
00000000000000000000000000000000000000000000000000000000000000000000000000000000000000000000000000000000000000000000000000000000000000000000000000000000000000000000000000000000000000000000000000000000000000000000000000000000000000000000000000000000000000
310
00000000000000000000000000000000000000000000000000000000000000000000000000000000000000000000000000000000000000000000000000000000000000000000000000000000000000000000000000000000000000000000000000000000000000000000000000000000000000000000000000000000000000
310
00000000000000000000000000000000000000000000000000000000000000000000000000000000000000000000000000000000000000000000000000000000000000000000000000000000000000000000000000000000000000000000000000000000000000000000000000000000000000000000000000000000000000
310
00000000000000000000000000000000000000000000000000000000000000000000000000000000000000000000000000000000000000000000000000000000000000000000000000000000000000000000000000000000000000000000000000000000000000000000000000000000000000000000000000000000000000
310
00000000000000000000000000000000000000000000000000000000000000000000000000000000000000000000000000000000000000000000000000000000000000000000000000000000000000000000000000000000000000000000000000000000000000000000000000000000000000000000000000000000000000
310
00000000000000000000000000000000000000000000000000000000000000000000000000000000000000000000000000000000000000000000000000000000000000000000000000000000000000000000000000000000000000000000000000000000000000000000000000000000000000000000000000000000000000
310
00000000000000000000000000000000000000000000000000000000000000000000000000000000000000000000000000000000000000000000000000000000000000000000000000000000000000000000000000000000000000000000000000000000000000000000000000000000000000000000000000000000000000
310
000000000000000000000000000000000000000000000000000000000000000000000000000000000000000000000000000000000000000000000000000000000000000000000000000000000000000000000000000000000000000000000000000000000000000000000000
  0
ENDSEC
  0
EOF
