0
SECTION
2
ENTITIES
0
ARC
8
0
10
52.42275538054
20
120.0
30
0.0
40
14.8
50
85.994312693139
51
274.005687306861
0
ARC
8
0
10
120.0
20
188.480976829991
30
0.0
40
14.8
50
187.5
51
352.5
0
ARC
8
0
10
188.480976829991
20
120.903732210531
30
0.0
40
14.8
50
97.960596279546
51
262.960596279545
0
ARC
8
0
10
188.480976829991
20
120.903732210531
30
0.0
40
14.8
50
262.960596279545
51
457.960596279546
0
ARC
8
0
10
120.0
20
120.0
30
0.0
40
68.480976829991
50
14.117811415121
51
30.882188584879
0
ARC
8
0
10
120.0
20
188.480976829991
30
0.0
40
14.8
50
352.5
51
547.5
0
ARC
8
0
10
120.0
20
120.0
30
0.0
40
68.480976829991
50
149.11781141512
51
165.882188584879
0
ARC
8
0
10
94.017665277089
20
182.726904870168
30
0.0
40
10.0
50
204.07934648578
51
380.920653514219
0
ARC
8
0
10
120.0
20
120.0
30
0.0
40
68.480976829991
50
194.11781141512
51
210.882188584879
0
ARC
8
0
10
120.0
20
120.0
30
0.0
40
68.480976829991
50
212.928087287504
51
237.822401596351
0
ARC
8
0
10
52.42275538054
20
120.0
30
0.0
40
14.8
50
274.005687306861
51
445.994312693139
0
ARC
8
0
10
120.903732210531
20
52.42275538054
30
0.0
40
14.8
50
4.464797145765
51
176.452973699288
0
ARC
8
0
10
120.903732210531
20
52.42275538054
30
0.0
40
14.8
50
176.452973699288
51
364.464797145765
0
ARC
8
0
10
168.236194029588
20
168.875229204031
30
0.0
40
14.8
50
307.005720922409
51
503.454809145581
0
ARC
8
0
10
168.236194029588
20
168.875229204031
30
0.0
40
14.8
50
143.454809145581
51
307.005720922409
0
ARC
8
0
10
72.0285030065
20
168.236194029588
30
0.0
40
14.8
50
230.655916629737
51
399.15347189278
0
ARC
8
0
10
72.0285030065
20
168.236194029588
30
0.0
40
14.8
50
39.15347189278
51
230.655916629737
0
ARC
8
0
10
94.017665277089
20
57.273095129832
30
0.0
40
10.0
50
155.920653514219
51
339.07934648578
0
ARC
8
0
10
94.017665277089
20
57.273095129832
30
0.0
40
10.0
50
339.07934648578
51
515.920653514219
0
ARC
8
0
10
145.98233472291
20
57.273095129831
30
0.0
40
10.0
50
24.07934648578
51
200.920653514219
0
ARC
8
0
10
120.0
20
120.0
30
0.0
40
68.480976829991
50
120.882188584879
51
122.46707349654
0
ARC
8
0
10
57.273095129832
20
145.982334722911
30
0.0
40
10.0
50
249.07934648578
51
425.920653514219
0
ARC
8
0
10
57.273095129832
20
145.982334722911
30
0.0
40
10.0
50
65.920653514219
51
249.07934648578
0
ARC
8
0
10
120.0
20
120.0
30
0.0
40
68.480976829991
50
167.573093955228
51
192.426906044772
0
ARC
8
0
10
120.0
20
120.0
30
0.0
40
68.480976829991
50
33.067998424817
51
57.682802938268
0
ARC
8
0
10
168.875229204031
20
72.667538180943
30
0.0
40
14.8
50
219.804083771939
51
411.306847647025
0
ARC
8
0
10
145.982334722911
20
182.726904870168
30
0.0
40
10.0
50
159.079346485781
51
335.920653514219
0
ARC
8
0
10
94.017665277089
20
182.726904870168
30
0.0
40
10.0
50
20.920653514219
51
204.07934648578
0
ARC
8
0
10
145.98233472291
20
57.273095129831
30
0.0
40
10.0
50
200.920653514219
51
384.07934648578
0
ARC
8
0
10
120.0
20
120.0
30
0.0
40
68.480976829991
50
13.077974055379
51
14.117811415121
0
ARC
8
0
10
120.0
20
120.0
30
0.0
40
68.480976829991
50
77.671919763037
51
102.328080236963
0
ARC
8
0
10
145.982334722911
20
182.726904870168
30
0.0
40
10.0
50
335.920653514219
51
519.079346485781
0
ARC
8
0
10
120.0
20
120.0
30
0.0
40
68.480976829991
50
192.426906044772
51
194.11781141512
0
ARC
8
0
10
120.0
20
120.0
30
0.0
40
68.480976829991
50
258.324445056988
51
283.176562373236
0
ARC
8
0
10
120.0
20
120.0
30
0.0
40
68.480976829991
50
348.423475174938
51
373.077974055379
0
ARC
8
0
10
120.0
20
120.0
30
0.0
40
68.480976829991
50
283.176562373236
51
284.11781141512
0
ARC
8
0
10
182.726904870168
20
94.017665277089
30
0.0
40
10.0
50
69.07934648578
51
245.920653514219
0
ARC
8
0
10
120.0
20
120.0
30
0.0
40
68.480976829991
50
345.882188584879
51
348.423475174938
0
ARC
8
0
10
182.726904870168
20
94.017665277089
30
0.0
40
10.0
50
245.920653514219
51
429.07934648578
0
ARC
8
0
10
120.0
20
120.0
30
0.0
40
68.480976829991
50
102.328080236963
51
104.117811415121
0
ARC
8
0
10
120.0
20
120.0
30
0.0
40
68.480976829991
50
30.882188584879
51
33.067998424817
0
ARC
8
0
10
120.0
20
120.0
30
0.0
40
68.480976829991
50
57.682802938268
51
59.117811415121
0
ARC
8
0
10
120.0
20
120.0
30
0.0
40
68.480976829991
50
255.882188584879
51
258.324445056988
0
ARC
8
0
10
120.0
20
120.0
30
0.0
40
68.480976829991
50
239.11781141512
51
255.882188584879
0
ARC
8
0
10
120.0
20
120.0
30
0.0
40
68.480976829991
50
75.882188584879
51
77.671919763037
0
ARC
8
0
10
182.726904870168
20
145.982334722911
30
0.0
40
10.0
50
290.92065351422
51
474.07934648578
0
ARC
8
0
10
57.273095129831
20
94.01766527709
30
0.0
40
10.0
50
294.07934648578
51
470.920653514219
0
ARC
8
0
10
57.273095129831
20
94.01766527709
30
0.0
40
10.0
50
110.920653514219
51
294.07934648578
0
ARC
8
0
10
120.0
20
120.0
30
0.0
40
68.480976829991
50
329.117811415121
51
345.882188584879
0
ARC
8
0
10
120.0
20
120.0
30
0.0
40
68.480976829991
50
104.117811415121
51
120.882188584879
0
ARC
8
0
10
120.0
20
120.0
30
0.0
40
68.480976829991
50
122.46707349654
51
147.221995056524
0
ARC
8
0
10
120.0
20
120.0
30
0.0
40
68.480976829991
50
59.117811415121
51
75.882188584879
0
ARC
8
0
10
182.726904870168
20
145.982334722911
30
0.0
40
10.0
50
114.07934648578
51
290.92065351422
0
ARC
8
0
10
120.0
20
120.0
30
0.0
40
68.480976829991
50
165.882188584879
51
167.573093955228
0
ARC
8
0
10
72.667538180943
20
72.0285030065
30
0.0
40
14.8
50
318.513502607468
51
491.944612198104
0
ARC
8
0
10
120.0
20
120.0
30
0.0
40
68.480976829991
50
237.822401596351
51
239.11781141512
0
ARC
8
0
10
120.0
20
120.0
30
0.0
40
68.480976829991
50
303.529774711608
51
328.282323153525
0
ARC
8
0
10
72.667538180943
20
72.0285030065
30
0.0
40
14.8
50
131.944612198104
51
318.513502607468
0
ARC
8
0
10
120.0
20
120.0
30
0.0
40
68.480976829991
50
328.282323153525
51
329.117811415121
0
ARC
8
0
10
120.0
20
120.0
30
0.0
40
68.480976829991
50
210.882188584879
51
212.928087287504
0
ARC
8
0
10
168.875229204031
20
72.667538180943
30
0.0
40
14.8
50
51.306847647025
51
219.804083771939
0
ARC
8
0
10
120.0
20
120.0
30
0.0
40
68.480976829991
50
300.882188584879
51
303.529774711608
0
ARC
8
0
10
120.0
20
120.0
30
0.0
40
68.480976829991
50
284.11781141512
51
300.882188584879
0
ARC
8
0
10
120.0
20
120.0
30
0.0
40
68.480976829991
50
147.221995056524
51
149.11781141512
0
CIRCLE
8
1
10
120.0
20
120.0
30
0.0
40
99.3
0
ENDSEC
0
EOF
