  0
SECTION
  2
HEADER
  9
$ACADVER
  1
AC1018
  9
$ACADMAINTVER
 70
     0
  9
$DWGCODEPAGE
  3
ASCII
  9
$INSBASE
 10
0.0
 20
0.0
 30
0.0
  9
$EXTMIN
 10
1.000000000000000E+20
 20
1.000000000000000E+20
 30
1.000000000000000E+20
  9
$EXTMAX
 10
-1.000000000000000E+20
 20
-1.000000000000000E+20
 30
-1.000000000000000E+20
  9
$LIMMIN
 10
0.0
 20
0.0
  9
$LIMMAX
 10
12.0
 20
9.0
  9
$ORTHOMODE
 70
     0
  9
$REGENMODE
 70
     1
  9
$FILLMODE
 70
     1
  9
$QTEXTMODE
 70
     0
  9
$MIRRTEXT
 70
     1
  9
$LTSCALE
 40
1.0
  9
$ATTMODE
 70
     1
  9
$TEXTSIZE
 40
0.2
  9
$TRACEWID
 40
0.05
  9
$TEXTSTYLE
  7
Standard
  9
$CLAYER
  8
0
  9
$CELTYPE
  6
ByLayer
  9
$CECOLOR
 62
   256
  9
$CELTSCALE
 40
1.0
  9
$DISPSILH
 70
     0
  9
$DIMSCALE
 40
1.0
  9
$DIMASZ
 40
0.18
  9
$DIMEXO
 40
0.0625
  9
$DIMDLI
 40
0.38
  9
$DIMRND
 40
0.0
  9
$DIMDLE
 40
0.0
  9
$DIMEXE
 40
0.18
  9
$DIMTP
 40
0.0
  9
$DIMTM
 40
0.0
  9
$DIMTXT
 40
0.18
  9
$DIMCEN
 40
0.09
  9
$DIMTSZ
 40
0.0
  9
$DIMTOL
 70
     0
  9
$DIMLIM
 70
     0
  9
$DIMTIH
 70
     1
  9
$DIMTOH
 70
     1
  9
$DIMSE1
 70
     0
  9
$DIMSE2
 70
     0
  9
$DIMTAD
 70
     0
  9
$DIMZIN
 70
     0
  9
$DIMBLK
  1

  9
$DIMASO
 70
     1
  9
$DIMSHO
 70
     1
  9
$DIMPOST
  1

  9
$DIMAPOST
  1

  9
$DIMALT
 70
     0
  9
$DIMALTD
 70
     2
  9
$DIMALTF
 40
25.4
  9
$DIMLFAC
 40
1.0
  9
$DIMTOFL
 70
     0
  9
$DIMTVP
 40
0.0
  9
$DIMTIX
 70
     0
  9
$DIMSOXD
 70
     0
  9
$DIMSAH
 70
     0
  9
$DIMBLK1
  1

  9
$DIMBLK2
  1

  9
$DIMSTYLE
  2
Standard
  9
$DIMCLRD
 70
     0
  9
$DIMCLRE
 70
     0
  9
$DIMCLRT
 70
     0
  9
$DIMTFAC
 40
1.0
  9
$DIMGAP
 40
0.09
  9
$DIMJUST
 70
     0
  9
$DIMSD1
 70
     0
  9
$DIMSD2
 70
     0
  9
$DIMTOLJ
 70
     1
  9
$DIMTZIN
 70
     0
  9
$DIMALTZ
 70
     0
  9
$DIMALTTZ
 70
     0
  9
$DIMUPT
 70
     0
  9
$DIMDEC
 70
     4
  9
$DIMTDEC
 70
     4
  9
$DIMALTU
 70
     2
  9
$DIMALTTD
 70
     2
  9
$DIMTXSTY
  7
Standard
  9
$DIMAUNIT
 70
     0
  9
$DIMADEC
 70
     0
  9
$DIMALTRND
 40
0.0
  9
$DIMAZIN
 70
     0
  9
$DIMDSEP
 70
    46
  9
$DIMATFIT
 70
     3
  9
$DIMFRAC
 70
     0
  9
$DIMLDRBLK
  1

  9
$DIMLUNIT
 70
     2
  9
$DIMLWD
 70
    -2
  9
$DIMLWE
 70
    -2
  9
$DIMTMOVE
 70
     0
  9
$LUNITS
 70
     2
  9
$LUPREC
 70
     4
  9
$SKETCHINC
 40
0.1
  9
$FILLETRAD
 40
0.5
  9
$AUNITS
 70
     0
  9
$AUPREC
 70
     0
  9
$MENU
  1
.
  9
$ELEVATION
 40
0.0
  9
$PELEVATION
 40
0.0
  9
$THICKNESS
 40
0.0
  9
$LIMCHECK
 70
     0
  9
$CHAMFERA
 40
0.5
  9
$CHAMFERB
 40
0.5
  9
$CHAMFERC
 40
1.0
  9
$CHAMFERD
 40
0.0
  9
$SKPOLY
 70
     0
  9
$TDCREATE
 40
2455594.430347222
  9
$TDUCREATE
 40
2455594.680347222
  9
$TDUPDATE
 40
2455594.430347234
  9
$TDUUPDATE
 40
2455594.680347234
  9
$TDINDWG
 40
0.0000000116
  9
$TDUSRTIMER
 40
0.0000000116
  9
$USRTIMER
 70
     1
  9
$ANGBASE
 50
0.0
  9
$ANGDIR
 70
     0
  9
$PDMODE
 70
     0
  9
$PDSIZE
 40
0.0
  9
$PLINEWID
 40
0.0
  9
$SPLFRAME
 70
     0
  9
$SPLINETYPE
 70
     6
  9
$SPLINESEGS
 70
     8
  9
$HANDSEED
  5
66
  9
$SURFTAB1
 70
     6
  9
$SURFTAB2
 70
     6
  9
$SURFTYPE
 70
     6
  9
$SURFU
 70
     6
  9
$SURFV
 70
     6
  9
$UCSBASE
  2

  9
$UCSNAME
  2

  9
$UCSORG
 10
0.0
 20
0.0
 30
0.0
  9
$UCSXDIR
 10
1.0
 20
0.0
 30
0.0
  9
$UCSYDIR
 10
0.0
 20
1.0
 30
0.0
  9
$UCSORTHOREF
  2

  9
$UCSORTHOVIEW
 70
     0
  9
$UCSORGTOP
 10
0.0
 20
0.0
 30
0.0
  9
$UCSORGBOTTOM
 10
0.0
 20
0.0
 30
0.0
  9
$UCSORGLEFT
 10
0.0
 20
0.0
 30
0.0
  9
$UCSORGRIGHT
 10
0.0
 20
0.0
 30
0.0
  9
$UCSORGFRONT
 10
0.0
 20
0.0
 30
0.0
  9
$UCSORGBACK
 10
0.0
 20
0.0
 30
0.0
  9
$PUCSBASE
  2

  9
$PUCSNAME
  2

  9
$PUCSORG
 10
0.0
 20
0.0
 30
0.0
  9
$PUCSXDIR
 10
1.0
 20
0.0
 30
0.0
  9
$PUCSYDIR
 10
0.0
 20
1.0
 30
0.0
  9
$PUCSORTHOREF
  2

  9
$PUCSORTHOVIEW
 70
     0
  9
$PUCSORGTOP
 10
0.0
 20
0.0
 30
0.0
  9
$PUCSORGBOTTOM
 10
0.0
 20
0.0
 30
0.0
  9
$PUCSORGLEFT
 10
0.0
 20
0.0
 30
0.0
  9
$PUCSORGRIGHT
 10
0.0
 20
0.0
 30
0.0
  9
$PUCSORGFRONT
 10
0.0
 20
0.0
 30
0.0
  9
$PUCSORGBACK
 10
0.0
 20
0.0
 30
0.0
  9
$USERI1
 70
     0
  9
$USERI2
 70
     0
  9
$USERI3
 70
     0
  9
$USERI4
 70
     0
  9
$USERI5
 70
     0
  9
$USERR1
 40
0.0
  9
$USERR2
 40
0.0
  9
$USERR3
 40
0.0
  9
$USERR4
 40
0.0
  9
$USERR5
 40
0.0
  9
$WORLDVIEW
 70
     1
  9
$SHADEDGE
 70
     3
  9
$SHADEDIF
 70
    70
  9
$TILEMODE
 70
     1
  9
$MAXACTVP
 70
    64
  9
$PINSBASE
 10
0.0
 20
0.0
 30
0.0
  9
$PLIMCHECK
 70
     0
  9
$PEXTMIN
 10
1.000000000000000E+20
 20
1.000000000000000E+20
 30
1.000000000000000E+20
  9
$PEXTMAX
 10
-1.000000000000000E+20
 20
-1.000000000000000E+20
 30
-1.000000000000000E+20
  9
$PLIMMIN
 10
0.0
 20
0.0
  9
$PLIMMAX
 10
12.0
 20
9.0
  9
$UNITMODE
 70
     0
  9
$VISRETAIN
 70
     1
  9
$PLINEGEN
 70
     0
  9
$PSLTSCALE
 70
     1
  9
$TREEDEPTH
 70
  3020
  9
$CMLSTYLE
  2
Standard
  9
$CMLJUST
 70
     0
  9
$CMLSCALE
 40
1.0
  9
$PROXYGRAPHICS
 70
     1
  9
$MEASUREMENT
 70
     0
  9
$CELWEIGHT
370
    -1
  9
$ENDCAPS
280
     0
  9
$JOINSTYLE
280
     0
  9
$LWDISPLAY
290
     1
  9
$INSUNITS
 70
     1
  9
$HYPERLINKBASE
  1

  9
$STYLESHEET
  1

  9
$XEDIT
290
     1
  9
$CEPSNTYPE
380
     0
  9
$PSTYLEMODE
290
     1
  9
$FINGERPRINTGUID
  2
{13CD1E97-672A-4C43-DF11-314DFD2DE61A}
  9
$VERSIONGUID
  2
{FAEB1C32-E019-11D5-929B-00C0DF256EC4}
  9
$EXTNAMES
290
     1
  9
$PSVPSCALE
 40
0.0
  9
$OLESTARTUP
290
     0
  9
$SORTENTS
280
   127
  9
$INDEXCTL
280
     0
  9
$HIDETEXT
280
     1
  9
$XCLIPFRAME
290
     0
  9
$HALOGAP
280
     0
  9
$OBSCOLOR
 70
   257
  9
$OBSLTYPE
280
     0
  9
$INTERSECTIONDISPLAY
280
     0
  9
$INTERSECTIONCOLOR
 70
   257
  9
$DIMASSOC
280
     2
  9
$PROJECTNAME
  1

  0
ENDSEC
  0
SECTION
  2
CLASSES
  0
CLASS
  1
ACDBDICTIONARYWDFLT
  2
AcDbDictionaryWithDefault
  3
ObjectDBX Classes
 90
        0
 91
        3
280
     0
281
     0
  0
CLASS
  1
VISUALSTYLE
  2
AcDbVisualStyle
  3
ObjectDBX Classes
 90
     4095
 91
        3
280
     0
281
     0
  0
ENDSEC
  0
SECTION
  2
TABLES
  0
TABLE
  2
VPORT
  5
8
330
0
100
AcDbSymbolTable
 70
     1
  0
VPORT
  5
29
330
8
100
AcDbSymbolTableRecord
100
AcDbViewportTableRecord
  2
*Active
 70
     0
 10
0.0
 20
0.0
 11
1.0
 21
1.0
 12
0.0
 22
0.0
 13
0.0
 23
0.0
 14
0.5
 24
0.5
 15
0.5
 25
0.5
 16
0.0
 26
0.0
 36
1.0
 17
350.0
 27
288.5
 37
0.0
 40
580.0
 41
1.0
 42
50.0
 43
0.0
 44
0.0
 50
0.0
 51
0.0
 71
     0
 72
   100
 73
     1
 74
     3
 75
     0
 76
     0
 77
     0
 78
     0
281
     0
 65
     1
110
0.0
120
0.0
130
0.0
111
1.0
121
0.0
131
0.0
112
0.0
122
1.0
132
0.0
 79
     0
146
0.0
  0
ENDTAB
  0
TABLE
  2
LTYPE
  5
5
330
0
100
AcDbSymbolTable
 70
     1
  0
LTYPE
  5
14
330
5
100
AcDbSymbolTableRecord
100
AcDbLinetypeTableRecord
  2
ByBlock
 70
     0
  3

 72
    65
 73
     0
 40
0.0
  0
LTYPE
  5
15
330
5
100
AcDbSymbolTableRecord
100
AcDbLinetypeTableRecord
  2
ByLayer
 70
     0
  3

 72
    65
 73
     0
 40
0.0
  0
LTYPE
  5
16
330
5
100
AcDbSymbolTableRecord
100
AcDbLinetypeTableRecord
  2
Continuous
 70
     0
  3
Solid line
 72
    65
 73
     0
 40
0.0
  0
ENDTAB
  0
TABLE
  2
LAYER
  5
2
330
0
100
AcDbSymbolTable
 70
     2
  0
LAYER
  5
10
330
2
100
AcDbSymbolTableRecord
100
AcDbLayerTableRecord
  2
0
 70
     0
 62
     7
  6
Continuous
370
    -3
390
F
  0
LAYER
  5
3B
330
2
100
AcDbSymbolTableRecord
100
AcDbLayerTableRecord
  2
Layer 1
 70
     0
 62
     7
  6
Continuous
370
    -3
390
F
  0
ENDTAB
  0
TABLE
  2
STYLE
  5
3
330
0
100
AcDbSymbolTable
 70
     1
  0
STYLE
  5
11
330
3
100
AcDbSymbolTableRecord
100
AcDbTextStyleTableRecord
  2
Standard
 70
     0
 40
0.0
 41
1.0
 50
0.0
 71
     0
 42
0.2
  3
txt
  4

  0
ENDTAB
  0
TABLE
  2
VIEW
  5
6
330
0
100
AcDbSymbolTable
 70
     0
  0
ENDTAB
  0
TABLE
  2
UCS
  5
7
330
0
100
AcDbSymbolTable
 70
     0
  0
ENDTAB
  0
TABLE
  2
APPID
  5
9
330
0
100
AcDbSymbolTable
 70
     1
  0
APPID
  5
12
330
9
100
AcDbSymbolTableRecord
100
AcDbRegAppTableRecord
  2
ACAD
 70
     0
  0
ENDTAB
  0
TABLE
  2
DIMSTYLE
  5
A
330
0
100
AcDbSymbolTable
 70
     1
100
AcDbDimStyleTable
  0
DIMSTYLE
105
27
330
A
100
AcDbSymbolTableRecord
100
AcDbDimStyleTableRecord
  2
Standard
 70
     0
340
11
  0
ENDTAB
  0
TABLE
  2
BLOCK_RECORD
  5
1
330
0
100
AcDbSymbolTable
 70
     3
  0
BLOCK_RECORD
  5
1F
330
1
100
AcDbSymbolTableRecord
100
AcDbBlockTableRecord
  2
*Model_Space
340
22
  0
BLOCK_RECORD
  5
1B
330
1
100
AcDbSymbolTableRecord
100
AcDbBlockTableRecord
  2
*Paper_Space
340
1E
  0
BLOCK_RECORD
  5
23
330
1
100
AcDbSymbolTableRecord
100
AcDbBlockTableRecord
  2
*Paper_Space0
340
26
  0
BLOCK_RECORD
  5
3C
330
1
100
AcDbSymbolTableRecord
100
AcDbBlockTableRecord
  2
block 2
340
0
102
{BLKREFS
331
3D
102
}
  0
BLOCK_RECORD
  5
43
330
1
100
AcDbSymbolTableRecord
100
AcDbBlockTableRecord
  2
block 3
340
0
102
{BLKREFS
331
44
102
}
  0
ENDTAB
  0
ENDSEC
  0
SECTION
  2
BLOCKS
  0
BLOCK
  5
20
330
1F
100
AcDbEntity
  8
0
100
AcDbBlockBegin
  2
*Model_Space
 70
     0
 71
     0
 10
0.0
 20
0.0
 30
0.0
  3
*Model_Space
  1

  0
ENDBLK
  5
21
330
1F
100
AcDbEntity
  8
0
100
AcDbBlockEnd
  0
BLOCK
  5
1C
330
1B
100
AcDbEntity
 67
     1
  8
0
100
AcDbBlockBegin
  2
*Paper_Space
 70
     0
 71
     0
 10
0.0
 20
0.0
 30
0.0
  3
*Paper_Space
  1

  0
ENDBLK
  5
1D
330
1B
100
AcDbEntity
 67
     1
  8
0
100
AcDbBlockEnd
  0
BLOCK
  5
24
330
23
100
AcDbEntity
  8
0
100
AcDbBlockBegin
  2
*Paper_Space0
 70
     0
 71
     0
 10
0.0
 20
0.0
 30
0.0
  3
*Paper_Space0
  1

  0
ENDBLK
  5
25
330
23
100
AcDbEntity
  8
0
100
AcDbBlockEnd
  0
BLOCK
  5
3E
330
3C
100
AcDbEntity
  8
0
100
AcDbBlockBegin
  2
block 2
 70
     0
 71
     0
 10
0.0
 20
0.0
 30
0.0
  3
block 2
  1

  0
SPLINE
  5
40
330
3C
100
AcDbEntity
  8
Layer 1
 62
     2
370
    70
100
AcDbSpline
210
0.0
220
0.0
230
1.0
 70
    11
 71
     3
 72
    77
 73
    73
 74
     0
 42
0.0000000001
 43
0.0000000001
 40
0.0
 40
0.0
 40
0.0
 40
0.0
 40
1.0
 40
1.0
 40
1.0
 40
2.0
 40
2.0
 40
2.0
 40
3.0
 40
3.0
 40
3.0
 40
4.0
 40
4.0
 40
4.0
 40
5.0
 40
5.0
 40
5.0
 40
6.0
 40
6.0
 40
6.0
 40
7.0
 40
7.0
 40
7.0
 40
8.0
 40
8.0
 40
8.0
 40
9.0
 40
9.0
 40
9.0
 40
10.0
 40
10.0
 40
10.0
 40
11.0
 40
11.0
 40
11.0
 40
12.0
 40
12.0
 40
12.0
 40
13.0
 40
13.0
 40
13.0
 40
14.0
 40
14.0
 40
14.0
 40
15.0
 40
15.0
 40
15.0
 40
16.0
 40
16.0
 40
16.0
 40
17.0
 40
17.0
 40
17.0
 40
18.0
 40
18.0
 40
18.0
 40
19.0
 40
19.0
 40
19.0
 40
20.0
 40
20.0
 40
20.0
 40
21.0
 40
21.0
 40
21.0
 40
22.0
 40
22.0
 40
22.0
 40
23.0
 40
23.0
 40
23.0
 40
24.0
 40
24.0
 40
24.0
 40
24.0
 10
71.380859375
 20
141.30859375
 30
0.0
 10
70.9306640625
 20
154.578125
 30
0.0
 10
76.1103515625
 20
167.138671875
 30
0.0
 10
79.4111328125
 20
179.7685546875
 30
0.0
 10
82.9306640625
 20
193.2685546875
 30
0.0
 10
82.900390625
 20
206.8583984375
 30
0.0
 10
85.2509765625
 20
220.478515625
 30
0.0
 10
88.1005859375
 20
237.0185546875
 30
0.0
 10
100.1708984375
 20
248.908203125
 30
0.0
 10
112.140625
 20
259.73828125
 30
0.0
 10
120.2109375
 20
267.03857421875
 30
0.0
 10
128.400390625
 20
274.25830078125
 30
0.0
 10
136.8203125
 20
281.1484375
 30
0.0
 10
142.810546875
 20
286.03857421875
 30
0.0
 10
150.560546875
 20
289.82861328125
 30
0.0
 10
157.400390625
 20
293.46826171875
 30
0.0
 10
168.48046875
 20
299.3583984375
 30
0.0
 10
179.30078125
 20
305.2685546875
 30
0.0
 10
189.9609375
 20
311.91796875
 30
0.0
 10
197.1904296875
 20
316.4384765625
 30
0.0
 10
203.9306640625
 20
321.37890625
 30
0.0
 10
210.9208984375
 20
326.23828125
 30
0.0
 10
216.0703125
 20
329.818359375
 30
0.0
 10
223.900390625
 20
333.0986328125
 30
0.0
 10
230.4111328125
 20
331.6787109375
 30
0.0
 10
227.0908203125
 20
327.91796875
 30
0.0
 10
225.0205078125
 20
323.8486328125
 30
0.0
 10
223.2109375
 20
319.12890625
 30
0.0
 10
220.990234375
 20
313.3583984375
 30
0.0
 10
217.12109375
 20
309.29833984375
 30
0.0
 10
213.1904296875
 20
304.638671875
 30
0.0
 10
206.4306640625
 20
296.6083984375
 30
0.0
 10
202.5908203125
 20
289.1884765625
 30
0.0
 10
199.6611328125
 20
279.228515625
 30
0.0
 10
196.87109375
 20
269.74853515625
 30
0.0
 10
194.9208984375
 20
260.05859375
 30
0.0
 10
195.37109375
 20
250.0986328125
 30
0.0
 10
195.650390625
 20
243.95849609375
 30
0.0
 10
198.30078125
 20
238.658203125
 30
0.0
 10
198.87109375
 20
232.62890625
 30
0.0
 10
200.0302734375
 20
220.4384765625
 30
0.0
 10
203.951171875
 20
208.158203125
 30
0.0
 10
207.7109375
 20
196.708984375
 30
0.0
 10
208.7607421875
 20
193.5185546875
 30
0.0
 10
208.4404296875
 20
189.677734375
 30
0.0
 10
209.0107421875
 20
186.3486328125
 30
0.0
 10
210.3505859375
 20
178.5283203125
 30
0.0
 10
211.5703125
 20
171.388671875
 30
0.0
 10
213.951171875
 20
163.7578125
 30
0.0
 10
217.6005859375
 20
152.0283203125
 30
0.0
 10
219.6708984375
 20
140.5986328125
 30
0.0
 10
222.3203125
 20
128.548828125
 30
0.0
 10
220.390625
 20
113.6982421875
 30
0.0
 10
217.220703125
 20
99.837890625
 30
0.0
 10
209.390625
 20
86.7685546875
 30
0.0
 10
200.990234375
 20
72.7685546875
 30
0.0
 10
191.0908203125
 20
59.818359375
 30
0.0
 10
183.0302734375
 20
45.578125
 30
0.0
 10
176.630859375
 20
34.2685546875
 30
0.0
 10
169.701171875
 20
18.068359375
 30
0.0
 10
155.630859375
 20
14.869140625
 30
0.0
 10
140.7509765625
 20
11.478515625
 30
0.0
 10
124.4404296875
 20
22.23828125
 30
0.0
 10
113.0107421875
 20
30.4384765625
 30
0.0
 10
101.7705078125
 20
38.5078125
 30
0.0
 10
90.4111328125
 20
48.318359375
 30
0.0
 10
85.5703125
 20
61.677734375
 30
0.0
 10
80.9404296875
 20
74.458984375
 30
0.0
 10
80.9404296875
 20
88.7890625
 30
0.0
 10
78.6611328125
 20
102.0986328125
 30
0.0
 10
76.4404296875
 20
115.087890625
 30
0.0
 10
71.8310546875
 20
128.078125
 30
0.0
 10
71.380859375
 20
141.30859375
 30
0.0
  0
SPLINE
  5
41
330
3C
100
AcDbEntity
  8
Layer 1
 62
     4
370
    70
100
AcDbSpline
210
0.0
220
0.0
230
1.0
 70
    11
 71
     3
 72
   158
 73
   154
 74
     0
 42
0.0000000001
 43
0.0000000001
 40
0.0
 40
0.0
 40
0.0
 40
0.0
 40
1.0
 40
1.0
 40
1.0
 40
2.0
 40
2.0
 40
2.0
 40
3.0
 40
3.0
 40
3.0
 40
4.0
 40
4.0
 40
4.0
 40
5.0
 40
5.0
 40
5.0
 40
6.0
 40
6.0
 40
6.0
 40
7.0
 40
7.0
 40
7.0
 40
8.0
 40
8.0
 40
8.0
 40
9.0
 40
9.0
 40
9.0
 40
10.0
 40
10.0
 40
10.0
 40
11.0
 40
11.0
 40
11.0
 40
12.0
 40
12.0
 40
12.0
 40
13.0
 40
13.0
 40
13.0
 40
14.0
 40
14.0
 40
14.0
 40
15.0
 40
15.0
 40
15.0
 40
16.0
 40
16.0
 40
16.0
 40
17.0
 40
17.0
 40
17.0
 40
18.0
 40
18.0
 40
18.0
 40
19.0
 40
19.0
 40
19.0
 40
20.0
 40
20.0
 40
20.0
 40
21.0
 40
21.0
 40
21.0
 40
22.0
 40
22.0
 40
22.0
 40
23.0
 40
23.0
 40
23.0
 40
24.0
 40
24.0
 40
24.0
 40
25.0
 40
25.0
 40
25.0
 40
26.0
 40
26.0
 40
26.0
 40
27.0
 40
27.0
 40
27.0
 40
28.0
 40
28.0
 40
28.0
 40
29.0
 40
29.0
 40
29.0
 40
30.0
 40
30.0
 40
30.0
 40
31.0
 40
31.0
 40
31.0
 40
32.0
 40
32.0
 40
32.0
 40
33.0
 40
33.0
 40
33.0
 40
34.0
 40
34.0
 40
34.0
 40
35.0
 40
35.0
 40
35.0
 40
36.0
 40
36.0
 40
36.0
 40
37.0
 40
37.0
 40
37.0
 40
38.0
 40
38.0
 40
38.0
 40
39.0
 40
39.0
 40
39.0
 40
40.0
 40
40.0
 40
40.0
 40
41.0
 40
41.0
 40
41.0
 40
42.0
 40
42.0
 40
42.0
 40
43.0
 40
43.0
 40
43.0
 40
44.0
 40
44.0
 40
44.0
 40
45.0
 40
45.0
 40
45.0
 40
46.0
 40
46.0
 40
46.0
 40
47.0
 40
47.0
 40
47.0
 40
48.0
 40
48.0
 40
48.0
 40
49.0
 40
49.0
 40
49.0
 40
50.0
 40
50.0
 40
50.0
 40
51.0
 40
51.0
 40
51.0
 40
51.0
 10
385.9208984375
 20
65.478515625
 30
0.0
 10
383.650390625
 20
69.9482421875
 30
0.0
 10
384.361328125
 20
77.05859375
 30
0.0
 10
384.16015625
 20
81.828125
 30
0.0
 10
383.7607421875
 20
91.1884765625
 30
0.0
 10
382.8505859375
 20
101.1884765625
 30
0.0
 10
384.150390625
 20
110.4482421875
 30
0.0
 10
385.5
 20
120.16796875
 30
0.0
 10
388.890625
 20
129.55859375
 30
0.0
 10
392.951171875
 20
138.4482421875
 30
0.0
 10
403.400390625
 20
161.328125
 30
0.0
 10
417.8505859375
 20
181.998046875
 30
0.0
 10
431.111328125
 20
203.2783203125
 30
0.0
 10
432.3408203125
 20
205.23828125
 30
0.0
 10
433.111328125
 20
207.7783203125
 30
0.0
 10
434.4609375
 20
209.5986328125
 30
0.0
 10
436.150390625
 20
211.8583984375
 30
0.0
 10
439.2109375
 20
212.7578125
 30
0.0
 10
441.220703125
 20
214.7578125
 30
0.0
 10
443.23046875
 20
216.7685546875
 30
0.0
 10
445.12109375
 20
219.23828125
 30
0.0
 10
446.740234375
 20
221.578125
 30
0.0
 10
450.1708984375
 20
226.5078125
 30
0.0
 10
453.8408203125
 20
231.458984375
 30
0.0
 10
457.630859375
 20
236.0986328125
 30
0.0
 10
461.9609375
 20
241.36865234375
 30
0.0
 10
467.580078125
 20
248.6083984375
 30
0.0
 10
469.580078125
 20
255.16845703125
 30
0.0
 10
471.48046875
 20
261.41845703125
 30
0.0
 10
470.03125
 20
267.658203125
 30
0.0
 10
472.470703125
 20
273.80859375
 30
0.0
 10
476.900390625
 20
284.98828125
 30
0.0
 10
482.220703125
 20
295.80859375
 30
0.0
 10
488.2705078125
 20
306.1982421875
 30
0.0
 10
491.2705078125
 20
311.3486328125
 30
0.0
 10
493.9609375
 20
314.0986328125
 30
0.0
 10
498.5703125
 20
317.7880859375
 30
0.0
 10
503.0107421875
 20
321.3388671875
 30
0.0
 10
507.55078125
 20
324.7587890625
 30
0.0
 10
511.890625
 20
328.41796875
 30
0.0
 10
516.880859375
 20
332.6083984375
 30
0.0
 10
521.630859375
 20
337.1083984375
 30
0.0
 10
525.66015625
 20
342.228515625
 30
0.0
 10
534.541015625
 20
353.5087890625
 30
0.0
 10
538.111328125
 20
364.888671875
 30
0.0
 10
538.5
 20
379.12890625
 30
0.0
 10
538.7607421875
 20
388.6982421875
 30
0.0
 10
538.28125
 20
400.298828125
 30
0.0
 10
541.94140625
 20
409.328125
 30
0.0
 10
545.5908203125
 20
418.3486328125
 30
0.0
 10
548.041015625
 20
427.8486328125
 30
0.0
 10
550.650390625
 20
437.318359375
 30
0.0
 10
556.69140625
 20
459.2880859375
 30
0.0
 10
563.390625
 20
481.41796875
 30
0.0
 10
576.6005859375
 20
500.2880859375
 30
0.0
 10
589.30078125
 20
518.4580078125
 30
0.0
 10
606.970703125
 20
531.62890625
 30
0.0
 10
624.87109375
 20
544.2685546875
 30
0.0
 10
625.291015625
 20
544.55859375
 30
0.0
 10
625.701171875
 20
544.8583984375
 30
0.0
 10
626.12109375
 20
545.1484375
 30
0.0
 10
625.740234375
 20
540.5087890625
 30
0.0
 10
625.3505859375
 20
535.8681640625
 30
0.0
 10
624.8203125
 20
531.23828125
 30
0.0
 10
622.78125
 20
513.4287109375
 30
0.0
 10
616.4609375
 20
497.828125
 30
0.0
 10
611.041015625
 20
480.9482421875
 30
0.0
 10
605.490234375
 20
463.66796875
 30
0.0
 10
607.3505859375
 20
447.138671875
 30
0.0
 10
608.8505859375
 20
429.3984375
 30
0.0
 10
610.5
 20
409.8583984375
 30
0.0
 10
606.611328125
 20
392.828125
 30
0.0
 10
601.291015625
 20
374.1982421875
 30
0.0
 10
596.0
 20
355.6787109375
 30
0.0
 10
597.3203125
 20
337.98828125
 30
0.0
 10
597.4609375
 20
318.98828125
 30
0.0
 10
597.53125
 20
310.1484375
 30
0.0
 10
596.23046875
 20
301.2685546875
 30
0.0
 10
596.890625
 20
292.478515625
 30
0.0
 10
597.5107421875
 20
284.2783203125
 30
0.0
 10
592.5107421875
 20
276.228515625
 30
0.0
 10
592.05078125
 20
267.91845703125
 30
0.0
 10
591.541015625
 20
258.568359375
 30
0.0
 10
604.44140625
 20
253.30859375
 30
0.0
 10
611.0
 20
248.908203125
 30
0.0
 10
615.41015625
 20
245.9482421875
 30
0.0
 10
619.130859375
 20
243.91845703125
 30
0.0
 10
621.75
 20
239.048828125
 30
0.0
 10
622.9306640625
 20
236.8486328125
 30
0.0
 10
624.201171875
 20
234.6083984375
 30
0.0
 10
625.291015625
 20
232.388671875
 30
0.0
 10
626.94140625
 20
229.05859375
 30
0.0
 10
625.900390625
 20
225.1083984375
 30
0.0
 10
627.220703125
 20
221.677734375
 30
0.0
 10
628.6005859375
 20
218.05859375
 30
0.0
 10
628.9208984375
 20
214.4482421875
 30
0.0
 10
628.9609375
 20
210.5283203125
 30
0.0
 10
629.05078125
 20
201.869140625
 30
0.0
 10
627.48046875
 20
193.298828125
 30
0.0
 10
626.2109375
 20
184.7685546875
 30
0.0
 10
623.6806640625
 20
167.7578125
 30
0.0
 10
621.48046875
 20
150.71875
 30
0.0
 10
618.4208984375
 20
133.7890625
 30
0.0
 10
617.1005859375
 20
126.46875
 30
0.0
 10
616.111328125
 20
119.0986328125
 30
0.0
 10
614.630859375
 20
111.80859375
 30
0.0
 10
614.5
 20
111.177734375
 30
0.0
 10
614.3408203125
 20
110.548828125
 30
0.0
 10
614.19140625
 20
109.927734375
 30
0.0
 10
612.98046875
 20
104.71875
 30
0.0
 10
611.69140625
 20
99.5078125
 30
0.0
 10
609.8408203125
 20
94.48828125
 30
0.0
 10
608.0107421875
 20
89.5078125
 30
0.0
 10
605.62109375
 20
84.7578125
 30
0.0
 10
602.7607421875
 20
80.2890625
 30
0.0
 10
600.03125
 20
75.998046875
 30
0.0
 10
596.9306640625
 20
71.8583984375
 30
0.0
 10
593.361328125
 20
68.21875
 30
0.0
 10
589.80078125
 20
64.587890625
 30
0.0
 10
585.650390625
 20
61.708984375
 30
0.0
 10
580.8505859375
 20
59.96875
 30
0.0
 10
578.1005859375
 20
58.978515625
 30
0.0
 10
575.240234375
 20
58.337890625
 30
0.0
 10
572.361328125
 20
57.8486328125
 30
0.0
 10
569.220703125
 20
57.328125
 30
0.0
 10
560.8408203125
 20
56.16796875
 30
0.0
 10
560.1005859375
 20
55.9384765625
 30
0.0
 10
558.62109375
 20
55.478515625
 30
0.0
 10
550.330078125
 20
52.8984375
 30
0.0
 10
547.6005859375
 20
52.337890625
 30
0.0
 10
543.810546875
 20
51.55859375
 30
0.0
 10
540.0107421875
 20
50.798828125
 30
0.0
 10
536.2109375
 20
50.068359375
 30
0.0
 10
532.130859375
 20
49.2890625
 30
0.0
 10
528.041015625
 20
48.5185546875
 30
0.0
 10
523.9306640625
 20
47.888671875
 30
0.0
 10
510.8408203125
 20
45.888671875
 30
0.0
 10
497.66015625
 20
44.30859375
 30
0.0
 10
484.4208984375
 20
43.8583984375
 30
0.0
 10
472.75
 20
43.4482421875
 30
0.0
 10
460.140625
 20
43.91796875
 30
0.0
 10
448.890625
 20
47.3583984375
 30
0.0
 10
437.94140625
 20
50.71875
 30
0.0
 10
426.650390625
 20
52.46875
 30
0.0
 10
415.4306640625
 20
54.8984375
 30
0.0
 10
407.8505859375
 20
56.5390625
 30
0.0
 10
400.41015625
 20
58.427734375
 30
0.0
 10
393.03125
 20
60.7578125
 30
0.0
 10
390.330078125
 20
61.6083984375
 30
0.0
 10
387.830078125
 20
62.298828125
 30
0.0
 10
386.2607421875
 20
64.869140625
 30
0.0
 10
386.140625
 20
65.068359375
 30
0.0
 10
386.03125
 20
65.2685546875
 30
0.0
 10
385.9208984375
 20
65.478515625
 30
0.0
  0
SPLINE
  5
42
330
3C
100
AcDbEntity
  8
Layer 1
 62
     3
370
    70
100
AcDbSpline
210
0.0
220
0.0
230
1.0
 70
    11
 71
     3
 72
   158
 73
   154
 74
     0
 42
0.0000000001
 43
0.0000000001
 40
0.0
 40
0.0
 40
0.0
 40
0.0
 40
1.0
 40
1.0
 40
1.0
 40
2.0
 40
2.0
 40
2.0
 40
3.0
 40
3.0
 40
3.0
 40
4.0
 40
4.0
 40
4.0
 40
5.0
 40
5.0
 40
5.0
 40
6.0
 40
6.0
 40
6.0
 40
7.0
 40
7.0
 40
7.0
 40
8.0
 40
8.0
 40
8.0
 40
9.0
 40
9.0
 40
9.0
 40
10.0
 40
10.0
 40
10.0
 40
11.0
 40
11.0
 40
11.0
 40
12.0
 40
12.0
 40
12.0
 40
13.0
 40
13.0
 40
13.0
 40
14.0
 40
14.0
 40
14.0
 40
15.0
 40
15.0
 40
15.0
 40
16.0
 40
16.0
 40
16.0
 40
17.0
 40
17.0
 40
17.0
 40
18.0
 40
18.0
 40
18.0
 40
19.0
 40
19.0
 40
19.0
 40
20.0
 40
20.0
 40
20.0
 40
21.0
 40
21.0
 40
21.0
 40
22.0
 40
22.0
 40
22.0
 40
23.0
 40
23.0
 40
23.0
 40
24.0
 40
24.0
 40
24.0
 40
25.0
 40
25.0
 40
25.0
 40
26.0
 40
26.0
 40
26.0
 40
27.0
 40
27.0
 40
27.0
 40
28.0
 40
28.0
 40
28.0
 40
29.0
 40
29.0
 40
29.0
 40
30.0
 40
30.0
 40
30.0
 40
31.0
 40
31.0
 40
31.0
 40
32.0
 40
32.0
 40
32.0
 40
33.0
 40
33.0
 40
33.0
 40
34.0
 40
34.0
 40
34.0
 40
35.0
 40
35.0
 40
35.0
 40
36.0
 40
36.0
 40
36.0
 40
37.0
 40
37.0
 40
37.0
 40
38.0
 40
38.0
 40
38.0
 40
39.0
 40
39.0
 40
39.0
 40
40.0
 40
40.0
 40
40.0
 40
41.0
 40
41.0
 40
41.0
 40
42.0
 40
42.0
 40
42.0
 40
43.0
 40
43.0
 40
43.0
 40
44.0
 40
44.0
 40
44.0
 40
45.0
 40
45.0
 40
45.0
 40
46.0
 40
46.0
 40
46.0
 40
47.0
 40
47.0
 40
47.0
 40
48.0
 40
48.0
 40
48.0
 40
49.0
 40
49.0
 40
49.0
 40
50.0
 40
50.0
 40
50.0
 40
51.0
 40
51.0
 40
51.0
 40
51.0
 10
222.3203125
 20
128.548828125
 30
0.0
 10
219.6708984375
 20
140.5986328125
 30
0.0
 10
217.6005859375
 20
152.0283203125
 30
0.0
 10
213.951171875
 20
163.7578125
 30
0.0
 10
211.5703125
 20
171.388671875
 30
0.0
 10
210.3505859375
 20
178.5283203125
 30
0.0
 10
209.0107421875
 20
186.3486328125
 30
0.0
 10
208.4404296875
 20
189.677734375
 30
0.0
 10
208.7607421875
 20
193.5185546875
 30
0.0
 10
207.7109375
 20
196.708984375
 30
0.0
 10
203.951171875
 20
208.158203125
 30
0.0
 10
200.0302734375
 20
220.4384765625
 30
0.0
 10
198.87109375
 20
232.62890625
 30
0.0
 10
198.30078125
 20
238.658203125
 30
0.0
 10
195.650390625
 20
243.95849609375
 30
0.0
 10
195.37109375
 20
250.0986328125
 30
0.0
 10
194.9208984375
 20
260.05859375
 30
0.0
 10
196.87109375
 20
269.74853515625
 30
0.0
 10
199.6611328125
 20
279.228515625
 30
0.0
 10
202.5908203125
 20
289.1884765625
 30
0.0
 10
206.4306640625
 20
296.6083984375
 30
0.0
 10
213.1904296875
 20
304.638671875
 30
0.0
 10
217.12109375
 20
309.29833984375
 30
0.0
 10
220.990234375
 20
313.3583984375
 30
0.0
 10
223.2109375
 20
319.12890625
 30
0.0
 10
225.0205078125
 20
323.8486328125
 30
0.0
 10
227.0908203125
 20
327.91796875
 30
0.0
 10
230.4111328125
 20
331.6787109375
 30
0.0
 10
230.701171875
 20
332.0087890625
 30
0.0
 10
231.0107421875
 20
332.3388671875
 30
0.0
 10
231.3203125
 20
332.66796875
 30
0.0
 10
237.701171875
 20
339.3388671875
 30
0.0
 10
246.55078125
 20
341.3388671875
 30
0.0
 10
255.0107421875
 20
344.0380859375
 30
0.0
 10
261.310546875
 20
346.05859375
 30
0.0
 10
267.0810546875
 20
349.9287109375
 30
0.0
 10
272.98046875
 20
352.9287109375
 30
0.0
 10
280.4609375
 20
356.73828125
 30
0.0
 10
287.55078125
 20
361.2783203125
 30
0.0
 10
294.451171875
 20
366.048828125
 30
0.0
 10
308.37109375
 20
375.66796875
 30
0.0
 10
321.4609375
 20
386.4580078125
 30
0.0
 10
335.810546875
 20
395.4482421875
 30
0.0
 10
345.24072265625
 20
401.3486328125
 30
0.0
 10
355.640625
 20
405.478515625
 30
0.0
 10
364.951171875
 20
411.478515625
 30
0.0
 10
373.5
 20
416.98828125
 30
0.0
 10
381.880859375
 20
422.798828125
 30
0.0
 10
389.951171875
 20
428.96875
 30
0.0
 10
411.8505859375
 20
445.748046875
 30
0.0
 10
435.7109375
 20
462.078125
 30
0.0
 10
460.8408203125
 20
473.548828125
 30
0.0
 10
470.25
 20
477.8486328125
 30
0.0
 10
479.1005859375
 20
483.23828125
 30
0.0
 10
488.66015625
 20
487.228515625
 30
0.0
 10
497.1005859375
 20
490.73828125
 30
0.0
 10
506.080078125
 20
493.078125
 30
0.0
 10
514.201171875
 20
497.248046875
 30
0.0
 10
518.5703125
 20
499.48828125
 30
0.0
 10
522.75
 20
501.828125
 30
0.0
 10
527.3505859375
 20
503.578125
 30
0.0
 10
539.130859375
 20
508.048828125
 30
0.0
 10
550.291015625
 20
513.798828125
 30
0.0
 10
561.80078125
 20
518.8681640625
 30
0.0
 10
573.611328125
 20
524.05859375
 30
0.0
 10
584.6708984375
 20
530.1884765625
 30
0.0
 10
596.810546875
 20
534.6181640625
 30
0.0
 10
601.4609375
 20
536.318359375
 30
0.0
 10
605.73046875
 20
538.818359375
 30
0.0
 10
610.291015625
 20
540.658203125
 30
0.0
 10
614.470703125
 20
542.3486328125
 30
0.0
 10
620.41015625
 20
542.5185546875
 30
0.0
 10
624.23046875
 20
545.16796875
 30
0.0
 10
624.23046875
 20
545.16796875
 30
0.0
 10
624.87109375
 20
544.2685546875
 30
0.0
 10
624.87109375
 20
544.2685546875
 30
0.0
 10
606.970703125
 20
531.62890625
 30
0.0
 10
589.30078125
 20
518.4580078125
 30
0.0
 10
576.6005859375
 20
500.2880859375
 30
0.0
 10
563.390625
 20
481.41796875
 30
0.0
 10
556.69140625
 20
459.2880859375
 30
0.0
 10
550.650390625
 20
437.318359375
 30
0.0
 10
548.041015625
 20
427.8486328125
 30
0.0
 10
545.5908203125
 20
418.3486328125
 30
0.0
 10
541.94140625
 20
409.328125
 30
0.0
 10
538.28125
 20
400.298828125
 30
0.0
 10
538.7607421875
 20
388.6982421875
 30
0.0
 10
538.5
 20
379.12890625
 30
0.0
 10
538.111328125
 20
364.888671875
 30
0.0
 10
534.541015625
 20
353.5087890625
 30
0.0
 10
525.66015625
 20
342.228515625
 30
0.0
 10
521.630859375
 20
337.1083984375
 30
0.0
 10
516.880859375
 20
332.6083984375
 30
0.0
 10
511.890625
 20
328.41796875
 30
0.0
 10
507.55078125
 20
324.7587890625
 30
0.0
 10
503.0107421875
 20
321.3388671875
 30
0.0
 10
498.5703125
 20
317.7880859375
 30
0.0
 10
493.9609375
 20
314.0986328125
 30
0.0
 10
491.2705078125
 20
311.3486328125
 30
0.0
 10
488.2705078125
 20
306.1982421875
 30
0.0
 10
482.220703125
 20
295.80859375
 30
0.0
 10
476.900390625
 20
284.98828125
 30
0.0
 10
472.470703125
 20
273.80859375
 30
0.0
 10
470.03125
 20
267.658203125
 30
0.0
 10
471.48046875
 20
261.41845703125
 30
0.0
 10
469.580078125
 20
255.16845703125
 30
0.0
 10
467.580078125
 20
248.6083984375
 30
0.0
 10
461.9609375
 20
241.36865234375
 30
0.0
 10
457.630859375
 20
236.0986328125
 30
0.0
 10
453.8408203125
 20
231.458984375
 30
0.0
 10
450.1708984375
 20
226.5078125
 30
0.0
 10
446.740234375
 20
221.578125
 30
0.0
 10
445.12109375
 20
219.23828125
 30
0.0
 10
443.23046875
 20
216.7685546875
 30
0.0
 10
441.220703125
 20
214.7578125
 30
0.0
 10
439.2109375
 20
212.7578125
 30
0.0
 10
436.150390625
 20
211.8583984375
 30
0.0
 10
434.4609375
 20
209.5986328125
 30
0.0
 10
433.111328125
 20
207.7783203125
 30
0.0
 10
432.3408203125
 20
205.23828125
 30
0.0
 10
431.111328125
 20
203.2783203125
 30
0.0
 10
417.8505859375
 20
181.998046875
 30
0.0
 10
403.400390625
 20
161.328125
 30
0.0
 10
392.951171875
 20
138.4482421875
 30
0.0
 10
388.890625
 20
129.55859375
 30
0.0
 10
385.5
 20
120.16796875
 30
0.0
 10
384.150390625
 20
110.4482421875
 30
0.0
 10
382.8505859375
 20
101.1884765625
 30
0.0
 10
383.7607421875
 20
91.1884765625
 30
0.0
 10
384.16015625
 20
81.828125
 30
0.0
 10
384.361328125
 20
77.05859375
 30
0.0
 10
383.650390625
 20
69.9482421875
 30
0.0
 10
385.9208984375
 20
65.478515625
 30
0.0
 10
379.400390625
 20
63.8486328125
 30
0.0
 10
373.5205078125
 20
60.248046875
 30
0.0
 10
366.7705078125
 20
58.8583984375
 30
0.0
 10
355.90087890625
 20
56.638671875
 30
0.0
 10
344.82080078125
 20
56.119140625
 30
0.0
 10
333.7607421875
 20
56.3984375
 30
0.0
 10
323.140625
 20
56.658203125
 30
0.0
 10
315.7705078125
 20
58.96875
 30
0.0
 10
306.060546875
 20
62.8984375
 30
0.0
 10
292.98046875
 20
68.1982421875
 30
0.0
 10
281.0009765625
 20
75.48828125
 30
0.0
 10
268.9404296875
 20
82.748046875
 30
0.0
 10
261.5009765625
 20
87.23828125
 30
0.0
 10
255.5205078125
 20
94.0078125
 30
0.0
 10
248.37109375
 20
98.96875
 30
0.0
 10
238.310546875
 20
105.9384765625
 30
0.0
 10
225.560546875
 20
113.998046875
 30
0.0
 10
222.6904296875
 20
126.869140625
 30
0.0
 10
222.560546875
 20
127.427734375
 30
0.0
 10
222.4404296875
 20
127.98828125
 30
0.0
 10
222.3203125
 20
128.548828125
 30
0.0
  0
ENDBLK
  5
3F
330
3C
100
AcDbEntity
  8
0
100
AcDbBlockEnd
  0
BLOCK
  5
45
330
43
100
AcDbEntity
  8
0
100
AcDbBlockBegin
  2
block 3
 70
     0
 71
     0
 10
0.0
 20
0.0
 30
0.0
  3
block 3
  1

  0
SPLINE
  5
47
330
43
100
AcDbEntity
  8
Layer 1
 62
     7
370
    90
100
AcDbSpline
210
0.0
220
0.0
230
1.0
 70
    11
 71
     3
 72
    23
 73
    19
 74
     0
 42
0.0000000001
 43
0.0000000001
 40
0.0
 40
0.0
 40
0.0
 40
0.0
 40
1.0
 40
1.0
 40
1.0
 40
2.0
 40
2.0
 40
2.0
 40
3.0
 40
3.0
 40
3.0
 40
4.0
 40
4.0
 40
4.0
 40
5.0
 40
5.0
 40
5.0
 40
6.0
 40
6.0
 40
6.0
 40
6.0
 10
273.0400390625
 20
87.84765625
 30
0.0
 10
258.0498046875
 20
74.328125
 30
0.0
 10
173.6455078125
 20
-6.931640625
 30
0.0
 10
164.8251953125
 20
44.6513671875
 30
0.0
 10
161.3916015625
 20
64.732421875
 30
0.0
 10
166.9599609375
 20
68.90234375
 30
0.0
 10
149.1201171875
 20
78.720703125
 30
0.0
 10
141.4345703125
 20
82.94921875
 30
0.0
 10
139.3369140625
 20
85.384765625
 30
0.0
 10
135.37109375
 20
74.298828125
 30
0.0
 10
126.36328125
 20
49.1220703125
 30
0.0
 10
101.94921875
 20
29.52734375
 30
0.0
 10
80.302734375
 20
15.455078125
 30
0.0
 10
80.302734375
 20
15.455078125
 30
0.0
 10
250.2353515625
 20
22.18359375
 30
0.0
 10
250.2353515625
 20
22.18359375
 30
0.0
 10
253.154296875
 20
46.357421875
 30
0.0
 10
278.6787109375
 20
63.37890625
 30
0.0
 10
273.0400390625
 20
87.84765625
 30
0.0
  0
SPLINE
  5
48
330
43
100
AcDbEntity
  8
Layer 1
 62
     7
370
   100
100
AcDbSpline
210
0.0
220
0.0
230
1.0
 70
    11
 71
     3
 72
    14
 73
    10
 74
     0
 42
0.0000000001
 43
0.0000000001
 40
0.0
 40
0.0
 40
0.0
 40
0.0
 40
1.0
 40
1.0
 40
1.0
 40
2.0
 40
2.0
 40
2.0
 40
3.0
 40
3.0
 40
3.0
 40
3.0
 10
229.23046875
 20
35.3515625
 30
0.0
 10
220.20654296875
 20
32.3095703125
 30
0.0
 10
206.7197265625
 20
22.2841796875
 30
0.0
 10
193.7421875
 20
14.3388671875
 30
0.0
 10
193.7421875
 20
14.3388671875
 30
0.0
 10
224.2353515625
 20
15.18359375
 30
0.0
 10
224.2353515625
 20
15.18359375
 30
0.0
 10
224.7060546875
 20
22.26171875
 30
0.0
 10
228.0859375
 20
28.650390625
 30
0.0
 10
229.23046875
 20
35.3515625
 30
0.0
  0
SPLINE
  5
49
330
43
100
AcDbEntity
  8
Layer 1
 62
     7
370
   100
100
AcDbSpline
210
0.0
220
0.0
230
1.0
 70
    11
 71
     3
 72
    14
 73
    10
 74
     0
 42
0.0000000001
 43
0.0000000001
 40
0.0
 40
0.0
 40
0.0
 40
0.0
 40
1.0
 40
1.0
 40
1.0
 40
2.0
 40
2.0
 40
2.0
 40
3.0
 40
3.0
 40
3.0
 40
3.0
 10
165.8828125
 20
3.947265625
 30
0.0
 10
173.08056640625
 20
2.8447265625
 30
0.0
 10
183.2451171875
 20
7.912109375
 30
0.0
 10
193.7421875
 20
14.3388671875
 30
0.0
 10
193.7421875
 20
14.3388671875
 30
0.0
 10
158.92529296875
 20
13.3740234375
 30
0.0
 10
158.92529296875
 20
13.3740234375
 30
0.0
 10
161.09423828125
 20
8.455078125
 30
0.0
 10
163.3857421875
 20
4.7919921875
 30
0.0
 10
165.8828125
 20
3.947265625
 30
0.0
  0
SPLINE
  5
4A
330
43
100
AcDbEntity
  8
Layer 1
 62
     7
370
   100
100
AcDbSpline
210
0.0
220
0.0
230
1.0
 70
    11
 71
     3
 72
    14
 73
    10
 74
     0
 42
0.0000000001
 43
0.0000000001
 40
0.0
 40
0.0
 40
0.0
 40
0.0
 40
1.0
 40
1.0
 40
1.0
 40
2.0
 40
2.0
 40
2.0
 40
3.0
 40
3.0
 40
3.0
 40
3.0
 10
140.7509765625
 20
49.71875
 30
0.0
 10
126.3359375
 20
41.26953125
 30
0.0
 10
103.96484375
 20
23.7255859375
 30
0.0
 10
91.90234375
 20
11.517578125
 30
0.0
 10
91.90234375
 20
11.517578125
 30
0.0
 10
158.92529296875
 20
13.3740234375
 30
0.0
 10
158.92529296875
 20
13.3740234375
 30
0.0
 10
152.50927734375
 20
27.9228515625
 30
0.0
 10
147.16455078125
 20
53.474609375
 30
0.0
 10
140.7509765625
 20
49.71875
 30
0.0
  0
SPLINE
  5
4B
330
43
100
AcDbEntity
  8
Layer 1
 62
     7
370
    90
100
AcDbSpline
210
0.0
220
0.0
230
1.0
 70
    11
 71
     3
 72
    20
 73
    16
 74
     0
 42
0.0000000001
 43
0.0000000001
 40
0.0
 40
0.0
 40
0.0
 40
0.0
 40
1.0
 40
1.0
 40
1.0
 40
2.0
 40
2.0
 40
2.0
 40
3.0
 40
3.0
 40
3.0
 40
4.0
 40
4.0
 40
4.0
 40
5.0
 40
5.0
 40
5.0
 40
5.0
 10
281.232421875
 20
114.828125
 30
0.0
 10
263.07421875
 20
111.2080078125
 30
0.0
 10
195.611328125
 20
-3.0859375
 30
0.0
 10
178.080078125
 20
65.76953125
 30
0.0
 10
174.0439453125
 20
81.6220703125
 30
0.0
 10
144.4931640625
 20
124.703125
 30
0.0
 10
128.46484375
 20
96.845703125
 30
0.0
 10
117.109375
 20
77.1123046875
 30
0.0
 10
108.4638671875
 20
40.10546875
 30
0.0
 10
79.2353515625
 20
38.18359375
 30
0.0
 10
79.2353515625
 20
38.18359375
 30
0.0
 10
272.568359375
 20
27.849609375
 30
0.0
 10
272.568359375
 20
27.849609375
 30
0.0
 10
273.8701171875
 20
59.001953125
 30
0.0
 10
302.7294921875
 20
80.01953125
 30
0.0
 10
281.232421875
 20
114.828125
 30
0.0
  0
SPLINE
  5
4C
330
43
100
AcDbEntity
  8
Layer 1
 62
     7
370
   100
100
AcDbSpline
210
0.0
220
0.0
230
1.0
 70
    11
 71
     3
 72
    14
 73
    10
 74
     0
 42
0.0000000001
 43
0.0000000001
 40
0.0
 40
0.0
 40
0.0
 40
0.0
 40
1.0
 40
1.0
 40
1.0
 40
2.0
 40
2.0
 40
2.0
 40
3.0
 40
3.0
 40
3.0
 40
3.0
 10
368.8828125
 20
48.947265625
 30
0.0
 10
383.5576171875
 20
41.6630859375
 30
0.0
 10
394.1201171875
 20
47.0966796875
 30
0.0
 10
402.169921875
 20
57.265625
 30
0.0
 10
402.169921875
 20
57.265625
 30
0.0
 10
353.27197265625
 20
70.9482421875
 30
0.0
 10
353.27197265625
 20
70.9482421875
 30
0.0
 10
356.9892578125
 20
60.4755859375
 30
0.0
 10
362.0703125
 20
52.3291015625
 30
0.0
 10
368.8828125
 20
48.947265625
 30
0.0
  0
SPLINE
  5
4D
330
43
100
AcDbEntity
  8
Layer 1
 62
     7
370
   100
100
AcDbSpline
210
0.0
220
0.0
230
1.0
 70
    11
 71
     3
 72
    23
 73
    19
 74
     0
 42
0.0000000001
 43
0.0000000001
 40
0.0
 40
0.0
 40
0.0
 40
0.0
 40
1.0
 40
1.0
 40
1.0
 40
2.0
 40
2.0
 40
2.0
 40
3.0
 40
3.0
 40
3.0
 40
4.0
 40
4.0
 40
4.0
 40
5.0
 40
5.0
 40
5.0
 40
6.0
 40
6.0
 40
6.0
 40
6.0
 10
487.7265625
 20
139.9599609375
 30
0.0
 10
478.73828125
 20
133.4453125
 30
0.0
 10
465.380859375
 20
136.705078125
 30
0.0
 10
455.01171875
 20
134.701171875
 30
0.0
 10
436.759765625
 20
131.173828125
 30
0.0
 10
432.841796875
 20
121.5224609375
 30
0.0
 10
424.416015625
 20
103.62109375
 30
0.0
 10
418.919921875
 20
91.943359375
 30
0.0
 10
412.6923828125
 20
70.5576171875
 30
0.0
 10
402.169921875
 20
57.265625
 30
0.0
 10
402.169921875
 20
57.265625
 30
0.0
 10
488.2353515625
 20
33.18359375
 30
0.0
 10
488.2353515625
 20
33.18359375
 30
0.0
 10
496.1142578125
 20
56.599609375
 30
0.0
 10
483.83203125
 20
85.474609375
 30
0.0
 10
496.5068359375
 20
107.287109375
 30
0.0
 10
501.6494140625
 20
116.140625
 30
0.0
 10
493.2890625
 20
131.16015625
 30
0.0
 10
487.7265625
 20
139.9599609375
 30
0.0
  0
SPLINE
  5
4E
330
43
100
AcDbEntity
  8
Layer 1
 62
     7
370
   100
100
AcDbSpline
210
0.0
220
0.0
230
1.0
 70
    11
 71
     3
 72
    32
 73
    28
 74
     0
 42
0.0000000001
 43
0.0000000001
 40
0.0
 40
0.0
 40
0.0
 40
0.0
 40
1.0
 40
1.0
 40
1.0
 40
2.0
 40
2.0
 40
2.0
 40
3.0
 40
3.0
 40
3.0
 40
4.0
 40
4.0
 40
4.0
 40
5.0
 40
5.0
 40
5.0
 40
6.0
 40
6.0
 40
6.0
 40
7.0
 40
7.0
 40
7.0
 40
8.0
 40
8.0
 40
8.0
 40
9.0
 40
9.0
 40
9.0
 40
9.0
 10
345.3974609375
 20
156.484375
 30
0.0
 10
348.78955078125
 20
181.259765625
 30
0.0
 10
391.6640625
 20
214.62109375
 30
0.0
 10
379.943359375
 20
239.9697265625
 30
0.0
 10
376.390625
 20
241.82080078125
 30
0.0
 10
353.94775390625
 20
230.2236328125
 30
0.0
 10
350.93359375
 20
229.59375
 30
0.0
 10
337.23828125
 20
226.7353515625
 30
0.0
 10
322.482421875
 20
227.63671875
 30
0.0
 10
310.087890625
 20
234.662109375
 30
0.0
 10
295.642578125
 20
236.826171875
 30
0.0
 10
277.5302734375
 20
217.3935546875
 30
0.0
 10
271.4423828125
 20
206.826171875
 30
0.0
 10
253.5029296875
 20
187.81640625
 30
0.0
 10
234.4609375
 20
158.09765625
 30
0.0
 10
203.8759765625
 20
165.9501953125
 30
0.0
 10
175.302734375
 20
173.287109375
 30
0.0
 10
146.38671875
 20
191.333984375
 30
0.0
 10
115.8828125
 20
182.419921875
 30
0.0
 10
98.5048828125
 20
174.5673828125
 30
0.0
 10
84.3994140625
 20
161.4189453125
 30
0.0
 10
68.90234375
 20
150.517578125
 30
0.0
 10
68.90234375
 20
150.517578125
 30
0.0
 10
353.27197265625
 20
70.9482421875
 30
0.0
 10
353.27197265625
 20
70.9482421875
 30
0.0
 10
343.708984375
 20
97.8837890625
 30
0.0
 10
343.16943359375
 20
140.21484375
 30
0.0
 10
345.3974609375
 20
156.484375
 30
0.0
  0
SPLINE
  5
4F
330
43
100
AcDbEntity
  8
Layer 1
 62
     7
370
    90
100
AcDbSpline
210
0.0
220
0.0
230
1.0
 70
    11
 71
     3
 72
    14
 73
    10
 74
     0
 42
0.0000000001
 43
0.0000000001
 40
0.0
 40
0.0
 40
0.0
 40
0.0
 40
1.0
 40
1.0
 40
1.0
 40
2.0
 40
2.0
 40
2.0
 40
3.0
 40
3.0
 40
3.0
 40
3.0
 10
82.2265625
 20
61.2412109375
 30
0.0
 10
82.4365234375
 20
61.4140625
 30
0.0
 10
82.646484375
 20
61.5966796875
 30
0.0
 10
82.857421875
 20
61.78125
 30
0.0
 10
82.857421875
 20
61.78125
 30
0.0
 10
79.5380859375
 20
62.2333984375
 30
0.0
 10
79.5380859375
 20
62.2333984375
 30
0.0
 10
80.37939453125
 20
61.69921875
 30
0.0
 10
81.2314453125
 20
61.1279296875
 30
0.0
 10
82.2265625
 20
61.2412109375
 30
0.0
  0
SPLINE
  5
50
330
43
100
AcDbEntity
  8
Layer 1
 62
     7
370
    90
100
AcDbSpline
210
0.0
220
0.0
230
1.0
 70
    11
 71
     3
 72
    20
 73
    16
 74
     0
 42
0.0000000001
 43
0.0000000001
 40
0.0
 40
0.0
 40
0.0
 40
0.0
 40
1.0
 40
1.0
 40
1.0
 40
2.0
 40
2.0
 40
2.0
 40
3.0
 40
3.0
 40
3.0
 40
4.0
 40
4.0
 40
4.0
 40
5.0
 40
5.0
 40
5.0
 40
5.0
 10
300.8994140625
 20
156.919921875
 30
0.0
 10
295.8818359375
 20
163.7802734375
 30
0.0
 10
229.09375
 20
43.501953125
 30
0.0
 10
192.109375
 20
84.896484375
 30
0.0
 10
180.677734375
 20
97.69140625
 30
0.0
 10
157.0263671875
 20
130.19921875
 30
0.0
 10
135.595703125
 20
125.19921875
 30
0.0
 10
116.861328125
 20
120.8291015625
 30
0.0
 10
98.515625
 20
75.513671875
 30
0.0
 10
82.857421875
 20
61.78125
 30
0.0
 10
82.857421875
 20
61.78125
 30
0.0
 10
292.7353515625
 20
33.18359375
 30
0.0
 10
292.7353515625
 20
33.18359375
 30
0.0
 10
314.4140625
 20
72.30078125
 30
0.0
 10
292.470703125
 20
134.3984375
 30
0.0
 10
300.8994140625
 20
156.919921875
 30
0.0
  0
SPLINE
  5
51
330
43
100
AcDbEntity
  8
Layer 1
 62
     7
370
    90
100
AcDbSpline
210
0.0
220
0.0
230
1.0
 70
    11
 71
     3
 72
    11
 73
     7
 74
     0
 42
0.0000000001
 43
0.0000000001
 40
0.0
 40
0.0
 40
0.0
 40
0.0
 40
1.0
 40
1.0
 40
1.0
 40
2.0
 40
2.0
 40
2.0
 40
2.0
 10
76.2353515625
 20
62.68359375
 30
0.0
 10
76.2353515625
 20
62.68359375
 30
0.0
 10
79.5380859375
 20
62.2333984375
 30
0.0
 10
79.5380859375
 20
62.2333984375
 30
0.0
 10
78.5029296875
 20
62.890625
 30
0.0
 10
77.484375
 20
63.490234375
 30
0.0
 10
76.2353515625
 20
62.68359375
 30
0.0
  0
SPLINE
  5
52
330
43
100
AcDbEntity
  8
Layer 1
 62
     7
370
    90
100
AcDbSpline
210
0.0
220
0.0
230
1.0
 70
    11
 71
     3
 72
    17
 73
    13
 74
     0
 42
0.0000000001
 43
0.0000000001
 40
0.0
 40
0.0
 40
0.0
 40
0.0
 40
1.0
 40
1.0
 40
1.0
 40
2.0
 40
2.0
 40
2.0
 40
3.0
 40
3.0
 40
3.0
 40
4.0
 40
4.0
 40
4.0
 40
4.0
 10
459.966796875
 20
108.013671875
 30
0.0
 10
446.5185546875
 20
104.931640625
 30
0.0
 10
433.810546875
 20
75.7666015625
 30
0.0
 10
430.1416015625
 20
64.6171875
 30
0.0
 10
424.962890625
 20
48.8759765625
 30
0.0
 10
415.830078125
 20
47.552734375
 30
0.0
 10
404.2353515625
 20
37.18359375
 30
0.0
 10
404.2353515625
 20
37.18359375
 30
0.0
 10
473.7353515625
 20
44.18359375
 30
0.0
 10
473.7353515625
 20
44.18359375
 30
0.0
 10
472.958984375
 20
54.7783203125
 30
0.0
 10
485.6171875
 20
113.89453125
 30
0.0
 10
459.966796875
 20
108.013671875
 30
0.0
  0
SPLINE
  5
53
330
43
100
AcDbEntity
  8
Layer 1
 62
     7
370
    90
100
AcDbSpline
210
0.0
220
0.0
230
1.0
 70
    11
 71
     3
 72
    20
 73
    16
 74
     0
 42
0.0000000001
 43
0.0000000001
 40
0.0
 40
0.0
 40
0.0
 40
0.0
 40
1.0
 40
1.0
 40
1.0
 40
2.0
 40
2.0
 40
2.0
 40
3.0
 40
3.0
 40
3.0
 40
4.0
 40
4.0
 40
4.0
 40
5.0
 40
5.0
 40
5.0
 40
5.0
 10
320.7783203125
 20
191.8515625
 30
0.0
 10
278.9619140625
 20
191.751953125
 30
0.0
 10
251.8212890625
 20
86.8447265625
 30
0.0
 10
205.6376953125
 20
106.013671875
 30
0.0
 10
192.6396484375
 20
111.408203125
 30
0.0
 10
148.2646484375
 20
151.23828125
 30
0.0
 10
134.2939453125
 20
143.736328125
 30
0.0
 10
114.6357421875
 20
133.1630859375
 30
0.0
 10
98.2275390625
 20
90.947265625
 30
0.0
 10
73.90234375
 20
89.517578125
 30
0.0
 10
73.90234375
 20
89.517578125
 30
0.0
 10
313.7353515625
 20
39.18359375
 30
0.0
 10
313.7353515625
 20
39.18359375
 30
0.0
 10
320.4404296875
 20
50.4609375
 30
0.0
 10
307.5205078125
 20
191.81640625
 30
0.0
 10
320.7783203125
 20
191.8515625
 30
0.0
  0
SPLINE
  5
54
330
43
100
AcDbEntity
  8
Layer 1
 62
     7
370
    90
100
AcDbSpline
210
0.0
220
0.0
230
1.0
 70
    11
 71
     3
 72
    23
 73
    19
 74
     0
 42
0.0000000001
 43
0.0000000001
 40
0.0
 40
0.0
 40
0.0
 40
0.0
 40
1.0
 40
1.0
 40
1.0
 40
2.0
 40
2.0
 40
2.0
 40
3.0
 40
3.0
 40
3.0
 40
4.0
 40
4.0
 40
4.0
 40
5.0
 40
5.0
 40
5.0
 40
6.0
 40
6.0
 40
6.0
 40
6.0
 10
327.962890625
 20
140.67578125
 30
0.0
 10
328.7158203125
 20
163.1845703125
 30
0.0
 10
347.5263671875
 20
187.0087890625
 30
0.0
 10
347.7587890625
 20
205.7021484375
 30
0.0
 10
305.2568359375
 20
250.19970703125
 30
0.0
 10
251.63671875
 20
132.3125
 30
0.0
 10
216.4794921875
 20
132.419921875
 30
0.0
 10
183.7421875
 20
132.51953125
 30
0.0
 10
161.943359375
 20
168.1904296875
 30
0.0
 10
127.201171875
 20
157.6875
 30
0.0
 10
105.71875
 20
151.193359375
 30
0.0
 10
95.7998046875
 20
123.875
 30
0.0
 10
72.90234375
 20
121.517578125
 30
0.0
 10
72.90234375
 20
121.517578125
 30
0.0
 10
334.7353515625
 20
44.18359375
 30
0.0
 10
334.7353515625
 20
44.18359375
 30
0.0
 10
333.8134765625
 20
76.44140625
 30
0.0
 10
326.880859375
 20
108.322265625
 30
0.0
 10
327.962890625
 20
140.67578125
 30
0.0
  0
SPLINE
  5
55
330
43
100
AcDbEntity
  8
Layer 1
 62
     7
370
    90
100
AcDbSpline
210
0.0
220
0.0
230
1.0
 70
    11
 71
     3
 72
    11
 73
     7
 74
     0
 42
0.0000000001
 43
0.0000000001
 40
0.0
 40
0.0
 40
0.0
 40
0.0
 40
1.0
 40
1.0
 40
1.0
 40
2.0
 40
2.0
 40
2.0
 40
2.0
 10
207.7353515625
 20
332.68359375
 30
0.0
 10
216.8330078125
 20
320.54150390625
 30
0.0
 10
230.1884765625
 20
313.69482421875
 30
0.0
 10
244.64990234375
 20
309.84765625
 30
0.0
 10
244.64990234375
 20
309.84765625
 30
0.0
 10
207.7353515625
 20
332.68359375
 30
0.0
 10
207.7353515625
 20
332.68359375
 30
0.0
  0
SPLINE
  5
56
330
43
100
AcDbEntity
  8
Layer 1
 62
     7
370
    90
100
AcDbSpline
210
0.0
220
0.0
230
1.0
 70
    11
 71
     3
 72
    29
 73
    25
 74
     0
 42
0.0000000001
 43
0.0000000001
 40
0.0
 40
0.0
 40
0.0
 40
0.0
 40
1.0
 40
1.0
 40
1.0
 40
2.0
 40
2.0
 40
2.0
 40
3.0
 40
3.0
 40
3.0
 40
4.0
 40
4.0
 40
4.0
 40
5.0
 40
5.0
 40
5.0
 40
6.0
 40
6.0
 40
6.0
 40
7.0
 40
7.0
 40
7.0
 40
8.0
 40
8.0
 40
8.0
 40
8.0
 10
585.001953125
 20
161.83984375
 30
0.0
 10
569.0390625
 20
187.5400390625
 30
0.0
 10
543.833984375
 20
198.015625
 30
0.0
 10
535.287109375
 20
230.2314453125
 30
0.0
 10
521.78515625
 20
281.25537109375
 30
0.0
 10
468.54296875
 20
223.072265625
 30
0.0
 10
454.884765625
 20
267.18359375
 30
0.0
 10
449.232421875
 20
285.4384765625
 30
0.0
 10
452.779296875
 20
305.05322265625
 30
0.0
 10
430.443359375
 20
311.6884765625
 30
0.0
 10
405.9365234375
 20
318.96875
 30
0.0
 10
385.744140625
 20
307.96142578125
 30
0.0
 10
360.25439453125
 20
303.537109375
 30
0.0
 10
333.5078125
 20
298.89501953125
 30
0.0
 10
308.2685546875
 20
304.39306640625
 30
0.0
 10
281.67578125
 20
305.15234375
 30
0.0
 10
269.80126953125
 20
305.49169921875
 30
0.0
 10
256.83349609375
 20
306.60595703125
 30
0.0
 10
244.64990234375
 20
309.84765625
 30
0.0
 10
244.64990234375
 20
309.84765625
 30
0.0
 10
606.5
 20
86.0
 30
0.0
 10
606.5
 20
86.0
 30
0.0
 10
599.6435546875
 20
110.556640625
 30
0.0
 10
599.005859375
 20
139.29296875
 30
0.0
 10
585.001953125
 20
161.83984375
 30
0.0
  0
SPLINE
  5
57
330
43
100
AcDbEntity
  8
Layer 1
 62
     7
370
    90
100
AcDbSpline
210
0.0
220
0.0
230
1.0
 70
    11
 71
     3
 72
    11
 73
     7
 74
     0
 42
0.0000000001
 43
0.0000000001
 40
0.0
 40
0.0
 40
0.0
 40
0.0
 40
1.0
 40
1.0
 40
1.0
 40
2.0
 40
2.0
 40
2.0
 40
2.0
 10
105.36279296875
 20
205.677734375
 30
0.0
 10
105.36279296875
 20
205.677734375
 30
0.0
 10
83.2353515625
 20
206.68359375
 30
0.0
 10
83.2353515625
 20
206.68359375
 30
0.0
 10
90.47705078125
 20
204.896484375
 30
0.0
 10
97.86279296875
 20
204.953125
 30
0.0
 10
105.36279296875
 20
205.677734375
 30
0.0
  0
SPLINE
  5
58
330
43
100
AcDbEntity
  8
Layer 1
 62
     7
370
    90
100
AcDbSpline
210
0.0
220
0.0
230
1.0
 70
    11
 71
     3
 72
    11
 73
     7
 74
     0
 42
0.0000000001
 43
0.0000000001
 40
0.0
 40
0.0
 40
0.0
 40
0.0
 40
1.0
 40
1.0
 40
1.0
 40
2.0
 40
2.0
 40
2.0
 40
2.0
 10
215.2353515625
 20
200.68359375
 30
0.0
 10
215.2353515625
 20
200.68359375
 30
0.0
 10
178.40380859375
 20
202.357421875
 30
0.0
 10
178.40380859375
 20
202.357421875
 30
0.0
 10
190.62451171875
 20
199.7216796875
 30
0.0
 10
203.09130859375
 20
198.1484375
 30
0.0
 10
215.2353515625
 20
200.68359375
 30
0.0
  0
SPLINE
  5
59
330
43
100
AcDbEntity
  8
Layer 1
 62
     7
370
    90
100
AcDbSpline
210
0.0
220
0.0
230
1.0
 70
    11
 71
     3
 72
    14
 73
    10
 74
     0
 42
0.0000000001
 43
0.0000000001
 40
0.0
 40
0.0
 40
0.0
 40
0.0
 40
1.0
 40
1.0
 40
1.0
 40
2.0
 40
2.0
 40
2.0
 40
3.0
 40
3.0
 40
3.0
 40
3.0
 10
155.333984375
 20
207.9404296875
 30
0.0
 10
138.33251953125
 20
211.9453125
 30
0.0
 10
121.57958984375
 20
207.2451171875
 30
0.0
 10
105.36279296875
 20
205.677734375
 30
0.0
 10
105.36279296875
 20
205.677734375
 30
0.0
 10
178.40380859375
 20
202.357421875
 30
0.0
 10
178.40380859375
 20
202.357421875
 30
0.0
 10
170.56201171875
 20
204.048828125
 30
0.0
 10
162.82177734375
 20
206.1767578125
 30
0.0
 10
155.333984375
 20
207.9404296875
 30
0.0
  0
SPLINE
  5
5A
330
43
100
AcDbEntity
  8
Layer 1
 62
     7
370
    90
100
AcDbSpline
210
0.0
220
0.0
230
1.0
 70
    11
 71
     3
 72
    26
 73
    22
 74
     0
 42
0.0000000001
 43
0.0000000001
 40
0.0
 40
0.0
 40
0.0
 40
0.0
 40
1.0
 40
1.0
 40
1.0
 40
2.0
 40
2.0
 40
2.0
 40
3.0
 40
3.0
 40
3.0
 40
4.0
 40
4.0
 40
4.0
 40
5.0
 40
5.0
 40
5.0
 40
6.0
 40
6.0
 40
6.0
 40
7.0
 40
7.0
 40
7.0
 40
7.0
 10
409.404296875
 20
259.4677734375
 30
0.0
 10
407.7939453125
 20
260.7763671875
 30
0.0
 10
369.51171875
 20
257.99853515625
 30
0.0
 10
366.013671875
 20
256.48828125
 30
0.0
 10
344.78271484375
 20
247.32373046875
 30
0.0
 10
331.26171875
 20
252.8916015625
 30
0.0
 10
309.70703125
 20
256.9228515625
 30
0.0
 10
304.033203125
 20
257.984375
 30
0.0
 10
278.201171875
 20
241.06494140625
 30
0.0
 10
273.451171875
 20
238.68359375
 30
0.0
 10
252.0888671875
 20
227.9765625
 30
0.0
 10
238.53125
 20
209.2724609375
 30
0.0
 10
215.2353515625
 20
200.68359375
 30
0.0
 10
215.2353515625
 20
200.68359375
 30
0.0
 10
370.1962890625
 20
108.2109375
 30
0.0
 10
370.1962890625
 20
108.2109375
 30
0.0
 10
369.5263671875
 20
111.91015625
 30
0.0
 10
369.05078125
 20
116.4482421875
 30
0.0
 10
368.802734375
 20
121.94140625
 30
0.0
 10
366.787109375
 20
166.53515625
 30
0.0
 10
421.5009765625
 20
217.779296875
 30
0.0
 10
409.404296875
 20
259.4677734375
 30
0.0
  0
SPLINE
  5
5B
330
43
100
AcDbEntity
  8
Layer 1
 62
     7
370
    90
100
AcDbSpline
210
0.0
220
0.0
230
1.0
 70
    11
 71
     3
 72
    11
 73
     7
 74
     0
 42
0.0000000001
 43
0.0000000001
 40
0.0
 40
0.0
 40
0.0
 40
0.0
 40
1.0
 40
1.0
 40
1.0
 40
2.0
 40
2.0
 40
2.0
 40
2.0
 10
386.6767578125
 20
98.376953125
 30
0.0
 10
386.6767578125
 20
98.376953125
 30
0.0
 10
370.1962890625
 20
108.2109375
 30
0.0
 10
370.1962890625
 20
108.2109375
 30
0.0
 10
372.98046875
 20
92.845703125
 30
0.0
 10
379.15625
 20
92.0498046875
 30
0.0
 10
386.6767578125
 20
98.376953125
 30
0.0
  0
SPLINE
  5
5C
330
43
100
AcDbEntity
  8
Layer 1
 62
     7
370
    90
100
AcDbSpline
210
0.0
220
0.0
230
1.0
 70
    11
 71
     3
 72
    23
 73
    19
 74
     0
 42
0.0000000001
 43
0.0000000001
 40
0.0
 40
0.0
 40
0.0
 40
0.0
 40
1.0
 40
1.0
 40
1.0
 40
2.0
 40
2.0
 40
2.0
 40
3.0
 40
3.0
 40
3.0
 40
4.0
 40
4.0
 40
4.0
 40
5.0
 40
5.0
 40
5.0
 40
6.0
 40
6.0
 40
6.0
 40
6.0
 10
513.314453125
 20
88.9287109375
 30
0.0
 10
515.66796875
 20
102.056640625
 30
0.0
 10
539.419921875
 20
114.220703125
 30
0.0
 10
536.4375
 20
125.5498046875
 30
0.0
 10
532.8642578125
 20
129.203125
 30
0.0
 10
483.4921875
 20
162.4033203125
 30
0.0
 10
490.2314453125
 20
166.251953125
 30
0.0
 10
475.5634765625
 20
157.8759765625
 30
0.0
 10
450.1328125
 20
168.3408203125
 30
0.0
 10
432.26953125
 20
162.8603515625
 30
0.0
 10
423.232421875
 20
154.380859375
 30
0.0
 10
402.12109375
 20
111.369140625
 30
0.0
 10
386.6767578125
 20
98.376953125
 30
0.0
 10
386.6767578125
 20
98.376953125
 30
0.0
 10
522.7353515625
 20
17.18359375
 30
0.0
 10
522.7353515625
 20
17.18359375
 30
0.0
 10
517.23046875
 20
40.0087890625
 30
0.0
 10
509.060546875
 20
65.1953125
 30
0.0
 10
513.314453125
 20
88.9287109375
 30
0.0
  0
SPLINE
  5
5D
330
43
100
AcDbEntity
  8
Layer 1
 62
     7
370
   100
100
AcDbSpline
210
0.0
220
0.0
230
1.0
 70
    11
 71
     3
 72
    11
 73
     7
 74
     0
 42
0.0000000001
 43
0.0000000001
 40
0.0
 40
0.0
 40
0.0
 40
0.0
 40
1.0
 40
1.0
 40
1.0
 40
2.0
 40
2.0
 40
2.0
 40
2.0
 10
373.615234375
 20
344.7109375
 30
0.0
 10
373.615234375
 20
344.7109375
 30
0.0
 10
291.7353515625
 20
381.18359375
 30
0.0
 10
291.7353515625
 20
381.18359375
 30
0.0
 10
317.779296875
 20
348.4951171875
 30
0.0
 10
336.66748046875
 20
345.3681640625
 30
0.0
 10
373.615234375
 20
344.7109375
 30
0.0
  0
SPLINE
  5
5E
330
43
100
AcDbEntity
  8
Layer 1
 62
     7
370
   100
100
AcDbSpline
210
0.0
220
0.0
230
1.0
 70
    11
 71
     3
 72
    20
 73
    16
 74
     0
 42
0.0000000001
 43
0.0000000001
 40
0.0
 40
0.0
 40
0.0
 40
0.0
 40
1.0
 40
1.0
 40
1.0
 40
2.0
 40
2.0
 40
2.0
 40
3.0
 40
3.0
 40
3.0
 40
4.0
 40
4.0
 40
4.0
 40
5.0
 40
5.0
 40
5.0
 40
5.0
 10
478.244140625
 20
326.4091796875
 30
0.0
 10
447.169921875
 20
358.0546875
 30
0.0
 10
419.427734375
 20
344.140625
 30
0.0
 10
379.6767578125
 20
344.62109375
 30
0.0
 10
377.59765625
 20
344.64599609375
 30
0.0
 10
375.5869140625
 20
344.67578125
 30
0.0
 10
373.615234375
 20
344.7109375
 30
0.0
 10
373.615234375
 20
344.7109375
 30
0.0
 10
573.7158203125
 20
255.578125
 30
0.0
 10
573.7158203125
 20
255.578125
 30
0.0
 10
568.1591796875
 20
262.029296875
 30
0.0
 10
564.3740234375
 20
270.1044921875
 30
0.0
 10
559.517578125
 20
277.29638671875
 30
0.0
 10
541.8720703125
 20
303.42724609375
 30
0.0
 10
500.880859375
 20
303.35595703125
 30
0.0
 10
478.244140625
 20
326.4091796875
 30
0.0
  0
SPLINE
  5
5F
330
43
100
AcDbEntity
  8
Layer 1
 62
     7
370
   100
100
AcDbSpline
210
0.0
220
0.0
230
1.0
 70
    11
 71
     3
 72
    11
 73
     7
 74
     0
 42
0.0000000001
 43
0.0000000001
 40
0.0
 40
0.0
 40
0.0
 40
0.0
 40
1.0
 40
1.0
 40
1.0
 40
2.0
 40
2.0
 40
2.0
 40
2.0
 10
605.8232421875
 20
241.27587890625
 30
0.0
 10
605.8232421875
 20
241.27587890625
 30
0.0
 10
626.2353515625
 20
232.18359375
 30
0.0
 10
626.2353515625
 20
232.18359375
 30
0.0
 10
620.4697265625
 20
237.5654296875
 30
0.0
 10
613.2607421875
 20
239.6787109375
 30
0.0
 10
605.8232421875
 20
241.27587890625
 30
0.0
  0
SPLINE
  5
60
330
43
100
AcDbEntity
  8
Layer 1
 62
     7
370
   100
100
AcDbSpline
210
0.0
220
0.0
230
1.0
 70
    11
 71
     3
 72
    14
 73
    10
 74
     0
 42
0.0000000001
 43
0.0000000001
 40
0.0
 40
0.0
 40
0.0
 40
0.0
 40
1.0
 40
1.0
 40
1.0
 40
2.0
 40
2.0
 40
2.0
 40
3.0
 40
3.0
 40
3.0
 40
3.0
 10
573.7158203125
 20
255.578125
 30
0.0
 10
576.9462890625
 20
251.826171875
 30
0.0
 10
580.7734375
 20
248.62060546875
 30
0.0
 10
585.767578125
 20
246.4658203125
 30
0.0
 10
592.025390625
 20
243.76611328125
 30
0.0
 10
599.0205078125
 20
242.73681640625
 30
0.0
 10
605.8232421875
 20
241.27587890625
 30
0.0
 10
605.8232421875
 20
241.27587890625
 30
0.0
 10
573.7158203125
 20
255.578125
 30
0.0
 10
573.7158203125
 20
255.578125
 30
0.0
  0
SPLINE
  5
61
330
43
100
AcDbEntity
  8
Layer 1
 62
     7
370
    90
100
AcDbSpline
210
0.0
220
0.0
230
1.0
 70
    11
 71
     3
 72
    14
 73
    10
 74
     0
 42
0.0000000001
 43
0.0000000001
 40
0.0
 40
0.0
 40
0.0
 40
0.0
 40
1.0
 40
1.0
 40
1.0
 40
2.0
 40
2.0
 40
2.0
 40
3.0
 40
3.0
 40
3.0
 40
3.0
 10
175.662109375
 20
239.1376953125
 30
0.0
 10
179.91162109375
 20
238.1044921875
 30
0.0
 10
184.1103515625
 20
237.4248046875
 30
0.0
 10
188.259765625
 20
237.064453125
 30
0.0
 10
188.259765625
 20
237.064453125
 30
0.0
 10
123.90234375
 20
277.85009765625
 30
0.0
 10
123.90234375
 20
277.85009765625
 30
0.0
 10
143.076171875
 20
262.89892578125
 30
0.0
 10
148.814453125
 20
245.66162109375
 30
0.0
 10
175.662109375
 20
239.1376953125
 30
0.0
  0
SPLINE
  5
62
330
43
100
AcDbEntity
  8
Layer 1
 62
     7
370
    90
100
AcDbSpline
210
0.0
220
0.0
230
1.0
 70
    11
 71
     3
 72
    41
 73
    37
 74
     0
 42
0.0000000001
 43
0.0000000001
 40
0.0
 40
0.0
 40
0.0
 40
0.0
 40
1.0
 40
1.0
 40
1.0
 40
2.0
 40
2.0
 40
2.0
 40
3.0
 40
3.0
 40
3.0
 40
4.0
 40
4.0
 40
4.0
 40
5.0
 40
5.0
 40
5.0
 40
6.0
 40
6.0
 40
6.0
 40
7.0
 40
7.0
 40
7.0
 40
8.0
 40
8.0
 40
8.0
 40
9.0
 40
9.0
 40
9.0
 40
10.0
 40
10.0
 40
10.0
 40
11.0
 40
11.0
 40
11.0
 40
12.0
 40
12.0
 40
12.0
 40
12.0
 10
560.48046875
 20
122.52734375
 30
0.0
 10
569.826171875
 20
141.7431640625
 30
0.0
 10
533.2646484375
 20
157.8740234375
 30
0.0
 10
521.9794921875
 20
171.1630859375
 30
0.0
 10
518.974609375
 20
174.703125
 30
0.0
 10
499.974609375
 20
218.931640625
 30
0.0
 10
502.0908203125
 20
218.85546875
 30
0.0
 10
496.2080078125
 20
219.0712890625
 30
0.0
 10
487.447265625
 20
208.6279296875
 30
0.0
 10
477.78125
 20
208.884765625
 30
0.0
 10
464.501953125
 20
209.23828125
 30
0.0
 10
455.76171875
 20
207.63671875
 30
0.0
 10
444.9423828125
 20
199.5546875
 30
0.0
 10
419.388671875
 20
180.4638671875
 30
0.0
 10
427.302734375
 20
229.0908203125
 30
0.0
 10
428.54296875
 20
238.658203125
 30
0.0
 10
430.900390625
 20
256.8310546875
 30
0.0
 10
435.798828125
 20
279.93798828125
 30
0.0
 10
419.5234375
 20
292.6875
 30
0.0
 10
414.615234375
 20
296.53271484375
 30
0.0
 10
369.05859375
 20
281.23681640625
 30
0.0
 10
359.3671875
 20
279.78515625
 30
0.0
 10
316.1494140625
 20
273.31201171875
 30
0.0
 10
275.537109375
 20
271.64404296875
 30
0.0
 10
237.0078125
 20
248.8251953125
 30
0.0
 10
221.6552734375
 20
239.732421875
 30
0.0
 10
205.38671875
 20
235.580078125
 30
0.0
 10
188.259765625
 20
237.064453125
 30
0.0
 10
188.259765625
 20
237.064453125
 30
0.0
 10
555.7353515625
 20
4.18359375
 30
0.0
 10
555.7353515625
 20
4.18359375
 30
0.0
 10
555.7353515625
 20
26.08203125
 30
0.0
 10
537.056640625
 20
43.44140625
 30
0.0
 10
538.453125
 20
67.984375
 30
0.0
 10
539.662109375
 20
89.212890625
 30
0.0
 10
551.6025390625
 20
104.275390625
 30
0.0
 10
560.48046875
 20
122.52734375
 30
0.0
  0
SPLINE
  5
63
330
43
100
AcDbEntity
  8
Layer 1
 62
     7
370
    90
100
AcDbSpline
210
0.0
220
0.0
230
1.0
 70
    11
 71
     3
 72
    14
 73
    10
 74
     0
 42
0.0000000001
 43
0.0000000001
 40
0.0
 40
0.0
 40
0.0
 40
0.0
 40
1.0
 40
1.0
 40
1.0
 40
2.0
 40
2.0
 40
2.0
 40
3.0
 40
3.0
 40
3.0
 40
3.0
 10
398.2353515625
 20
449.18359375
 30
0.0
 10
389.4267578125
 20
390.15625
 30
0.0
 10
461.24609375
 20
408.1455078125
 30
0.0
 10
494.166015625
 20
393.9423828125
 30
0.0
 10
533.345703125
 20
377.0390625
 30
0.0
 10
581.21484375
 20
332.2607421875
 30
0.0
 10
626.2353515625
 20
354.68359375
 30
0.0
 10
626.2353515625
 20
354.68359375
 30
0.0
 10
398.2353515625
 20
449.18359375
 30
0.0
 10
398.2353515625
 20
449.18359375
 30
0.0
  0
SPLINE
  5
64
330
43
100
AcDbEntity
  8
Layer 1
 62
     7
370
    80
100
AcDbSpline
210
0.0
220
0.0
230
1.0
 70
    11
 71
     3
 72
    17
 73
    13
 74
     0
 42
0.0000000001
 43
0.0000000001
 40
0.0
 40
0.0
 40
0.0
 40
0.0
 40
1.0
 40
1.0
 40
1.0
 40
2.0
 40
2.0
 40
2.0
 40
3.0
 40
3.0
 40
3.0
 40
4.0
 40
4.0
 40
4.0
 40
4.0
 10
543.90234375
 20
519.8505859375
 30
0.0
 10
557.126953125
 20
506.091796875
 30
0.0
 10
576.84375
 20
501.5927734375
 30
0.0
 10
588.3330078125
 20
485.5859375
 30
0.0
 10
598.25390625
 20
471.7646484375
 30
0.0
 10
615.6875
 20
461.552734375
 30
0.0
 10
629.0302734375
 20
478.5380859375
 30
0.0
 10
629.505859375
 20
479.0205078125
 30
0.0
 10
630.0185546875
 20
479.4580078125
 30
0.0
 10
630.568359375
 20
479.8505859375
 30
0.0
 10
630.568359375
 20
479.8505859375
 30
0.0
 10
543.90234375
 20
519.8505859375
 30
0.0
 10
543.90234375
 20
519.8505859375
 30
0.0
  0
ENDBLK
  5
46
330
43
100
AcDbEntity
  8
0
100
AcDbBlockEnd
  0
ENDSEC
  0
SECTION
  2
ENTITIES
  0
INSERT
  5
3D
330
1F
100
AcDbEntity
  8
Layer 1
100
AcDbBlockReference
  2
block 2
 10
0.0
 20
0.0
 30
0.0
  0
INSERT
  5
44
330
1F
100
AcDbEntity
  8
Layer 1
100
AcDbBlockReference
  2
block 3
 10
0.0
 20
0.0
 30
0.0
  0
ENDSEC
  0
SECTION
  2
OBJECTS
  0
DICTIONARY
  5
C
330
0
100
AcDbDictionary
281
     1
  3
ACAD_GROUP
350
D
  3
ACAD_LAYOUT
350
1A
  3
ACAD_MLINESTYLE
350
17
  3
ACAD_PLOTSETTINGS
350
19
  3
ACAD_PLOTSTYLENAME
350
E
  3
ACAD_TABLESTYLE
350
65
  3
ACAD_VISUALSTYLE
350
2A
  0
DICTIONARY
  5
D
102
{ACAD_REACTORS
330
C
102
}
330
C
100
AcDbDictionary
281
     1
  0
DICTIONARY
  5
1A
102
{ACAD_REACTORS
330
C
102
}
330
C
100
AcDbDictionary
281
     1
  3
Layout1
350
1E
  3
Layout2
350
26
  3
Model
350
22
  0
DICTIONARY
  5
17
102
{ACAD_REACTORS
330
C
102
}
330
C
100
AcDbDictionary
281
     1
  3
Standard
350
18
  0
DICTIONARY
  5
19
102
{ACAD_REACTORS
330
C
102
}
330
C
100
AcDbDictionary
281
     1
  0
ACDBDICTIONARYWDFLT
  5
E
102
{ACAD_REACTORS
330
C
102
}
330
C
100
AcDbDictionary
281
     1
  3
Normal
350
F
100
AcDbDictionaryWithDefault
340
F
  0
DICTIONARY
  5
65
102
{ACAD_REACTORS
330
C
102
}
330
C
100
AcDbDictionary
281
     1
  0
DICTIONARY
  5
2A
102
{ACAD_REACTORS
330
C
102
}
330
C
100
AcDbDictionary
281
     1
  3
2dWireframe
350
2F
  3
3D Hidden
350
31
  3
3dWireframe
350
30
  3
Basic
350
32
  3
Brighten
350
36
  3
ColorChange
350
3A
  3
Conceptual
350
34
  3
Dim
350
35
  3
Facepattern
350
39
  3
Flat
350
2B
  3
FlatWithEdges
350
2C
  3
Gouraud
350
2D
  3
GouraudWithEdges
350
2E
  3
Linepattern
350
38
  3
Realistic
350
33
  3
Thicken
350
37
  0
LAYOUT
  5
1E
102
{ACAD_REACTORS
330
1A
102
}
330
1A
100
AcDbPlotSettings
  1

  2
none_device
  4

  6

 40
0.0
 41
0.0
 42
0.0
 43
0.0
 44
0.0
 45
0.0
 46
0.0
 47
0.0
 48
0.0
 49
0.0
140
0.0
141
0.0
142
1.0
143
1.0
 70
   688
 72
     0
 73
     0
 74
     5
  7

 75
    16
 76
     0
 77
     2
 78
   300
147
1.0
148
0.0
149
0.0
100
AcDbLayout
  1
Layout1
 70
     1
 71
     1
 10
0.0
 20
0.0
 11
12.0
 21
9.0
 12
0.0
 22
0.0
 32
0.0
 14
1.000000000000000E+20
 24
1.000000000000000E+20
 34
1.000000000000000E+20
 15
-1.000000000000000E+20
 25
-1.000000000000000E+20
 35
-1.000000000000000E+20
146
0.0
 13
0.0
 23
0.0
 33
0.0
 16
1.0
 26
0.0
 36
0.0
 17
0.0
 27
1.0
 37
0.0
 76
     0
330
1B
  0
LAYOUT
  5
26
102
{ACAD_REACTORS
330
1A
102
}
330
1A
100
AcDbPlotSettings
  1

  2
none_device
  4

  6

 40
0.0
 41
0.0
 42
0.0
 43
0.0
 44
0.0
 45
0.0
 46
0.0
 47
0.0
 48
0.0
 49
0.0
140
0.0
141
0.0
142
1.0
143
1.0
 70
   688
 72
     0
 73
     0
 74
     5
  7

 75
    16
 76
     0
 77
     2
 78
   300
147
1.0
148
0.0
149
0.0
100
AcDbLayout
  1
Layout2
 70
     1
 71
     2
 10
0.0
 20
0.0
 11
0.0
 21
0.0
 12
0.0
 22
0.0
 32
0.0
 14
0.0
 24
0.0
 34
0.0
 15
0.0
 25
0.0
 35
0.0
146
0.0
 13
0.0
 23
0.0
 33
0.0
 16
1.0
 26
0.0
 36
0.0
 17
0.0
 27
1.0
 37
0.0
 76
     0
330
23
  0
LAYOUT
  5
22
102
{ACAD_REACTORS
330
1A
102
}
330
1A
100
AcDbPlotSettings
  1

  2
none_device
  4

  6

 40
0.0
 41
0.0
 42
0.0
 43
0.0
 44
0.0
 45
0.0
 46
0.0
 47
0.0
 48
0.0
 49
0.0
140
0.0
141
0.0
142
1.0
143
1.0
 70
  1712
 72
     0
 73
     0
 74
     0
  7

 75
     0
 76
     0
 77
     2
 78
   300
147
1.0
148
0.0
149
0.0
100
AcDbLayout
  1
Model
 70
     1
 71
     0
 10
0.0
 20
0.0
 11
12.0
 21
9.0
 12
0.0
 22
0.0
 32
0.0
 14
1.000000000000000E+20
 24
1.000000000000000E+20
 34
1.000000000000000E+20
 15
-1.000000000000000E+20
 25
-1.000000000000000E+20
 35
-1.000000000000000E+20
146
0.0
 13
0.0
 23
0.0
 33
0.0
 16
1.0
 26
0.0
 36
0.0
 17
0.0
 27
1.0
 37
0.0
 76
     0
330
1F
331
29
  0
MLINESTYLE
  5
18
102
{ACAD_REACTORS
330
17
102
}
330
17
100
AcDbMlineStyle
  2
Standard
 70
     0
  3

 62
   256
 51
90.0
 52
90.0
 71
     2
 49
0.5
 62
   256
  6
BYLAYER
 49
-0.5
 62
   256
  6
BYLAYER
  0
ACDBPLACEHOLDER
  5
F
102
{ACAD_REACTORS
330
E
102
}
330
E
  0
VISUALSTYLE
  5
2F
102
{ACAD_REACTORS
330
2A
102
}
330
2A
100
AcDbVisualStyle
  2
2dWireframe
 70
     4
 71
     0
 72
     2
 73
     0
 90
        0
 40
-0.6
 41
-30.0
 62
     5
 63
     7
421
 16777215
 74
     1
 91
        4
 64
     7
 65
   257
 75
     1
175
     1
 42
1.0
 92
        0
 66
   257
 43
1.0
 76
     1
 77
     6
 78
     2
 67
     7
 79
     5
170
     0
171
     0
290
     0
174
     0
 93
        1
 44
0.0
173
     0
291
     0
 45
0.0
1001
ACAD
1000
AcDbSavedByObjectVersion
1070
     0
  0
VISUALSTYLE
  5
31
102
{ACAD_REACTORS
330
2A
102
}
330
2A
100
AcDbVisualStyle
  2
3D Hidden
 70
     6
 71
     1
 72
     2
 73
     2
 90
        0
 40
-0.6
 41
-30.0
 62
     5
 63
     7
421
 16777215
 74
     2
 91
        2
 64
     7
 65
   257
 75
     2
175
     1
 42
40.0
 92
        0
 66
   257
 43
1.0
 76
     1
 77
     6
 78
     2
 67
     7
 79
     3
170
     0
171
     0
290
     0
174
     0
 93
        1
 44
0.0
173
     0
291
     0
 45
0.0
1001
ACAD
1000
AcDbSavedByObjectVersion
1070
     0
  0
VISUALSTYLE
  5
30
102
{ACAD_REACTORS
330
2A
102
}
330
2A
100
AcDbVisualStyle
  2
3dWireframe
 70
     5
 71
     0
 72
     2
 73
     0
 90
        0
 40
-0.6
 41
-30.0
 62
     5
 63
     7
421
 16777215
 74
     1
 91
        4
 64
     7
 65
   257
 75
     1
175
     1
 42
1.0
 92
        0
 66
   257
 43
1.0
 76
     1
 77
     6
 78
     2
 67
     7
 79
     5
170
     0
171
     0
290
     0
174
     0
 93
        1
 44
0.0
173
     0
291
     0
 45
0.0
1001
ACAD
1000
AcDbSavedByObjectVersion
1070
     0
  0
VISUALSTYLE
  5
32
102
{ACAD_REACTORS
330
2A
102
}
330
2A
100
AcDbVisualStyle
  2
Basic
 70
     7
 71
     1
 72
     0
 73
     1
 90
        0
 40
-0.6
 41
-30.0
 62
     5
 63
     7
421
 16777215
 74
     0
 91
        4
 64
     7
 65
   257
 75
     1
175
     1
 42
1.0
 92
        8
 66
     7
 43
1.0
 76
     1
 77
     6
 78
     2
 67
     7
 79
     5
170
     0
171
     0
290
     0
174
     0
 93
        1
 44
0.0
173
     0
291
     1
 45
0.0
1001
ACAD
1000
AcDbSavedByObjectVersion
1070
     0
  0
VISUALSTYLE
  5
36
102
{ACAD_REACTORS
330
2A
102
}
330
2A
100
AcDbVisualStyle
  2
Brighten
 70
    12
 71
     2
 72
     2
 73
     0
 90
        0
 40
-0.6
 41
-30.0
 62
     5
 63
     7
421
 16777215
 74
     1
 91
        4
 64
     7
 65
   257
 75
     1
175
     1
 42
1.0
 92
        8
 66
     7
 43
1.0
 76
     1
 77
     6
 78
     2
 67
     7
 79
     5
170
     0
171
     0
290
     0
174
     0
 93
        1
 44
50.0
173
     0
291
     1
 45
0.0
1001
ACAD
1000
AcDbSavedByObjectVersion
1070
     0
  0
VISUALSTYLE
  5
3A
102
{ACAD_REACTORS
330
2A
102
}
330
2A
100
AcDbVisualStyle
  2
ColorChange
 70
    16
 71
     2
 72
     2
 73
     3
 90
        0
 40
-0.6
 41
-30.0
 62
     5
 63
     8
421
  8421504
 74
     1
 91
        4
 64
     7
 65
   257
 75
     1
175
     1
 42
1.0
 92
        8
 66
     8
424
  8421504
 43
1.0
 76
     1
 77
     6
 78
     2
 67
     7
 79
     5
170
     0
171
     0
290
     0
174
     0
 93
        1
 44
0.0
173
     0
291
     1
 45
0.0
1001
ACAD
1000
AcDbSavedByObjectVersion
1070
     0
  0
VISUALSTYLE
  5
34
102
{ACAD_REACTORS
330
2A
102
}
330
2A
100
AcDbVisualStyle
  2
Conceptual
 70
     9
 71
     3
 72
     2
 73
     0
 90
        0
 40
-0.6
 41
-30.0
 62
     5
 63
     7
421
 16777215
 74
     2
 91
        2
 64
     7
 65
   257
 75
     1
175
     1
 42
40.0
 92
        8
 66
     7
 43
1.0
 76
     1
 77
     6
 78
     2
 67
     7
 79
     3
170
     0
171
     0
290
     0
174
     0
 93
        1
 44
0.0
173
     0
291
     0
 45
0.0
1001
ACAD
1000
AcDbSavedByObjectVersion
1070
     0
  0
VISUALSTYLE
  5
35
102
{ACAD_REACTORS
330
2A
102
}
330
2A
100
AcDbVisualStyle
  2
Dim
 70
    11
 71
     2
 72
     2
 73
     0
 90
        0
 40
-0.6
 41
-30.0
 62
     5
 63
     7
421
 16777215
 74
     1
 91
        4
 64
     7
 65
   257
 75
     1
175
     1
 42
1.0
 92
        8
 66
     7
 43
1.0
 76
     1
 77
     6
 78
     2
 67
     7
 79
     5
170
     0
171
     0
290
     0
174
     0
 93
        1
 44
-50.0
173
     0
291
     1
 45
0.0
1001
ACAD
1000
AcDbSavedByObjectVersion
1070
     0
  0
VISUALSTYLE
  5
39
102
{ACAD_REACTORS
330
2A
102
}
330
2A
100
AcDbVisualStyle
  2
Facepattern
 70
    15
 71
     2
 72
     2
 73
     0
 90
        0
 40
-0.6
 41
-30.0
 62
     5
 63
     7
421
 16777215
 74
     1
 91
        4
 64
     7
 65
   257
 75
     1
175
     1
 42
1.0
 92
        8
 66
     7
 43
1.0
 76
     1
 77
     6
 78
     2
 67
     7
 79
     5
170
     0
171
     0
290
     0
174
     0
 93
        1
 44
0.0
173
     0
291
     1
 45
0.0
1001
ACAD
1000
AcDbSavedByObjectVersion
1070
     0
  0
VISUALSTYLE
  5
2B
102
{ACAD_REACTORS
330
2A
102
}
330
2A
100
AcDbVisualStyle
  2
Flat
 70
     0
 71
     2
 72
     1
 73
     1
 90
        2
 40
-0.6
 41
30.0
 62
     5
 63
     7
421
 16777215
 74
     0
 91
        4
 64
     7
 65
   257
 75
     1
175
     1
 42
1.0
 92
        8
 66
     7
 43
1.0
 76
     1
 77
     6
 78
     2
 67
     7
 79
     5
170
     0
171
     0
290
     0
174
     0
 93
       13
 44
0.0
173
     0
291
     1
 45
0.0
1001
ACAD
1000
AcDbSavedByObjectVersion
1070
     0
  0
VISUALSTYLE
  5
2C
102
{ACAD_REACTORS
330
2A
102
}
330
2A
100
AcDbVisualStyle
  2
FlatWithEdges
 70
     1
 71
     2
 72
     1
 73
     1
 90
        2
 40
-0.6
 41
30.0
 62
     5
 63
     7
421
 16777215
 74
     1
 91
        4
 64
     7
 65
   257
 75
     1
175
     1
 42
1.0
 92
        0
 66
   257
 43
1.0
 76
     1
 77
     6
 78
     2
 67
     7
 79
     5
170
     0
171
     0
290
     0
174
     0
 93
       13
 44
0.0
173
     0
291
     1
 45
0.0
1001
ACAD
1000
AcDbSavedByObjectVersion
1070
     0
  0
VISUALSTYLE
  5
2D
102
{ACAD_REACTORS
330
2A
102
}
330
2A
100
AcDbVisualStyle
  2
Gouraud
 70
     2
 71
     2
 72
     2
 73
     1
 90
        2
 40
-0.6
 41
30.0
 62
     5
 63
     7
421
 16777215
 74
     0
 91
        4
 64
     7
 65
   257
 75
     1
175
     1
 42
1.0
 92
        0
 66
     7
 43
1.0
 76
     1
 77
     6
 78
     2
 67
     7
 79
     5
170
     0
171
     0
290
     0
174
     0
 93
       13
 44
0.0
173
     0
291
     1
 45
0.0
1001
ACAD
1000
AcDbSavedByObjectVersion
1070
     0
  0
VISUALSTYLE
  5
2E
102
{ACAD_REACTORS
330
2A
102
}
330
2A
100
AcDbVisualStyle
  2
GouraudWithEdges
 70
     3
 71
     2
 72
     2
 73
     1
 90
        2
 40
-0.6
 41
30.0
 62
     5
 63
     7
421
 16777215
 74
     1
 91
        4
 64
     7
 65
   257
 75
     1
175
     1
 42
1.0
 92
        0
 66
   257
 43
1.0
 76
     1
 77
     6
 78
     2
 67
     7
 79
     5
170
     0
171
     0
290
     0
174
     0
 93
       13
 44
0.0
173
     0
291
     1
 45
0.0
1001
ACAD
1000
AcDbSavedByObjectVersion
1070
     0
  0
VISUALSTYLE
  5
38
102
{ACAD_REACTORS
330
2A
102
}
330
2A
100
AcDbVisualStyle
  2
Linepattern
 70
    14
 71
     2
 72
     2
 73
     0
 90
        0
 40
-0.6
 41
-30.0
 62
     5
 63
     7
421
 16777215
 74
     1
 91
        4
 64
     7
 65
   257
 75
     7
175
     7
 42
1.0
 92
        8
 66
     7
 43
1.0
 76
     1
 77
     6
 78
     2
 67
     7
 79
     5
170
     0
171
     0
290
     0
174
     0
 93
        1
 44
0.0
173
     0
291
     1
 45
0.0
1001
ACAD
1000
AcDbSavedByObjectVersion
1070
     0
  0
VISUALSTYLE
  5
33
102
{ACAD_REACTORS
330
2A
102
}
330
2A
100
AcDbVisualStyle
  2
Realistic
 70
     8
 71
     2
 72
     2
 73
     0
 90
        0
 40
-0.6
 41
-30.0
 62
     5
 63
     7
421
 16777215
 74
     1
 91
        0
 64
     7
 65
   257
 75
     1
175
     1
 42
1.0
 92
        8
 66
     8
424
  7895160
 43
1.0
 76
     1
 77
     6
 78
     2
 67
     7
 79
     5
170
     0
171
     0
290
     0
174
     0
 93
       13
 44
0.0
173
     0
291
     0
 45
0.0
1001
ACAD
1000
AcDbSavedByObjectVersion
1070
     0
  0
VISUALSTYLE
  5
37
102
{ACAD_REACTORS
330
2A
102
}
330
2A
100
AcDbVisualStyle
  2
Thicken
 70
    13
 71
     2
 72
     2
 73
     0
 90
        0
 40
-0.6
 41
-30.0
 62
     5
 63
     7
421
 16777215
 74
     1
 91
        4
 64
     7
 65
   257
 75
     1
175
     1
 42
1.0
 92
       12
 66
     7
 43
1.0
 76
     1
 77
     6
 78
     2
 67
     7
 79
     5
170
     0
171
     0
290
     0
174
     0
 93
        1
 44
0.0
173
     0
291
     1
 45
0.0
1001
ACAD
1000
AcDbSavedByObjectVersion
1070
     0
  0
ENDSEC
  0
EOF
