  0
SECTION
  2
HEADER
  9
$ACADVER
  1
AC1014
  9
$ACADMAINTVER
 70
     9
  9
$DWGCODEPAGE
  3
ANSI_1252
  9
$INSBASE
 10
0.0
 20
0.0
 30
0.0
  9
$EXTMIN
 10
1.000000000000000E+20
 20
1.000000000000000E+20
 30
1.000000000000000E+20
  9
$EXTMAX
 10
-1.000000000000000E+20
 20
-1.000000000000000E+20
 30
-1.000000000000000E+20
  9
$LIMMIN
 10
0.0
 20
0.0
  9
$LIMMAX
 10
12.0
 20
9.0
  9
$ORTHOMODE
 70
     0
  9
$REGENMODE
 70
     1
  9
$FILLMODE
 70
     1
  9
$QTEXTMODE
 70
     0
  9
$MIRRTEXT
 70
     1
  9
$DRAGMODE
 70
     2
  9
$LTSCALE
 40
25.4
  9
$OSMODE
 70
    37
  9
$ATTMODE
 70
     1
  9
$TEXTSIZE
 40
0.2
  9
$TRACEWID
 40
0.05
  9
$TEXTSTYLE
  7
STANDARD
  9
$CLAYER
  8
0
  9
$CELTYPE
  6
BYLAYER
  9
$CECOLOR
 62
   256
  9
$CELTSCALE
 40
1.0
  9
$DELOBJ
 70
     1
  9
$DISPSILH
 70
     0
  9
$DIMSCALE
 40
1.0
  9
$DIMASZ
 40
0.18
  9
$DIMEXO
 40
0.0625
  9
$DIMDLI
 40
0.38
  9
$DIMRND
 40
0.0
  9
$DIMDLE
 40
0.0
  9
$DIMEXE
 40
0.18
  9
$DIMTP
 40
0.0
  9
$DIMTM
 40
0.0
  9
$DIMTXT
 40
0.18
  9
$DIMCEN
 40
0.09
  9
$DIMTSZ
 40
0.0
  9
$DIMTOL
 70
     0
  9
$DIMLIM
 70
     0
  9
$DIMTIH
 70
     1
  9
$DIMTOH
 70
     1
  9
$DIMSE1
 70
     0
  9
$DIMSE2
 70
     0
  9
$DIMTAD
 70
     0
  9
$DIMZIN
 70
     0
  9
$DIMBLK
  1

  9
$DIMASO
 70
     1
  9
$DIMSHO
 70
     1
  9
$DIMPOST
  1

  9
$DIMAPOST
  1

  9
$DIMALT
 70
     0
  9
$DIMALTD
 70
     2
  9
$DIMALTF
 40
25.4
  9
$DIMLFAC
 40
1.0
  9
$DIMTOFL
 70
     0
  9
$DIMTVP
 40
0.0
  9
$DIMTIX
 70
     0
  9
$DIMSOXD
 70
     0
  9
$DIMSAH
 70
     0
  9
$DIMBLK1
  1

  9
$DIMBLK2
  1

  9
$DIMSTYLE
  2
STANDARD
  9
$DIMCLRD
 70
     0
  9
$DIMCLRE
 70
     0
  9
$DIMCLRT
 70
     0
  9
$DIMTFAC
 40
1.0
  9
$DIMGAP
 40
0.09
  9
$DIMJUST
 70
     0
  9
$DIMSD1
 70
     0
  9
$DIMSD2
 70
     0
  9
$DIMTOLJ
 70
     1
  9
$DIMTZIN
 70
     0
  9
$DIMALTZ
 70
     0
  9
$DIMALTTZ
 70
     0
  9
$DIMFIT
 70
     3
  9
$DIMUPT
 70
     0
  9
$DIMUNIT
 70
     2
  9
$DIMDEC
 70
     4
  9
$DIMTDEC
 70
     4
  9
$DIMALTU
 70
     2
  9
$DIMALTTD
 70
     2
  9
$DIMTXSTY
  7
STANDARD
  9
$DIMAUNIT
 70
     0
  9
$LUNITS
 70
     2
  9
$LUPREC
 70
     4
  9
$SKETCHINC
 40
0.1
  9
$FILLETRAD
 40
0.5
  9
$AUNITS
 70
     0
  9
$AUPREC
 70
     0
  9
$MENU
  1
.
  9
$ELEVATION
 40
0.0
  9
$PELEVATION
 40
0.0
  9
$THICKNESS
 40
0.0
  9
$LIMCHECK
 70
     0
  9
$CHAMFERA
 40
0.0
  9
$CHAMFERB
 40
0.0
  9
$CHAMFERC
 40
0.0
  9
$CHAMFERD
 40
0.0
  9
$SKPOLY
 70
     0
  9
$TDCREATE
 40
2458617.439718796
  9
$TDUPDATE
 40
2458617.439718854
  9
$TDINDWG
 40
0.0000000116
  9
$TDUSRTIMER
 40
0.0000000116
  9
$USRTIMER
 70
     1
  9
$ANGBASE
 50
0.0
  9
$ANGDIR
 70
     0
  9
$PDMODE
 70
     0
  9
$PDSIZE
 40
0.0
  9
$PLINEWID
 40
0.0
  9
$COORDS
 70
     1
  9
$SPLFRAME
 70
     0
  9
$SPLINETYPE
 70
     6
  9
$SPLINESEGS
 70
     8
  9
$ATTDIA
 70
     0
  9
$ATTREQ
 70
     1
  9
$HANDLING
 70
     1
  9
$HANDSEED
  5
1A8
  9
$SURFTAB1
 70
     6
  9
$SURFTAB2
 70
     6
  9
$SURFTYPE
 70
     6
  9
$SURFU
 70
     6
  9
$SURFV
 70
     6
  9
$UCSNAME
  2

  9
$UCSORG
 10
0.0
 20
0.0
 30
0.0
  9
$UCSXDIR
 10
1.0
 20
0.0
 30
0.0
  9
$UCSYDIR
 10
0.0
 20
1.0
 30
0.0
  9
$PUCSNAME
  2

  9
$PUCSORG
 10
0.0
 20
0.0
 30
0.0
  9
$PUCSXDIR
 10
1.0
 20
0.0
 30
0.0
  9
$PUCSYDIR
 10
0.0
 20
1.0
 30
0.0
  9
$USERI1
 70
     0
  9
$USERI2
 70
     0
  9
$USERI3
 70
     0
  9
$USERI4
 70
     0
  9
$USERI5
 70
     0
  9
$USERR1
 40
0.0
  9
$USERR2
 40
0.0
  9
$USERR3
 40
0.0
  9
$USERR4
 40
0.0
  9
$USERR5
 40
0.0
  9
$WORLDVIEW
 70
     1
  9
$SHADEDGE
 70
     3
  9
$SHADEDIF
 70
    70
  9
$TILEMODE
 70
     1
  9
$MAXACTVP
 70
    64
  9
$PINSBASE
 10
0.0
 20
0.0
 30
0.0
  9
$PLIMCHECK
 70
     0
  9
$PEXTMIN
 10
1.000000000000000E+20
 20
1.000000000000000E+20
 30
1.000000000000000E+20
  9
$PEXTMAX
 10
-1.000000000000000E+20
 20
-1.000000000000000E+20
 30
-1.000000000000000E+20
  9
$PLIMMIN
 10
0.0
 20
0.0
  9
$PLIMMAX
 10
12.0
 20
9.0
  9
$UNITMODE
 70
     0
  9
$VISRETAIN
 70
     1
  9
$PLINEGEN
 70
     0
  9
$PSLTSCALE
 70
     1
  9
$TREEDEPTH
 70
  3020
  9
$PICKSTYLE
 70
     1
  9
$CMLSTYLE
  2
STANDARD
  9
$CMLJUST
 70
     0
  9
$CMLSCALE
 40
1.0
  9
$PROXYGRAPHICS
 70
     1
  9
$MEASUREMENT
 70
     1
  0
ENDSEC
  0
SECTION
  2
CLASSES
  0
CLASS
  1
ACDBDICTIONARYWDFLT
  2
AcDbDictionaryWithDefault
  3
ObjectDBX Classes
 90
        0
280
     0
281
     0
  0
CLASS
  1
VISUALSTYLE
  2
AcDbVisualStyle
  3
ObjectDBX Classes
 90
     4095
280
     0
281
     0
  0
CLASS
  1
MATERIAL
  2
AcDbMaterial
  3
ObjectDBX Classes
 90
     1153
280
     0
281
     0
  0
CLASS
  1
SCALE
  2
AcDbScale
  3
ObjectDBX Classes
 90
     1153
280
     0
281
     0
  0
CLASS
  1
TABLESTYLE
  2
AcDbTableStyle
  3
ObjectDBX Classes
 90
     4095
280
     0
281
     0
  0
CLASS
  1
MLEADERSTYLE
  2
AcDbMLeaderStyle
  3
ACDB_MLEADERSTYLE_CLASS
 90
     4095
280
     0
281
     0
  0
CLASS
  1
SUN
  2
AcDbSun
  3
SCENEOE
 90
     1153
280
     0
281
     0
  0
CLASS
  1
CAMERA
  2
AcDbCamera
  3
ACCAMERA
 90
      195
280
     0
281
     1
  0
CLASS
  1
DICTIONARYVAR
  2
AcDbDictionaryVar
  3
ObjectDBX Classes
 90
        0
280
     0
281
     0
  0
CLASS
  1
XRECORD
  2
AcDbXrecord
  3
ObjectDBX Classes
 90
        0
280
     0
281
     0
  0
CLASS
  1
LWPOLYLINE
  2
AcDbPolyline
  3
ObjectDBX Classes
 90
        0
280
     0
281
     1
  0
CLASS
  1
HATCH
  2
AcDbHatch
  3
ObjectDBX Classes
 90
        0
280
     0
281
     1
  0
CLASS
  1
ACDBPLACEHOLDER
  2
AcDbPlaceHolder
  3
ObjectDBX Classes
 90
        0
280
     0
281
     0
  0
CLASS
  1
LAYOUT
  2
AcDbLayout
  3
ObjectDBX Classes
 90
        0
280
     0
281
     0
  0
ENDSEC
  0
SECTION
  2
TABLES
  0
TABLE
  2
VPORT
  5
8
102
{ACAD_XDICTIONARY
360
19D
102
}
330
0
100
AcDbSymbolTable
 70
     1
  0
VPORT
  5
29
330
8
100
AcDbSymbolTableRecord
100
AcDbViewportTableRecord
  2
*ACTIVE
 70
     0
 10
0.0
 20
0.0
 11
1.0
 21
1.0
 12
0.0
 22
0.0
 13
0.0
 23
0.0
 14
0.5
 24
0.5
 15
0.5
 25
0.5
 16
0.0
 26
0.0
 36
1.0
 17
1037.202083034469
 27
977.4378172442887
 37
0.0
 40
2567.3651229926
 41
1.3333
 42
5509.564833671592
 43
-5484.164833671593
 44
19890.43516632841
 50
0.0
 51
0.0
 71
     0
 72
   100
 73
     1
 74
     3
 75
     0
 76
     0
 77
     0
 78
     0
  0
ENDTAB
  0
TABLE
  2
LTYPE
  5
5
330
0
100
AcDbSymbolTable
 70
     1
  0
LTYPE
  5
14
330
5
100
AcDbSymbolTableRecord
100
AcDbLinetypeTableRecord
  2
BYBLOCK
 70
     0
  3

 72
    65
 73
     0
 40
0.0
  0
LTYPE
  5
15
330
5
100
AcDbSymbolTableRecord
100
AcDbLinetypeTableRecord
  2
BYLAYER
 70
     0
  3

 72
    65
 73
     0
 40
0.0
  0
LTYPE
  5
16
330
5
100
AcDbSymbolTableRecord
100
AcDbLinetypeTableRecord
  2
CONTINUOUS
 70
     0
  3
Solid line
 72
    65
 73
     0
 40
0.0
  0
ENDTAB
  0
TABLE
  2
LAYER
  5
2
330
0
100
AcDbSymbolTable
 70
     2
  0
LAYER
  5
10
330
2
100
AcDbSymbolTableRecord
100
AcDbLayerTableRecord
  2
0
 70
     0
 62
    13
  6
CONTINUOUS
  0
LAYER
  5
6F
330
2
100
AcDbSymbolTableRecord
100
AcDbLayerTableRecord
  2
TEMPORARY_SYSTEM_CAMERAS_L
 70
     0
 62
     7
  6
CONTINUOUS
  0
ENDTAB
  0
TABLE
  2
STYLE
  5
3
330
0
100
AcDbSymbolTable
 70
     2
  0
STYLE
  5
11
330
3
100
AcDbSymbolTableRecord
100
AcDbTextStyleTableRecord
  2
STANDARD
 70
     0
 40
0.0
 41
1.0
 50
0.0
 71
     0
 42
0.2
  3
txt
  4

  0
STYLE
  5
77
330
3
100
AcDbSymbolTableRecord
100
AcDbTextStyleTableRecord
  2
TAHOMA
 70
     0
 40
0.0
 41
1.0
 50
0.0
 71
     0
 42
0.2
  3
Tahoma
  4

1001
ACAD
1000
Tahoma
1071
       34
  0
ENDTAB
  0
TABLE
  2
VIEW
  5
6
330
0
100
AcDbSymbolTable
 70
     6
  0
VIEW
  5
6E
330
6
100
AcDbSymbolTableRecord
100
AcDbViewTableRecord
  2
PERP
 70
     0
 40
7222.184359504145
 10
0.0
 20
0.0
 41
9629.338406526875
 11
23.22189805289591
 21
-34.4038314442661
 31
10.51031521033114
 12
2012.623786297476
 22
1842.209756938701
 32
679.5124712014981
 42
42.81760027191017
 43
-11427.52118815612
 44
13947.07881184388
 50
0.000000000000004
 71
     1
  0
VIEW
  5
71
330
6
100
AcDbSymbolTableRecord
100
AcDbViewTableRecord
  2
TOP
 70
     0
 40
2057.378197469636
 10
0.0
 20
0.0
 41
2743.102350686266
 11
0.0
 21
0.0
 31
6101.026326772257
 12
925.2078427141188
 22
832.8475158803324
 32
0.0
 42
6101.026326772257
 43
-6075.626326772257
 44
19298.97367322775
 50
0.0
 71
     0
  0
VIEW
  5
72
330
6
100
AcDbSymbolTableRecord
100
AcDbViewTableRecord
  2
FRONT
 70
     0
 40
7299.51094700194
 10
0.0
 20
0.0
 41
9732.437945637686
 11
0.0
 21
0.0
 31
42.81760027191017
 12
0.0
 22
0.0
 32
0.0
 42
42.81760027191017
 43
-11550.14548965236
 44
13824.45451034764
 50
0.0
 71
     1
  0
VIEW
  5
74
330
6
100
AcDbSymbolTableRecord
100
AcDbViewTableRecord
  2
RIGHT
 70
     0
 40
7805.017107782239
 10
0.0
 20
0.0
 41
10406.42930980606
 11
11305.00129684472
 21
0.0
 31
0.0
 12
1000.000000000235
 22
876.0
 32
1007.0
 42
11305.00129684472
 43
-11279.60129684472
 44
14094.99870315528
 50
0.0
 71
     0
  0
VIEW
  5
75
330
6
100
AcDbSymbolTableRecord
100
AcDbViewTableRecord
  2
BACK
 70
     0
 40
8319.48966394875
 10
0.0
 20
0.0
 41
11092.37556894287
 11
0.0
 21
12148.79916867293
 31
0.0
 12
1197.5
 22
951.1189886713728
 32
1007.0
 42
12148.79916867293
 43
-12123.39916867293
 44
13251.20083132707
 50
0.0
 71
     0
  0
VIEW
  5
76
330
6
100
AcDbSymbolTableRecord
100
AcDbViewTableRecord
  2
LEFT
 70
     0
 40
7003.986926714409
 10
0.0
 20
0.0
 41
9338.415769388323
 11
-12026.41815734454
 21
0.0
 31
0.0
 12
1000.000000000235
 22
876.0
 32
1007.0
 42
12026.41815734454
 43
-12001.01815734454
 44
13373.58184265546
 50
0.0
 71
     0
  0
ENDTAB
  0
TABLE
  2
UCS
  5
7
330
0
100
AcDbSymbolTable
 70
     0
  0
ENDTAB
  0
TABLE
  2
APPID
  5
9
330
0
100
AcDbSymbolTable
 70
     2
  0
APPID
  5
12
330
9
100
AcDbSymbolTableRecord
100
AcDbRegAppTableRecord
  2
ACAD
 70
     0
  0
APPID
  5
1A7
330
9
100
AcDbSymbolTableRecord
100
AcDbRegAppTableRecord
  2
ACAD_MLEADERVER
 70
     0
  0
ENDTAB
  0
TABLE
  2
DIMSTYLE
  5
A
330
0
100
AcDbSymbolTable
 70
     2
  0
DIMSTYLE
105
27
330
A
100
AcDbSymbolTableRecord
100
AcDbDimStyleTableRecord
  2
STANDARD
 70
     0
  3

  4

  5

  6

  7

 40
1.0
 41
0.18
 42
0.0625
 43
0.38
 44
0.18
 45
0.0
 46
0.0
 47
0.0
 48
0.0
140
0.18
141
0.09
142
0.0
143
25.4
144
1.0
145
0.0
146
1.0
147
0.09
 71
     0
 72
     0
 73
     1
 74
     1
 75
     0
 76
     0
 77
     0
 78
     0
170
     0
171
     2
172
     0
173
     0
174
     0
175
     0
176
     0
177
     0
178
     0
270
     2
271
     4
272
     4
273
     2
274
     2
340
11
275
     0
280
     0
281
     0
282
     0
283
     1
284
     0
285
     0
286
     0
287
     3
288
     0
  0
DIMSTYLE
105
78
330
A
100
AcDbSymbolTableRecord
100
AcDbDimStyleTableRecord
  2
DIMENSIONS
 70
     0
  3
mm
  4

  5
ARCHTICK
  6

  7

 40
1.0
 41
12.7
 42
12.7
 43
0.38
 44
12.7
 45
0.0
 46
0.0
 47
0.0
 48
0.0
140
25.4
141
0.09
142
0.0
143
25.4
144
1.0
145
0.0
146
1.0
147
2.54
 71
     0
 72
     0
 73
     1
 74
     1
 75
     0
 76
     0
 77
     0
 78
     0
170
     0
171
     2
172
     0
173
     0
174
     0
175
     0
176
     0
177
     0
178
     0
270
     2
271
     0
272
     4
273
     2
274
     2
340
77
275
     0
280
     0
281
     0
282
     0
283
     1
284
     0
285
     0
286
     0
287
     3
288
     0
  0
ENDTAB
  0
TABLE
  2
BLOCK_RECORD
  5
1
330
0
100
AcDbSymbolTable
 70
     1
  0
BLOCK_RECORD
  5
1F
330
1
100
AcDbSymbolTableRecord
100
AcDbBlockTableRecord
  2
*MODEL_SPACE
  0
BLOCK_RECORD
  5
1B
330
1
100
AcDbSymbolTableRecord
100
AcDbBlockTableRecord
  2
*PAPER_SPACE
  0
BLOCK_RECORD
  5
79
330
1
100
AcDbSymbolTableRecord
100
AcDbBlockTableRecord
  2
_ARCHTICK
  0
ENDTAB
  0
ENDSEC
  0
SECTION
  2
BLOCKS
  0
BLOCK
  5
20
330
1F
100
AcDbEntity
  8
0
100
AcDbBlockBegin
  2
*MODEL_SPACE
 70
     0
 10
0.0
 20
0.0
 30
0.0
  3
*MODEL_SPACE
  1

  0
ENDBLK
  5
21
330
1F
100
AcDbEntity
  8
0
100
AcDbBlockEnd
  0
BLOCK
  5
1C
330
1B
100
AcDbEntity
 67
     1
  8
0
100
AcDbBlockBegin
  2
*PAPER_SPACE
 70
     0
 10
0.0
 20
0.0
 30
0.0
  3
*PAPER_SPACE
  1

  0
ENDBLK
  5
1D
330
1B
100
AcDbEntity
 67
     1
  8
0
100
AcDbBlockEnd
  0
BLOCK
  5
7A
330
79
100
AcDbEntity
  8
0
100
AcDbBlockBegin
  2
_ARCHTICK
 70
     0
 10
0.0
 20
0.0
 30
0.0
  3
_ARCHTICK
  1

  0
LWPOLYLINE
  5
7C
330
79
100
AcDbEntity
  8
0
  6
BYBLOCK
 62
     0
100
AcDbPolyline
 90
        2
 70
     0
 43
0.15
 10
-0.5
 20
-0.5
 10
0.5
 20
0.5
  0
ENDBLK
  5
7B
330
79
100
AcDbEntity
  8
0
100
AcDbBlockEnd
  0
ENDSEC
  0
SECTION
  2
ENTITIES
  0
LINE
  5
7D
330
1F
100
AcDbEntity
  8
0
 62
     0
100
AcDbLine
 10
1950.670793206502
 20
1424.467259665296
 30
0.0
 11
1957.454318382219
 21
1424.245190044429
 31
0.0
  0
LINE
  5
7E
330
1F
100
AcDbEntity
  8
0
 62
     0
100
AcDbLine
 10
56.04821522079737
 20
1425.731596779965
 30
0.0
 11
129.0940738620613
 21
1445.304175613333
 31
0.0
  0
LINE
  5
7F
330
1F
100
AcDbEntity
  8
0
 62
     0
100
AcDbLine
 10
129.0940738620613
 20
1445.304175613333
 30
0.0
 11
251.5289978291528
 21
1473.570505040309
 31
0.0
  0
LINE
  5
80
330
1F
100
AcDbEntity
  8
0
 62
     0
100
AcDbLine
 10
0.5181972491477609
 20
1461.965696102804
 30
0.0
 11
2.060726929594557
 21
1455.350147099282
 31
0.0
  0
LINE
  5
81
330
1F
100
AcDbEntity
  8
0
 62
     0
100
AcDbLine
 10
29.29618578730619
 20
1426.899615609714
 30
0.0
 11
35.83815405447435
 21
1425.069987881163
 31
0.0
  0
LINE
  5
82
330
1F
100
AcDbEntity
  8
0
 62
     0
100
AcDbLine
 10
42.58231285788401
 20
1424.256840620813
 30
0.0
 11
49.37167855441857
 21
1424.479101440647
 31
0.0
  0
LINE
  5
83
330
1F
100
AcDbEntity
  8
0
 62
     0
100
AcDbLine
 10
2000.000000000181
 20
1468.688988878121
 30
0.0
 11
2000.000000000082
 21
1902.237977342745
 31
0.0
  0
LINE
  5
84
330
1F
100
AcDbEntity
  8
0
 62
     0
100
AcDbLine
 10
49.37167855441857
 20
1424.479101440647
 30
0.0
 11
56.04821522079737
 21
1425.731596779965
 31
0.0
  0
LINE
  5
85
330
1F
100
AcDbEntity
  8
0
 62
     0
100
AcDbLine
 10
0.0000000002367869
 20
1468.738904946792
 30
0.0
 11
0.5181972491477609
 21
1461.965696102804
 31
0.0
  0
LINE
  5
86
330
1F
100
AcDbEntity
  8
0
 62
     0
100
AcDbLine
 10
1944.000000000303
 20
1425.718677551207
 30
0.0
 11
1950.670793206502
 21
1424.467259665296
 31
0.0
  0
LINE
  5
87
330
1F
100
AcDbEntity
  8
0
 62
     0
100
AcDbLine
 10
1125.636327469021
 20
1550.044987089106
 30
0.0
 11
1251.119586425613
 21
1543.468688149968
 31
0.0
  0
LINE
  5
88
330
1F
100
AcDbEntity
  8
0
 62
     0
100
AcDbLine
 10
1251.119586425613
 20
1543.468688149968
 30
0.0
 11
1376.296894848159
 21
1532.517092732437
 31
0.0
  0
LINE
  5
89
330
1F
100
AcDbEntity
  8
0
 62
     0
100
AcDbLine
 10
1376.296894848159
 20
1532.517092732437
 30
0.0
 11
1501.015743468533
 21
1517.203543668245
 31
0.0
  0
LINE
  5
8A
330
1F
100
AcDbEntity
  8
0
 62
     0
100
AcDbLine
 10
1995.412266364731
 20
1449.013272381252
 30
0.0
 11
1997.941045801633
 21
1455.311748648261
 31
0.0
  0
LINE
  5
8B
330
1F
100
AcDbEntity
  8
0
 62
     0
100
AcDbLine
 10
1964.192675553989
 20
1425.057637798463
 30
0.0
 11
1970.72901612276
 21
1426.88569159825
 31
0.0
  0
LINE
  5
8C
330
1F
100
AcDbEntity
  8
0
 62
     0
100
AcDbLine
 10
874.3636725312867
 20
1550.044987088944
 30
0.0
 11
1000.000000000131
 21
1552.237977342349
 31
0.0
  0
LINE
  5
8D
330
1F
100
AcDbEntity
  8
0
 62
     0
100
AcDbLine
 10
0.0
 20
1902.23797734189
 30
0.0
 11
0.0000000002367869
 21
1468.738904946792
 31
0.0
  0
LINE
  5
8E
330
1F
100
AcDbEntity
  8
0
 62
     0
100
AcDbLine
 10
4.591683610413929
 20
1449.046247931893
 30
0.0
 11
8.052154265976286
 21
1443.200734329505
 31
0.0
  0
LINE
  5
8F
330
1F
100
AcDbEntity
  8
0
 62
     0
100
AcDbLine
 10
1976.911193826227
 20
1429.686799873531
 30
0.0
 11
1982.595306243153
 21
1433.395761285831
 31
0.0
  0
LINE
  5
90
330
1F
100
AcDbEntity
  8
0
 62
     0
100
AcDbLine
 10
251.5289978291528
 20
1473.570505040309
 30
0.0
 11
374.8758184193557
 21
1497.546698157827
 31
0.0
  0
LINE
  5
91
330
1F
100
AcDbEntity
  8
0
 62
     0
100
AcDbLine
 10
17.41967895628586
 20
1433.415290376712
 30
0.0
 11
23.10868531495771
 21
1429.703135600301
 31
0.0
  0
LINE
  5
92
330
1F
100
AcDbEntity
  8
0
 62
     0
100
AcDbLine
 10
1970.72901612276
 20
1426.88569159825
 30
0.0
 11
1976.911193826227
 21
1429.686799873531
 31
0.0
  0
LINE
  5
93
330
1F
100
AcDbEntity
  8
0
 62
     0
100
AcDbLine
 10
1000.000000000131
 20
1552.237977342349
 30
0.0
 11
1125.636327469021
 21
1550.044987089106
 31
0.0
  0
LINE
  5
94
330
1F
100
AcDbEntity
  8
0
 62
     0
100
AcDbLine
 10
1625.124181580952
 20
1497.546698158346
 30
0.0
 11
1748.471002171126
 21
1473.570505040921
 31
0.0
  0
LINE
  5
95
330
1F
100
AcDbEntity
  8
0
 62
     0
100
AcDbLine
 10
1987.649044408103
 20
1437.926242417834
 30
0.0
 11
1991.95477256326
 21
1443.172787355253
 31
0.0
  0
LINE
  5
96
330
1F
100
AcDbEntity
  8
0
 62
     0
100
AcDbLine
 10
12.36158959320451
 20
1437.949672190026
 30
0.0
 11
17.41967895628586
 21
1433.415290376712
 31
0.0
  0
LINE
  5
97
330
1F
100
AcDbEntity
  8
0
 62
     0
100
AcDbLine
 10
2000.000000000082
 20
1902.237977342745
 30
0.0
 11
0.0
 21
1902.23797734189
 31
0.0
  0
LINE
  5
98
330
1F
100
AcDbEntity
  8
0
 62
     0
100
AcDbLine
 10
498.9842565317454
 20
1517.203543667864
 30
0.0
 11
623.7031051521077
 21
1532.517092732102
 31
0.0
  0
LINE
  5
99
330
1F
100
AcDbEntity
  8
0
 62
     0
100
AcDbLine
 10
374.8758184193557
 20
1497.546698157827
 30
0.0
 11
498.9842565317454
 21
1517.203543667864
 31
0.0
  0
LINE
  5
9A
330
1F
100
AcDbEntity
  8
0
 62
     0
100
AcDbLine
 10
1870.905926138229
 20
1445.304175614095
 30
0.0
 11
1944.000000000303
 21
1425.718677551207
 31
0.0
  0
LINE
  5
9B
330
1F
100
AcDbEntity
  8
0
 62
     0
100
AcDbLine
 10
1501.015743468533
 20
1517.203543668245
 30
0.0
 11
1625.124181580952
 21
1497.546698158346
 31
0.0
  0
LINE
  5
9C
330
1F
100
AcDbEntity
  8
0
 62
     0
100
AcDbLine
 10
2.060726929594557
 20
1455.350147099282
 30
0.0
 11
4.591683610413929
 21
1449.046247931893
 31
0.0
  0
LINE
  5
9D
330
1F
100
AcDbEntity
  8
0
 62
     0
100
AcDbLine
 10
1991.95477256326
 20
1443.172787355253
 30
0.0
 11
1995.412266364731
 21
1449.013272381252
 31
0.0
  0
LINE
  5
9E
330
1F
100
AcDbEntity
  8
0
 62
     0
100
AcDbLine
 10
748.880413574562
 20
1543.468688149864
 30
0.0
 11
874.3636725312867
 21
1550.044987088944
 31
0.0
  0
LINE
  5
9F
330
1F
100
AcDbEntity
  8
0
 62
     0
100
AcDbLine
 10
1997.941045801633
 20
1455.311748648261
 30
0.0
 11
1999.482248528031
 21
1461.921606656025
 31
0.0
  0
LINE
  5
A0
330
1F
100
AcDbEntity
  8
0
 62
     0
100
AcDbLine
 10
35.83815405447435
 20
1425.069987881163
 30
0.0
 11
42.58231285788401
 21
1424.256840620813
 31
0.0
  0
LINE
  5
A1
330
1F
100
AcDbEntity
  8
0
 62
     0
100
AcDbLine
 10
23.10868531495771
 20
1429.703135600301
 30
0.0
 11
29.29618578730619
 21
1426.899615609714
 31
0.0
  0
LINE
  5
A2
330
1F
100
AcDbEntity
  8
0
 62
     0
100
AcDbLine
 10
1748.471002171126
 20
1473.570505040921
 30
0.0
 11
1870.905926138229
 21
1445.304175614095
 31
0.0
  0
LINE
  5
A3
330
1F
100
AcDbEntity
  8
0
 62
     0
100
AcDbLine
 10
8.052154265976286
 20
1443.200734329505
 30
0.0
 11
12.36158959320451
 21
1437.949672190026
 31
0.0
  0
LINE
  5
A4
330
1F
100
AcDbEntity
  8
0
 62
     0
100
AcDbLine
 10
1999.482248528031
 20
1461.921606656025
 30
0.0
 11
2000.000000000181
 21
1468.688988878121
 31
0.0
  0
LINE
  5
A5
330
1F
100
AcDbEntity
  8
0
 62
     0
100
AcDbLine
 10
623.7031051521077
 20
1532.517092732102
 30
0.0
 11
748.880413574562
 21
1543.468688149864
 31
0.0
  0
LINE
  5
A6
330
1F
100
AcDbEntity
  8
0
 62
     0
100
AcDbLine
 10
1982.595306243153
 20
1433.395761285831
 30
0.0
 11
1987.649044408103
 21
1437.926242417834
 31
0.0
  0
LINE
  5
A7
330
1F
100
AcDbEntity
  8
0
 62
     0
100
AcDbLine
 10
1957.454318382219
 20
1424.245190044429
 30
0.0
 11
1964.192675553989
 21
1425.057637798463
 31
0.0
  0
POLYLINE
  5
A8
330
1F
100
AcDbEntity
  8
0
 62
     0
100
AcDb3dPolyline
 66
     1
 10
0.0
 20
0.0
 30
0.0
 70
     9
  0
VERTEX
  5
A9
330
A8
100
AcDbEntity
  8
0
 62
     0
100
AcDbVertex
100
AcDb3dPolylineVertex
 10
1995.362650585239
 20
982.4851654510345
 30
0.0
 70
    32
  0
VERTEX
  5
AA
330
A8
100
AcDbEntity
  8
0
 62
     0
100
AcDbVertex
100
AcDb3dPolylineVertex
 10
1997.917996492133
 20
988.7183246958867
 30
0.0
 70
    32
  0
VERTEX
  5
AB
330
A8
100
AcDbEntity
  8
0
 62
     0
100
AcDbVertex
100
AcDb3dPolylineVertex
 10
1999.476334829484
 20
995.2722279987006
 30
0.0
 70
    32
  0
VERTEX
  5
AC
330
A8
100
AcDbEntity
  8
0
 62
     0
100
AcDbVertex
100
AcDb3dPolylineVertex
 10
2000.000000000325
 20
1001.988465164269
 30
0.0
 70
    32
  0
VERTEX
  5
AD
330
A8
100
AcDbEntity
  8
0
 62
     0
100
AcDbVertex
100
AcDb3dPolylineVertex
 10
2000.000000000267
 20
1309.421841571478
 30
0.0
 70
    32
  0
VERTEX
  5
AE
330
A8
100
AcDbEntity
  8
0
 62
     0
100
AcDbVertex
100
AcDb3dPolylineVertex
 10
1992.279785387204
 20
1311.782148046102
 30
0.0
 70
    32
  0
VERTEX
  5
AF
330
A8
100
AcDbEntity
  8
0
 62
     0
100
AcDbVertex
100
AcDb3dPolylineVertex
 10
1870.905926138281
 20
1344.304175614053
 30
0.0
 70
    32
  0
VERTEX
  5
B0
330
A8
100
AcDbEntity
  8
0
 62
     0
100
AcDbVertex
100
AcDb3dPolylineVertex
 10
1748.471002171045
 20
1372.570505040926
 30
0.0
 70
    32
  0
VERTEX
  5
B1
330
A8
100
AcDbEntity
  8
0
 62
     0
100
AcDbVertex
100
AcDb3dPolylineVertex
 10
1625.124181580975
 20
1396.546698158316
 30
0.0
 70
    32
  0
VERTEX
  5
B2
330
A8
100
AcDbEntity
  8
0
 62
     0
100
AcDbVertex
100
AcDb3dPolylineVertex
 10
1501.015743468487
 20
1416.203543668284
 30
0.0
 70
    32
  0
VERTEX
  5
B3
330
A8
100
AcDbEntity
  8
0
 62
     0
100
AcDbVertex
100
AcDb3dPolylineVertex
 10
1376.296894848229
 20
1431.51709273243
 30
0.0
 70
    32
  0
VERTEX
  5
B4
330
A8
100
AcDbEntity
  8
0
 62
     0
100
AcDbVertex
100
AcDb3dPolylineVertex
 10
1251.119586425636
 20
1442.468688149996
 30
0.0
 70
    32
  0
VERTEX
  5
B5
330
A8
100
AcDbEntity
  8
0
 62
     0
100
AcDbVertex
100
AcDb3dPolylineVertex
 10
1125.636327469073
 20
1449.044987089087
 30
0.0
 70
    32
  0
VERTEX
  5
B6
330
A8
100
AcDbEntity
  8
0
 62
     0
100
AcDbVertex
100
AcDb3dPolylineVertex
 10
1000.000000000165
 20
1451.237977342353
 30
0.0
 70
    32
  0
VERTEX
  5
B7
330
A8
100
AcDbEntity
  8
0
 62
     0
100
AcDbVertex
100
AcDb3dPolylineVertex
 10
874.3636725312464
 20
1449.044987088983
 30
0.0
 70
    32
  0
VERTEX
  5
B8
330
A8
100
AcDbEntity
  8
0
 62
     0
100
AcDbVertex
100
AcDb3dPolylineVertex
 10
748.8804135745852
 20
1442.468688149765
 30
0.0
 70
    32
  0
VERTEX
  5
B9
330
A8
100
AcDbEntity
  8
0
 62
     0
100
AcDbVertex
100
AcDb3dPolylineVertex
 10
623.7031051520788
 20
1431.517092732083
 30
0.0
 70
    32
  0
VERTEX
  5
BA
330
A8
100
AcDbEntity
  8
0
 62
     0
100
AcDbVertex
100
AcDb3dPolylineVertex
 10
498.9842565317512
 20
1416.203543667891
 30
0.0
 70
    32
  0
VERTEX
  5
BB
330
A8
100
AcDbEntity
  8
0
 62
     0
100
AcDbVertex
100
AcDb3dPolylineVertex
 10
374.8758184193036
 20
1396.546698157866
 30
0.0
 70
    32
  0
VERTEX
  5
BC
330
A8
100
AcDbEntity
  8
0
 62
     0
100
AcDbVertex
100
AcDb3dPolylineVertex
 10
251.5289978292857
 20
1372.570505040244
 30
0.0
 70
    32
  0
VERTEX
  5
BD
330
A8
100
AcDbEntity
  8
0
 62
     0
100
AcDbVertex
100
AcDb3dPolylineVertex
 10
129.0940738620613
 20
1344.30417561336
 30
0.0
 70
    32
  0
VERTEX
  5
BE
330
A8
100
AcDbEntity
  8
0
 62
     0
100
AcDbVertex
100
AcDb3dPolylineVertex
 10
7.720214613160851
 20
1311.782148045316
 30
0.0
 70
    32
  0
VERTEX
  5
BF
330
A8
100
AcDbEntity
  8
0
 62
     0
100
AcDbVertex
100
AcDb3dPolylineVertex
 10
0.0000000002425622
 20
1309.421841570658
 30
0.0
 70
    32
  0
VERTEX
  5
C0
330
A8
100
AcDbEntity
  8
0
 62
     0
100
AcDbVertex
100
AcDb3dPolylineVertex
 10
0.0000000003753939
 20
1002.038883422199
 30
0.0
 70
    32
  0
VERTEX
  5
C1
330
A8
100
AcDbEntity
  8
0
 62
     0
100
AcDbVertex
100
AcDb3dPolylineVertex
 10
0.52411603960727
 20
995.3168636698451
 30
0.0
 70
    32
  0
VERTEX
  5
C2
330
A8
100
AcDbEntity
  8
0
 62
     0
100
AcDbVertex
100
AcDb3dPolylineVertex
 10
2.083796084600954
 20
988.7573175475641
 30
0.0
 70
    32
  0
VERTEX
  5
C3
330
A8
100
AcDbEntity
  8
0
 62
     0
100
AcDbVertex
100
AcDb3dPolylineVertex
 10
4.641342108708113
 20
982.5187916394157
 30
0.0
 70
    32
  0
VERTEX
  5
C4
330
A8
100
AcDbEntity
  8
0
 62
     0
100
AcDbVertex
100
AcDb3dPolylineVertex
 10
8.134937306894154
 20
976.7520733554919
 30
0.0
 70
    32
  0
VERTEX
  5
C5
330
A8
100
AcDbEntity
  8
0
 62
     0
100
AcDbVertex
100
AcDb3dPolylineVertex
 10
12.48014022901148
 20
971.5965463467753
 30
0.0
 70
    32
  0
VERTEX
  5
C6
330
A8
100
AcDbEntity
  8
0
 62
     0
100
AcDbVertex
100
AcDb3dPolylineVertex
 10
17.57192576110588
 20
967.1768215510923
 30
0.0
 70
    32
  0
VERTEX
  5
C7
330
A8
100
AcDbEntity
  8
0
 62
     0
100
AcDbVertex
100
AcDb3dPolylineVertex
 10
23.28722361924879
 20
963.5997253033721
 30
0.0
 70
    32
  0
VERTEX
  5
C8
330
A8
100
AcDbEntity
  8
0
 62
     0
100
AcDbVertex
100
AcDb3dPolylineVertex
 10
29.4878930029713
 20
960.9517173035567
 30
0.0
 70
    32
  0
VERTEX
  5
C9
330
A8
100
AcDbEntity
  8
0
 62
     0
100
AcDbVertex
100
AcDb3dPolylineVertex
 10
36.0240615078515
 20
959.296800855572
 30
0.0
 70
    32
  0
VERTEX
  5
CA
330
A8
100
AcDbEntity
  8
0
 62
     0
100
AcDbVertex
100
AcDb3dPolylineVertex
 10
42.73774759497964
 20
958.6749758837395
 30
0.0
 70
    32
  0
VERTEX
  5
CB
330
A8
100
AcDbEntity
  8
0
 62
     0
100
AcDbVertex
100
AcDb3dPolylineVertex
 10
49.46667906233074
 20
959.1012721209477
 30
0.0
 70
    32
  0
VERTEX
  5
CC
330
A8
100
AcDbEntity
  8
0
 62
     0
100
AcDbVertex
100
AcDb3dPolylineVertex
 10
56.04821522101683
 20
960.5653858341733
 30
0.0
 70
    32
  0
VERTEX
  5
CD
330
A8
100
AcDbEntity
  8
0
 62
     0
100
AcDbVertex
100
AcDb3dPolylineVertex
 10
104.2079847040042
 20
975.2893049770521
 30
0.0
 70
    32
  0
VERTEX
  5
CE
330
A8
100
AcDbEntity
  8
0
 62
     0
100
AcDbVertex
100
AcDb3dPolylineVertex
 10
213.7796353433477
 20
1004.648940279275
 30
0.0
 70
    32
  0
VERTEX
  5
CF
330
A8
100
AcDbEntity
  8
0
 62
     0
100
AcDbVertex
100
AcDb3dPolylineVertex
 10
324.3091743889116
 20
1030.166695024825
 30
0.0
 70
    32
  0
VERTEX
  5
D0
330
A8
100
AcDbEntity
  8
0
 62
     0
100
AcDbVertex
100
AcDb3dPolylineVertex
 10
435.6619386233929
 20
1051.811479760116
 30
0.0
 70
    32
  0
VERTEX
  5
D1
330
A8
100
AcDbEntity
  8
0
 62
     0
100
AcDbVertex
100
AcDb3dPolylineVertex
 10
547.7022618561342
 20
1069.556923649147
 30
0.0
 70
    32
  0
VERTEX
  5
D2
330
A8
100
AcDbEntity
  8
0
 62
     0
100
AcDbVertex
100
AcDb3dPolylineVertex
 10
660.2936402115815
 20
1083.38140660204
 30
0.0
 70
    32
  0
VERTEX
  5
D3
330
A8
100
AcDbEntity
  8
0
 62
     0
100
AcDbVertex
100
AcDb3dPolylineVertex
 10
773.2988984387438
 20
1093.268085615695
 30
0.0
 70
    32
  0
VERTEX
  5
D4
330
A8
100
AcDbEntity
  8
0
 62
     0
100
AcDbVertex
100
AcDb3dPolylineVertex
 10
886.5803570375326
 20
1099.204915294896
 30
0.0
 70
    32
  0
VERTEX
  5
D5
330
A8
100
AcDbEntity
  8
0
 62
     0
100
AcDbVertex
100
AcDb3dPolylineVertex
 10
1000.000000000275
 20
1101.184662526962
 30
0.0
 70
    32
  0
VERTEX
  5
D6
330
A8
100
AcDbEntity
  8
0
 62
     0
100
AcDbVertex
100
AcDb3dPolylineVertex
 10
1113.419642963093
 20
1099.204915294954
 30
0.0
 70
    32
  0
VERTEX
  5
D7
330
A8
100
AcDbEntity
  8
0
 62
     0
100
AcDbVertex
100
AcDb3dPolylineVertex
 10
1226.701101561795
 20
1093.268085615949
 30
0.0
 70
    32
  0
VERTEX
  5
D8
330
A8
100
AcDbEntity
  8
0
 62
     0
100
AcDbVertex
100
AcDb3dPolylineVertex
 10
1339.706359788911
 20
1083.381406602237
 30
0.0
 70
    32
  0
VERTEX
  5
D9
330
A8
100
AcDbEntity
  8
0
 62
     0
100
AcDbVertex
100
AcDb3dPolylineVertex
 10
1452.297738144404
 20
1069.556923649458
 30
0.0
 70
    32
  0
VERTEX
  5
DA
330
A8
100
AcDbEntity
  8
0
 62
     0
100
AcDbVertex
100
AcDb3dPolylineVertex
 10
1564.338061377169
 20
1051.811479760485
 30
0.0
 70
    32
  0
VERTEX
  5
DB
330
A8
100
AcDbEntity
  8
0
 62
     0
100
AcDbVertex
100
AcDb3dPolylineVertex
 10
1675.690825611639
 20
1030.166695025264
 30
0.0
 70
    32
  0
VERTEX
  5
DC
330
A8
100
AcDbEntity
  8
0
 62
     0
100
AcDbVertex
100
AcDb3dPolylineVertex
 10
1786.220364657335
 20
1004.648940279956
 30
0.0
 70
    32
  0
VERTEX
  5
DD
330
A8
100
AcDbEntity
  8
0
 62
     0
100
AcDbVertex
100
AcDb3dPolylineVertex
 10
1895.79201529665
 20
975.289304977849
 30
0.0
 70
    32
  0
VERTEX
  5
DE
330
A8
100
AcDbEntity
  8
0
 62
     0
100
AcDbVertex
100
AcDb3dPolylineVertex
 10
1944.000000000401
 20
960.5506449626469
 30
0.0
 70
    32
  0
VERTEX
  5
DF
330
A8
100
AcDbEntity
  8
0
 62
     0
100
AcDbVertex
100
AcDb3dPolylineVertex
 10
1950.575874422746
 20
959.0877907465367
 30
0.0
 70
    32
  0
VERTEX
  5
E0
330
A8
100
AcDbEntity
  8
0
 62
     0
100
AcDbVertex
100
AcDb3dPolylineVertex
 10
1957.299017357458
 20
958.6618612287675
 30
0.0
 70
    32
  0
VERTEX
  5
E1
330
A8
100
AcDbEntity
  8
0
 62
     0
100
AcDbVertex
100
AcDb3dPolylineVertex
 10
1964.006928026965
 20
959.28315127848
 30
0.0
 70
    32
  0
VERTEX
  5
E2
330
A8
100
AcDbEntity
  8
0
 62
     0
100
AcDbVertex
100
AcDb3dPolylineVertex
 10
1970.537473822745
 20
960.9366440922539
 30
0.0
 70
    32
  0
VERTEX
  5
E3
330
A8
100
AcDbEntity
  8
0
 62
     0
100
AcDbVertex
100
AcDb3dPolylineVertex
 10
1976.732809109046
 20
963.5823741552886
 30
0.0
 70
    32
  0
VERTEX
  5
E4
330
A8
100
AcDbEntity
  8
0
 62
     0
100
AcDbVertex
100
AcDb3dPolylineVertex
 10
1982.443190408369
 20
967.1563932224096
 30
0.0
 70
    32
  0
VERTEX
  5
E5
330
A8
100
AcDbEntity
  8
0
 62
     0
100
AcDbVertex
100
AcDb3dPolylineVertex
 10
1987.530595755233
 20
971.5723159698757
 30
0.0
 70
    32
  0
VERTEX
  5
E6
330
A8
100
AcDbEntity
  8
0
 62
     0
100
AcDbVertex
100
AcDb3dPolylineVertex
 10
1991.87206073638
 20
976.7234079602446
 30
0.0
 70
    32
  0
VERTEX
  5
E7
330
A8
100
AcDbEntity
  8
0
 62
     0
100
AcDbVertex
100
AcDb3dPolylineVertex
 10
1995.362650585239
 20
982.4851654510345
 30
0.0
 70
    32
  0
SEQEND
  5
E8
330
A8
100
AcDbEntity
  8
0
 62
     0
  0
POLYLINE
  5
E9
330
1F
100
AcDbEntity
  8
0
 62
     0
100
AcDb3dPolyline
 66
     1
 10
0.0
 20
0.0
 30
0.0
 70
     9
  0
VERTEX
  5
EA
330
E9
100
AcDbEntity
  8
0
 62
     0
100
AcDbVertex
100
AcDb3dPolylineVertex
 10
0.0
 20
356.1033334150383
 30
0.0
 70
    32
  0
VERTEX
  5
EB
330
E9
100
AcDbEntity
  8
0
 62
     0
100
AcDbVertex
100
AcDb3dPolylineVertex
 10
8.196288577300857
 20
359.2495938205571
 30
0.0
 70
    32
  0
VERTEX
  5
EC
330
E9
100
AcDbEntity
  8
0
 62
     0
100
AcDbVertex
100
AcDb3dPolylineVertex
 10
103.9001418640109
 20
392.2030732055096
 30
0.0
 70
    32
  0
VERTEX
  5
ED
330
E9
100
AcDbEntity
  8
0
 62
     0
100
AcDbVertex
100
AcDb3dPolylineVertex
 10
200.6957547943855
 20
421.7964619088894
 30
0.0
 70
    32
  0
VERTEX
  5
EE
330
E9
100
AcDbEntity
  8
0
 62
     0
100
AcDbVertex
100
AcDb3dPolylineVertex
 10
298.4651968240797
 20
447.993704945164
 30
0.0
 70
    32
  0
VERTEX
  5
EF
330
E9
100
AcDbEntity
  8
0
 62
     0
100
AcDbVertex
100
AcDb3dPolylineVertex
 10
397.0893509483066
 20
470.7628850092303
 30
0.0
 70
    32
  0
VERTEX
  5
F0
330
E9
100
AcDbEntity
  8
0
 62
     0
100
AcDbVertex
100
AcDb3dPolylineVertex
 10
496.4480588271587
 20
490.0762613622592
 30
0.0
 70
    32
  0
VERTEX
  5
F1
330
E9
100
AcDbEntity
  8
0
 62
     0
100
AcDbVertex
100
AcDb3dPolylineVertex
 10
596.4202671800148
 20
505.9103036303187
 30
0.0
 70
    32
  0
VERTEX
  5
F2
330
E9
100
AcDbEntity
  8
0
 62
     0
100
AcDbVertex
100
AcDb3dPolylineVertex
 10
696.8841752707203
 20
518.2457204718679
 30
0.0
 70
    32
  0
VERTEX
  5
F3
330
E9
100
AcDbEntity
  8
0
 62
     0
100
AcDbVertex
100
AcDb3dPolylineVertex
 10
797.7173833023653
 20
527.0674830816115
 30
0.0
 70
    32
  0
VERTEX
  5
F4
330
E9
100
AcDbEntity
  8
0
 62
     0
100
AcDbVertex
100
AcDb3dPolylineVertex
 10
898.7970415433222
 20
532.3648435008176
 30
0.0
 70
    32
  0
VERTEX
  5
F5
330
E9
100
AcDbEntity
  8
0
 62
     0
100
AcDbVertex
100
AcDb3dPolylineVertex
 10
999.9999999999459
 20
534.1313477115788
 30
0.0
 70
    32
  0
VERTEX
  5
F6
330
E9
100
AcDbEntity
  8
0
 62
     0
100
AcDbVertex
100
AcDb3dPolylineVertex
 10
1101.202958456708
 20
532.3648435007946
 30
0.0
 70
    32
  0
VERTEX
  5
F7
330
E9
100
AcDbEntity
  8
0
 62
     0
100
AcDbVertex
100
AcDb3dPolylineVertex
 10
1202.282616697555
 20
527.0674830817962
 30
0.0
 70
    32
  0
VERTEX
  5
F8
330
E9
100
AcDbEntity
  8
0
 62
     0
100
AcDbVertex
100
AcDb3dPolylineVertex
 10
1303.115824729287
 20
518.2457204721683
 30
0.0
 70
    32
  0
VERTEX
  5
F9
330
E9
100
AcDbEntity
  8
0
 62
     0
100
AcDbVertex
100
AcDb3dPolylineVertex
 10
1403.57973281994
 20
505.9103036306421
 30
0.0
 70
    32
  0
VERTEX
  5
FA
330
E9
100
AcDbEntity
  8
0
 62
     0
100
AcDbVertex
100
AcDb3dPolylineVertex
 10
1503.551941172796
 20
490.0762613626982
 30
0.0
 70
    32
  0
VERTEX
  5
FB
330
E9
100
AcDbEntity
  8
0
 62
     0
100
AcDbVertex
100
AcDb3dPolylineVertex
 10
1602.910649051706
 20
470.7628850097385
 30
0.0
 70
    32
  0
VERTEX
  5
FC
330
E9
100
AcDbEntity
  8
0
 62
     0
100
AcDbVertex
100
AcDb3dPolylineVertex
 10
1701.534803175899
 20
447.993704945834
 30
0.0
 70
    32
  0
VERTEX
  5
FD
330
E9
100
AcDbEntity
  8
0
 62
     0
100
AcDbVertex
100
AcDb3dPolylineVertex
 10
1799.304245205622
 20
421.7964619095478
 30
0.0
 70
    32
  0
VERTEX
  5
FE
330
E9
100
AcDbEntity
  8
0
 62
     0
100
AcDbVertex
100
AcDb3dPolylineVertex
 10
1896.099858135933
 20
392.2030732062142
 30
0.0
 70
    32
  0
VERTEX
  5
FF
330
E9
100
AcDbEntity
  8
0
 62
     0
100
AcDbVertex
100
AcDb3dPolylineVertex
 10
1991.803711422747
 20
359.2495938213656
 30
0.0
 70
    32
  0
VERTEX
  5
100
330
E9
100
AcDbEntity
  8
0
 62
     0
100
AcDbVertex
100
AcDb3dPolylineVertex
 10
2000.000000000094
 20
356.1033334157198
 30
0.0
 70
    32
  0
VERTEX
  5
101
330
E9
100
AcDbEntity
  8
0
 62
     0
100
AcDbVertex
100
AcDb3dPolylineVertex
 10
2000.000000000146
 20
41.18670528648454
 30
0.0
 70
    32
  0
VERTEX
  5
102
330
E9
100
AcDbEntity
  8
0
 62
     0
100
AcDbVertex
100
AcDb3dPolylineVertex
 10
1999.463912945942
 20
34.55994139910872
 30
0.0
 70
    32
  0
VERTEX
  5
103
330
E9
100
AcDbEntity
  8
0
 62
     0
100
AcDbVertex
100
AcDb3dPolylineVertex
 10
1997.869593942327
 20
28.10552152876407
 30
0.0
 70
    32
  0
VERTEX
  5
104
330
E9
100
AcDbEntity
  8
0
 62
     0
100
AcDbVertex
100
AcDb3dPolylineVertex
 10
1995.258506869316
 20
21.99130749535161
 30
0.0
 70
    32
  0
VERTEX
  5
105
330
E9
100
AcDbEntity
  8
0
 62
     0
100
AcDbVertex
100
AcDb3dPolylineVertex
 10
1991.698558964923
 20
16.37631329534906
 30
0.0
 70
    32
  0
VERTEX
  5
106
330
E9
100
AcDbEntity
  8
0
 62
     0
100
AcDbVertex
100
AcDb3dPolylineVertex
 10
1987.282334744586
 20
11.40656958109812
 30
0.0
 70
    32
  0
VERTEX
  5
107
330
E9
100
AcDbEntity
  8
0
 62
     0
100
AcDbVertex
100
AcDb3dPolylineVertex
 10
1982.124688130295
 20
7.211325803843465
 30
0.0
 70
    32
  0
VERTEX
  5
108
330
E9
100
AcDbEntity
  8
0
 62
     0
100
AcDbVertex
100
AcDb3dPolylineVertex
 10
1976.359755413812
 20
3.899688788216554
 30
0.0
 70
    32
  0
VERTEX
  5
109
330
E9
100
AcDbEntity
  8
0
 62
     0
100
AcDbVertex
100
AcDb3dPolylineVertex
 10
1970.137466739033
 20
1.557785161660104
 30
0.0
 70
    32
  0
VERTEX
  5
10A
330
E9
100
AcDbEntity
  8
0
 62
     0
100
AcDbVertex
100
AcDb3dPolylineVertex
 10
1963.61964682795
 20
0.2465214371180082
 30
0.0
 70
    32
  0
VERTEX
  5
10B
330
E9
100
AcDbEntity
  8
0
 62
     0
100
AcDbVertex
100
AcDb3dPolylineVertex
 10
1956.975806362495
 20
0.0
 30
0.0
 70
    32
  0
VERTEX
  5
10C
330
E9
100
AcDbEntity
  8
0
 62
     0
100
AcDbVertex
100
AcDb3dPolylineVertex
 10
1950.378733474869
 20
0.8246321990443902
 30
0.0
 70
    32
  0
VERTEX
  5
10D
330
E9
100
AcDbEntity
  8
0
 62
     0
100
AcDbVertex
100
AcDb3dPolylineVertex
 10
1944.000000000211
 20
2.698971604716462
 30
0.0
 70
    32
  0
VERTEX
  5
10E
330
E9
100
AcDbEntity
  8
0
 62
     0
100
AcDbVertex
100
AcDb3dPolylineVertex
 10
1872.078426518201
 20
30.30707700762632
 30
0.0
 70
    32
  0
VERTEX
  5
10F
330
E9
100
AcDbEntity
  8
0
 62
     0
100
AcDbVertex
100
AcDb3dPolylineVertex
 10
1787.927434920895
 20
59.28258710024402
 30
0.0
 70
    32
  0
VERTEX
  5
110
330
E9
100
AcDbEntity
  8
0
 62
     0
100
AcDbVertex
100
AcDb3dPolylineVertex
 10
1702.816475115061
 20
85.3036188412605
 30
0.0
 70
    32
  0
VERTEX
  5
111
330
E9
100
AcDbEntity
  8
0
 62
     0
100
AcDbVertex
100
AcDb3dPolylineVertex
 10
1616.849241694988
 20
108.3384696116678
 30
0.0
 70
    32
  0
VERTEX
  5
112
330
E9
100
AcDbEntity
  8
0
 62
     0
100
AcDbVertex
100
AcDb3dPolylineVertex
 10
1530.130472492207
 20
128.3590749940768
 30
0.0
 70
    32
  0
VERTEX
  5
113
330
E9
100
AcDbEntity
  8
0
 62
     0
100
AcDbVertex
100
AcDb3dPolylineVertex
 10
1442.765820969031
 20
145.3410429648211
 30
0.0
 70
    32
  0
VERTEX
  5
114
330
E9
100
AcDbEntity
  8
0
 62
     0
100
AcDbVertex
100
AcDb3dPolylineVertex
 10
1354.861727495823
 20
159.2636836118166
 30
0.0
 70
    32
  0
VERTEX
  5
115
330
E9
100
AcDbEntity
  8
0
 62
     0
100
AcDbVertex
100
AcDb3dPolylineVertex
 10
1266.525289670004
 20
170.110034341952
 30
0.0
 70
    32
  0
VERTEX
  5
116
330
E9
100
AcDbEntity
  8
0
 62
     0
100
AcDbVertex
100
AcDb3dPolylineVertex
 10
1177.864131833732
 20
177.8668805476806
 30
0.0
 70
    32
  0
VERTEX
  5
117
330
E9
100
AcDbEntity
  8
0
 62
     0
100
AcDbVertex
100
AcDb3dPolylineVertex
 10
1088.986273950676
 20
182.5247717067303
 30
0.0
 70
    32
  0
VERTEX
  5
118
330
E9
100
AcDbEntity
  8
0
 62
     0
100
AcDbVertex
100
AcDb3dPolylineVertex
 10
1000.000000000165
 20
184.0780328962215
 30
0.0
 70
    32
  0
VERTEX
  5
119
330
E9
100
AcDbEntity
  8
0
 62
     0
100
AcDbVertex
100
AcDb3dPolylineVertex
 10
911.0137260495044
 20
182.5247717066263
 30
0.0
 70
    32
  0
VERTEX
  5
11A
330
E9
100
AcDbEntity
  8
0
 62
     0
100
AcDbVertex
100
AcDb3dPolylineVertex
 10
822.1358681665586
 20
177.8668805475304
 30
0.0
 70
    32
  0
VERTEX
  5
11B
330
E9
100
AcDbEntity
  8
0
 62
     0
100
AcDbVertex
100
AcDb3dPolylineVertex
 10
733.4747103302693
 20
170.110034341721
 30
0.0
 70
    32
  0
VERTEX
  5
11C
330
E9
100
AcDbEntity
  8
0
 62
     0
100
AcDbVertex
100
AcDb3dPolylineVertex
 10
645.138272504392
 20
159.263683611574
 30
0.0
 70
    32
  0
VERTEX
  5
11D
330
E9
100
AcDbEntity
  8
0
 62
     0
100
AcDbVertex
100
AcDb3dPolylineVertex
 10
557.2341790312306
 20
145.3410429645554
 30
0.0
 70
    32
  0
VERTEX
  5
11E
330
E9
100
AcDbEntity
  8
0
 62
     0
100
AcDbVertex
100
AcDb3dPolylineVertex
 10
469.8695275080712
 20
128.3590749936956
 30
0.0
 70
    32
  0
VERTEX
  5
11F
330
E9
100
AcDbEntity
  8
0
 62
     0
100
AcDbVertex
100
AcDb3dPolylineVertex
 10
383.1507583052968
 20
108.3384696111827
 30
0.0
 70
    32
  0
VERTEX
  5
120
330
E9
100
AcDbEntity
  8
0
 62
     0
100
AcDbVertex
100
AcDb3dPolylineVertex
 10
297.1835248851768
 20
85.30361884062522
 30
0.0
 70
    32
  0
VERTEX
  5
121
330
E9
100
AcDbEntity
  8
0
 62
     0
100
AcDbVertex
100
AcDb3dPolylineVertex
 10
212.072565079436
 20
59.28258709966649
 30
0.0
 70
    32
  0
VERTEX
  5
122
330
E9
100
AcDbEntity
  8
0
 62
     0
100
AcDbVertex
100
AcDb3dPolylineVertex
 10
127.921573482176
 20
30.30707700694484
 30
0.0
 70
    32
  0
VERTEX
  5
123
330
E9
100
AcDbEntity
  8
0
 62
     0
100
AcDbVertex
100
AcDb3dPolylineVertex
 10
56.04821522078582
 20
2.71747969318103
 30
0.0
 70
    32
  0
VERTEX
  5
124
330
E9
100
AcDbEntity
  8
0
 62
     0
100
AcDbVertex
100
AcDb3dPolylineVertex
 10
49.66398974543058
 20
0.8415265072590046
 30
0.0
 70
    32
  0
VERTEX
  5
125
330
E9
100
AcDbEntity
  8
0
 62
     0
100
AcDbVertex
100
AcDb3dPolylineVertex
 10
43.06123686979885
 20
0.0161843113020041
 30
0.0
 70
    32
  0
VERTEX
  5
126
330
E9
100
AcDbEntity
  8
0
 62
     0
100
AcDbVertex
100
AcDb3dPolylineVertex
 10
36.41167615027284
 20
0.2629179999874395
 30
0.0
 70
    32
  0
VERTEX
  5
127
330
E9
100
AcDbEntity
  8
0
 62
     0
100
AcDbVertex
100
AcDb3dPolylineVertex
 10
29.88824448694326
 20
1.575310704426465
 30
0.0
 70
    32
  0
VERTEX
  5
128
330
E9
100
AcDbEntity
  8
0
 62
     0
100
AcDbVertex
100
AcDb3dPolylineVertex
 10
23.66059850813772
 20
3.919230677350879
 30
0.0
 70
    32
  0
VERTEX
  5
129
330
E9
100
AcDbEntity
  8
0
 62
     0
100
AcDbVertex
100
AcDb3dPolylineVertex
 10
17.89070226485578
 20
7.233718966367633
 30
0.0
 70
    32
  0
VERTEX
  5
12A
330
E9
100
AcDbEntity
  8
0
 62
     0
100
AcDbVertex
100
AcDb3dPolylineVertex
 10
12.72861498854477
 20
11.43257479013619
 30
0.0
 70
    32
  0
VERTEX
  5
12B
330
E9
100
AcDbEntity
  8
0
 62
     0
100
AcDbVertex
100
AcDb3dPolylineVertex
 10
8.308588460679948
 20
16.406597384418
 30
0.0
 70
    32
  0
VERTEX
  5
12C
330
E9
100
AcDbEntity
  8
0
 62
     0
100
AcDbVertex
100
AcDb3dPolylineVertex
 10
4.74557549071933
 20
22.02642601639727
 30
0.0
 70
    32
  0
VERTEX
  5
12D
330
E9
100
AcDbEntity
  8
0
 62
     0
100
AcDbVertex
100
AcDb3dPolylineVertex
 10
2.13224030797428
 20
28.14590430298285
 30
0.0
 70
    32
  0
VERTEX
  5
12E
330
E9
100
AcDbEntity
  8
0
 62
     0
100
AcDbVertex
100
AcDb3dPolylineVertex
 10
0.5365486178853643
 20
34.60588133899819
 30
0.0
 70
    32
  0
VERTEX
  5
12F
330
E9
100
AcDbEntity
  8
0
 62
     0
100
AcDbVertex
100
AcDb3dPolylineVertex
 10
0.0000000001732587
 20
41.23835077788763
 30
0.0
 70
    32
  0
VERTEX
  5
130
330
E9
100
AcDbEntity
  8
0
 62
     0
100
AcDbVertex
100
AcDb3dPolylineVertex
 10
0.0
 20
356.1033334150383
 30
0.0
 70
    32
  0
SEQEND
  5
131
330
E9
100
AcDbEntity
  8
0
 62
     0
  0
POLYLINE
  5
132
330
1F
100
AcDbEntity
  8
0
 62
     0
100
AcDb3dPolyline
 66
     1
 10
0.0
 20
0.0
 30
0.0
 70
     9
  0
VERTEX
  5
133
330
132
100
AcDbEntity
  8
0
 62
     0
100
AcDbVertex
100
AcDb3dPolylineVertex
 10
4.692622646063273
 20
502.3451246252724
 30
0.0
 70
    32
  0
VERTEX
  5
134
330
132
100
AcDbEntity
  8
0
 62
     0
100
AcDbVertex
100
AcDb3dPolylineVertex
 10
2.107625892709302
 20
508.522234553635
 30
0.0
 70
    32
  0
VERTEX
  5
135
330
132
100
AcDbEntity
  8
0
 62
     0
100
AcDbVertex
100
AcDb3dPolylineVertex
 10
0.5302310831069007
 20
515.0299777028172
 30
0.0
 70
    32
  0
VERTEX
  5
136
330
132
100
AcDbEntity
  8
0
 62
     0
100
AcDbVertex
100
AcDb3dPolylineVertex
 10
0.0000000005428774
 20
521.7051368978823
 30
0.0
 70
    32
  0
VERTEX
  5
137
330
132
100
AcDbEntity
  8
0
 62
     0
100
AcDbVertex
100
AcDb3dPolylineVertex
 10
0.0000000004446974
 20
832.4297268001384
 30
0.0
 70
    32
  0
VERTEX
  5
138
330
132
100
AcDbEntity
  8
0
 62
     0
100
AcDbVertex
100
AcDb3dPolylineVertex
 10
104.2079847039407
 20
864.2893049771375
 30
0.0
 70
    32
  0
VERTEX
  5
139
330
132
100
AcDbEntity
  8
0
 62
     0
100
AcDbVertex
100
AcDb3dPolylineVertex
 10
213.7796353433304
 20
893.6489402792794
 30
0.0
 70
    32
  0
VERTEX
  5
13A
330
132
100
AcDbEntity
  8
0
 62
     0
100
AcDbVertex
100
AcDb3dPolylineVertex
 10
324.3091743889001
 20
919.1666950247719
 30
0.0
 70
    32
  0
VERTEX
  5
13B
330
132
100
AcDbEntity
  8
0
 62
     0
100
AcDbVertex
100
AcDb3dPolylineVertex
 10
435.6619386234275
 20
940.8114797600855
 30
0.0
 70
    32
  0
VERTEX
  5
13C
330
132
100
AcDbEntity
  8
0
 62
     0
100
AcDbVertex
100
AcDb3dPolylineVertex
 10
547.7022618561458
 20
958.5569236490818
 30
0.0
 70
    32
  0
VERTEX
  5
13D
330
132
100
AcDbEntity
  8
0
 62
     0
100
AcDbVertex
100
AcDb3dPolylineVertex
 10
660.2936402116798
 20
972.3814066019524
 30
0.0
 70
    32
  0
VERTEX
  5
13E
330
132
100
AcDbEntity
  8
0
 62
     0
100
AcDbVertex
100
AcDb3dPolylineVertex
 10
773.2988984387611
 20
982.2680856157341
 30
0.0
 70
    32
  0
VERTEX
  5
13F
330
132
100
AcDbEntity
  8
0
 62
     0
100
AcDbVertex
100
AcDb3dPolylineVertex
 10
886.5803570375615
 20
988.204915294808
 30
0.0
 70
    32
  0
VERTEX
  5
140
330
132
100
AcDbEntity
  8
0
 62
     0
100
AcDbVertex
100
AcDb3dPolylineVertex
 10
1000.000000000344
 20
990.184662526966
 30
0.0
 70
    32
  0
VERTEX
  5
141
330
132
100
AcDbEntity
  8
0
 62
     0
100
AcDbVertex
100
AcDb3dPolylineVertex
 10
1113.419642963046
 20
988.2049152949465
 30
0.0
 70
    32
  0
VERTEX
  5
142
330
132
100
AcDbEntity
  8
0
 62
     0
100
AcDbVertex
100
AcDb3dPolylineVertex
 10
1226.701101561777
 20
982.268085615919
 30
0.0
 70
    32
  0
VERTEX
  5
143
330
132
100
AcDbEntity
  8
0
 62
     0
100
AcDbVertex
100
AcDb3dPolylineVertex
 10
1339.706359788986
 20
972.381406602195
 30
0.0
 70
    32
  0
VERTEX
  5
144
330
132
100
AcDbEntity
  8
0
 62
     0
100
AcDbVertex
100
AcDb3dPolylineVertex
 10
1452.297738144416
 20
958.5569236494283
 30
0.0
 70
    32
  0
VERTEX
  5
145
330
132
100
AcDbEntity
  8
0
 62
     0
100
AcDbVertex
100
AcDb3dPolylineVertex
 10
1564.338061377088
 20
940.8114797604667
 30
0.0
 70
    32
  0
VERTEX
  5
146
330
132
100
AcDbEntity
  8
0
 62
     0
100
AcDbVertex
100
AcDb3dPolylineVertex
 10
1675.690825611685
 20
919.1666950253148
 30
0.0
 70
    32
  0
VERTEX
  5
147
330
132
100
AcDbEntity
  8
0
 62
     0
100
AcDbVertex
100
AcDb3dPolylineVertex
 10
1786.220364657353
 20
893.6489402799493
 30
0.0
 70
    32
  0
VERTEX
  5
148
330
132
100
AcDbEntity
  8
0
 62
     0
100
AcDbVertex
100
AcDb3dPolylineVertex
 10
1895.792015296638
 20
864.2893049778189
 30
0.0
 70
    32
  0
VERTEX
  5
149
330
132
100
AcDbEntity
  8
0
 62
     0
100
AcDbVertex
100
AcDb3dPolylineVertex
 10
2000.000000000435
 20
832.4297268009353
 30
0.0
 70
    32
  0
VERTEX
  5
14A
330
132
100
AcDbEntity
  8
0
 62
     0
100
AcDbVertex
100
AcDb3dPolylineVertex
 10
2000.000000000469
 20
521.6541434842077
 30
0.0
 70
    32
  0
VERTEX
  5
14B
330
132
100
AcDbEntity
  8
0
 62
     0
100
AcDbVertex
100
AcDb3dPolylineVertex
 10
1999.47022504679
 20
514.9847265641977
 30
0.0
 70
    32
  0
VERTEX
  5
14C
330
132
100
AcDbEntity
  8
0
 62
     0
100
AcDbVertex
100
AcDb3dPolylineVertex
 10
1997.894187183803
 20
508.4825816713528
 30
0.0
 70
    32
  0
VERTEX
  5
14D
330
132
100
AcDbEntity
  8
0
 62
     0
100
AcDbVertex
100
AcDb3dPolylineVertex
 10
1995.311414162112
 20
502.3107855735745
 30
0.0
 70
    32
  0
VERTEX
  5
14E
330
132
100
AcDbEntity
  8
0
 62
     0
100
AcDbVertex
100
AcDb3dPolylineVertex
 10
1991.786683110516
 20
496.6241297402001
 30
0.0
 70
    32
  0
VERTEX
  5
14F
330
132
100
AcDbEntity
  8
0
 62
     0
100
AcDbVertex
100
AcDb3dPolylineVertex
 10
1987.408395895889
 20
491.5652381006545
 30
0.0
 70
    32
  0
VERTEX
  5
150
330
132
100
AcDbEntity
  8
0
 62
     0
100
AcDbVertex
100
AcDb3dPolylineVertex
 10
1982.286361964472
 20
487.2609899713339
 30
0.0
 70
    32
  0
VERTEX
  5
151
330
132
100
AcDbEntity
  8
0
 62
     0
100
AcDbVertex
100
AcDb3dPolylineVertex
 10
1976.549044270085
 20
483.8193378641421
 30
0.0
 70
    32
  0
VERTEX
  5
152
330
132
100
AcDbEntity
  8
0
 62
     0
100
AcDbVertex
100
AcDb3dPolylineVertex
 10
1970.3403373648
 20
481.3265999880444
 30
0.0
 70
    32
  0
VERTEX
  5
153
330
132
100
AcDbEntity
  8
0
 62
     0
100
AcDbVertex
100
AcDb3dPolylineVertex
 10
1963.815958457859
 20
479.8452953495345
 30
0.0
 70
    32
  0
VERTEX
  5
154
330
132
100
AcDbEntity
  8
0
 62
     0
100
AcDbVertex
100
AcDb3dPolylineVertex
 10
1957.139541956656
 20
479.4125757460153
 30
0.0
 70
    32
  0
VERTEX
  5
155
330
132
100
AcDbEntity
  8
0
 62
     0
100
AcDbVertex
100
AcDb3dPolylineVertex
 10
1950.478535440767
 20
480.0392939835722
 30
0.0
 70
    32
  0
VERTEX
  5
156
330
132
100
AcDbEntity
  8
0
 62
     0
100
AcDbVertex
100
AcDb3dPolylineVertex
 10
1944.000000000626
 20
481.7097316818432
 30
0.0
 70
    32
  0
VERTEX
  5
157
330
132
100
AcDbEntity
  8
0
 62
     0
100
AcDbVertex
100
AcDb3dPolylineVertex
 10
1896.099858136458
 20
498.2030732061865
 30
0.0
 70
    32
  0
VERTEX
  5
158
330
132
100
AcDbEntity
  8
0
 62
     0
100
AcDbVertex
100
AcDb3dPolylineVertex
 10
1799.304245206199
 20
527.7964619095548
 30
0.0
 70
    32
  0
VERTEX
  5
159
330
132
100
AcDbEntity
  8
0
 62
     0
100
AcDbVertex
100
AcDb3dPolylineVertex
 10
1701.534803176361
 20
553.993704945864
 30
0.0
 70
    32
  0
VERTEX
  5
15A
330
132
100
AcDbEntity
  8
0
 62
     0
100
AcDbVertex
100
AcDb3dPolylineVertex
 10
1602.910649052093
 20
576.7628850097454
 30
0.0
 70
    32
  0
VERTEX
  5
15B
330
132
100
AcDbEntity
  8
0
 62
     0
100
AcDbVertex
100
AcDb3dPolylineVertex
 10
1503.551941173253
 20
596.0762613627628
 30
0.0
 70
    32
  0
VERTEX
  5
15C
330
132
100
AcDbEntity
  8
0
 62
     0
100
AcDbVertex
100
AcDb3dPolylineVertex
 10
1403.579732820356
 20
611.9103036307414
 30
0.0
 70
    32
  0
VERTEX
  5
15D
330
132
100
AcDbEntity
  8
0
 62
     0
100
AcDbVertex
100
AcDb3dPolylineVertex
 10
1303.115824729726
 20
624.2457204721175
 30
0.0
 70
    32
  0
VERTEX
  5
15E
330
132
100
AcDbEntity
  8
0
 62
     0
100
AcDbVertex
100
AcDb3dPolylineVertex
 10
1202.282616698
 20
633.0674830818148
 30
0.0
 70
    32
  0
VERTEX
  5
15F
330
132
100
AcDbEntity
  8
0
 62
     0
100
AcDbVertex
100
AcDb3dPolylineVertex
 10
1101.20295845702
 20
638.3648435008823
 30
0.0
 70
    32
  0
VERTEX
  5
160
330
132
100
AcDbEntity
  8
0
 62
     0
100
AcDbVertex
100
AcDb3dPolylineVertex
 10
1000.000000000431
 20
640.1313477115625
 30
0.0
 70
    32
  0
VERTEX
  5
161
330
132
100
AcDbEntity
  8
0
 62
     0
100
AcDbVertex
100
AcDb3dPolylineVertex
 10
898.7970415437264
 20
638.3648435008361
 30
0.0
 70
    32
  0
VERTEX
  5
162
330
132
100
AcDbEntity
  8
0
 62
     0
100
AcDbVertex
100
AcDb3dPolylineVertex
 10
797.7173833029082
 20
633.0674830816184
 30
0.0
 70
    32
  0
VERTEX
  5
163
330
132
100
AcDbEntity
  8
0
 62
     0
100
AcDbVertex
100
AcDb3dPolylineVertex
 10
696.8841752711882
 20
624.2457204718518
 30
0.0
 70
    32
  0
VERTEX
  5
164
330
132
100
AcDbEntity
  8
0
 62
     0
100
AcDbVertex
100
AcDb3dPolylineVertex
 10
596.4202671805115
 20
611.9103036303025
 30
0.0
 70
    32
  0
VERTEX
  5
165
330
132
100
AcDbEntity
  8
0
 62
     0
100
AcDbVertex
100
AcDb3dPolylineVertex
 10
496.4480588275976
 20
596.0762613623355
 30
0.0
 70
    32
  0
VERTEX
  5
166
330
132
100
AcDbEntity
  8
0
 62
     0
100
AcDbVertex
100
AcDb3dPolylineVertex
 10
397.0893509487686
 20
576.7628850092487
 30
0.0
 70
    32
  0
VERTEX
  5
167
330
132
100
AcDbEntity
  8
0
 62
     0
100
AcDbVertex
100
AcDb3dPolylineVertex
 10
298.4651968245648
 20
553.993704945194
 30
0.0
 70
    32
  0
VERTEX
  5
168
330
132
100
AcDbEntity
  8
0
 62
     0
100
AcDbVertex
100
AcDb3dPolylineVertex
 10
200.695754794784
 20
527.7964619089425
 30
0.0
 70
    32
  0
VERTEX
  5
169
330
132
100
AcDbEntity
  8
0
 62
     0
100
AcDbVertex
100
AcDb3dPolylineVertex
 10
103.9001418645133
 20
498.2030732054126
 30
0.0
 70
    32
  0
VERTEX
  5
16A
330
132
100
AcDbEntity
  8
0
 62
     0
100
AcDbVertex
100
AcDb3dPolylineVertex
 10
56.04821522112656
 20
481.7263335130057
 30
0.0
 70
    32
  0
VERTEX
  5
16B
330
132
100
AcDbEntity
  8
0
 62
     0
100
AcDbVertex
100
AcDb3dPolylineVertex
 10
49.56410185216669
 20
480.0544575910521
 30
0.0
 70
    32
  0
VERTEX
  5
16C
330
132
100
AcDbEntity
  8
0
 62
     0
100
AcDbVertex
100
AcDb3dPolylineVertex
 10
42.89736030232879
 20
479.4271997578477
 30
0.0
 70
    32
  0
VERTEX
  5
16D
330
132
100
AcDbEntity
  8
0
 62
     0
100
AcDbVertex
100
AcDb3dPolylineVertex
 10
36.21519549935247
 20
479.8602919268793
 30
0.0
 70
    32
  0
VERTEX
  5
16E
330
132
100
AcDbEntity
  8
0
 62
     0
100
AcDbVertex
100
AcDb3dPolylineVertex
 10
29.68519919297532
 20
481.342871948125
 30
0.0
 70
    32
  0
VERTEX
  5
16F
330
132
100
AcDbEntity
  8
0
 62
     0
100
AcDbVertex
100
AcDb3dPolylineVertex
 10
23.4711466775203
 20
483.8377560367375
 30
0.0
 70
    32
  0
VERTEX
  5
170
330
132
100
AcDbEntity
  8
0
 62
     0
100
AcDbVertex
100
AcDb3dPolylineVertex
 10
17.72888923240612
 20
487.2823713585324
 30
0.0
 70
    32
  0
VERTEX
  5
171
330
132
100
AcDbEntity
  8
0
 62
     0
100
AcDbVertex
100
AcDb3dPolylineVertex
 10
12.602445301031
 20
491.5903253856006
 30
0.0
 70
    32
  0
VERTEX
  5
172
330
132
100
AcDbEntity
  8
0
 62
     0
100
AcDbVertex
100
AcDb3dPolylineVertex
 10
8.220388442064177
 20
496.6535726604855
 30
0.0
 70
    32
  0
VERTEX
  5
173
330
132
100
AcDbEntity
  8
0
 62
     0
100
AcDbVertex
100
AcDb3dPolylineVertex
 10
4.692622646063273
 20
502.3451246252724
 30
0.0
 70
    32
  0
SEQEND
  5
174
330
132
100
AcDbEntity
  8
0
 62
     0
  0
ENDSEC
  0
SECTION
  2
OBJECTS
  0
DICTIONARY
  5
C
330
0
100
AcDbDictionary
  3
ACAD_GROUP
350
D
  3
ACAD_LAYOUT
350
1A
  3
ACAD_MATERIAL
350
43
  3
ACAD_MLEADERSTYLE
350
6B
  3
ACAD_MLINESTYLE
350
17
  3
ACAD_PLOTSETTINGS
350
19
  3
ACAD_SCALELIST
350
47
  3
ACAD_VISUALSTYLE
350
2A
  3
ACDBHEADERROUNDTRIPXREC
350
175
  3
ACDBVARIABLEDICTIONARY
350
196
  0
DICTIONARY
  5
19D
330
8
100
AcDbDictionary
280
     1
  3
ACAD_XREC_ROUNDTRIP
360
19E
  0
DICTIONARY
  5
D
102
{ACAD_REACTORS
330
C
102
}
330
C
100
AcDbDictionary
  0
DICTIONARY
  5
1A
102
{ACAD_REACTORS
330
C
102
}
330
C
100
AcDbDictionary
  0
DICTIONARY
  5
43
102
{ACAD_REACTORS
330
C
102
}
330
C
100
AcDbDictionary
  3
BYBLOCK
350
45
  3
BYLAYER
350
44
  3
GLOBAL
350
46
  0
DICTIONARY
  5
6B
102
{ACAD_REACTORS
330
C
102
}
330
C
100
AcDbDictionary
  3
STANDARD
350
6C
  0
DICTIONARY
  5
17
102
{ACAD_REACTORS
330
C
102
}
330
C
100
AcDbDictionary
  3
STANDARD
350
18
  0
DICTIONARY
  5
19
102
{ACAD_REACTORS
330
C
102
}
330
C
100
AcDbDictionary
  0
DICTIONARY
  5
47
102
{ACAD_REACTORS
330
C
102
}
330
C
100
AcDbDictionary
  3
A0
350
48
  3
A1
350
49
  3
A2
350
4A
  3
A3
350
4B
  3
A4
350
4C
  3
A5
350
4D
  3
A6
350
4E
  3
A7
350
4F
  3
A8
350
50
  3
A9
350
51
  3
B0
350
52
  3
B1
350
53
  3
B2
350
54
  3
B3
350
55
  3
B4
350
56
  3
B5
350
57
  3
B6
350
58
  3
B7
350
59
  3
B8
350
5A
  3
B9
350
5B
  3
C0
350
5C
  3
C1
350
5D
  3
C2
350
5E
  3
C3
350
5F
  3
C4
350
60
  3
C5
350
61
  3
C6
350
62
  3
C7
350
63
  3
C8
350
64
  3
C9
350
65
  3
D0
350
66
  3
D1
350
67
  3
D2
350
68
  0
DICTIONARY
  5
2A
102
{ACAD_REACTORS
330
C
102
}
330
C
100
AcDbDictionary
  3
2DWIREFRAME
350
2F
  3
BASIC
350
32
  3
BRIGHTEN
350
36
  3
COLORCHANGE
350
3A
  3
CONCEPTUAL
350
34
  3
DIM
350
35
  3
EDGECOLOROFF
350
3D
  3
FACEPATTERN
350
39
  3
FLAT
350
2B
  3
FLATWITHEDGES
350
2C
  3
GOURAUD
350
2D
  3
GOURAUDWITHEDGES
350
2E
  3
HIDDEN
350
31
  3
JITTEROFF
350
3B
  3
LINEPATTERN
350
38
  3
OVERHANGOFF
350
3C
  3
REALISTIC
350
33
  3
SHADED
350
42
  3
SHADED_WITH_EDGES
350
41
  3
SHADES_OF_GRAY
350
3E
  3
SKETCHY
350
3F
  3
THICKEN
350
37
  3
WIREFRAME
350
30
  3
X-RAY
350
40
  0
DICTIONARY
  5
175
102
{ACAD_REACTORS
330
C
102
}
330
C
100
AcDbDictionary
  3
CEPSNID
350
17F
  3
CEPSNTYPE
350
17E
  3
DIMSTYLEDATA
350
195
  3
FINGERPRINTGUID
350
180
  3
HYPERLINKBASE
350
178
  3
INSUNITS
350
17D
  3
LAYOUTDICT
350
17A
  3
LWETCUNION
350
17C
  3
PLOTSETDICT
350
17B
  3
PSVPSCALE
350
182
  3
PUCSBASE
350
185
  3
PUCSORGBACK
350
18B
  3
PUCSORGBOTTOM
350
187
  3
PUCSORGFRONT
350
18A
  3
PUCSORGLEFT
350
188
  3
PUCSORGRIGHT
350
189
  3
PUCSORGTOP
350
186
  3
PUCSORTHOREF
350
183
  3
PUCSORTHOVIEW
350
184
  3
STYLESHEET
350
179
  3
TSTACKALIGN
350
176
  3
TSTACKSIZE
350
177
  3
UCSBASE
350
18E
  3
UCSORGBACK
350
194
  3
UCSORGBOTTOM
350
190
  3
UCSORGFRONT
350
193
  3
UCSORGLEFT
350
191
  3
UCSORGRIGHT
350
192
  3
UCSORGTOP
350
18F
  3
UCSORTHOREF
350
18C
  3
UCSORTHOVIEW
350
18D
  3
VERSIONGUID
350
181
  0
DICTIONARY
  5
196
102
{ACAD_REACTORS
330
C
102
}
330
C
100
AcDbDictionary
  3
CANNOSCALE
350
19F
  3
CMLEADERSTYLE
350
198
  3
CTABLESTYLE
350
197
  3
DIMASSOC
350
19B
  3
HIDETEXT
350
19C
  3
MSLTSCALE
350
1A0
  0
XRECORD
  5
19E
102
{ACAD_REACTORS
330
19D
102
}
330
19D
100
AcDbXrecord
102
VTR_0.000_0.000_1.000_1.000_VISUALSTYLE
340
2F
102
VTR_0.000_0.000_1.000_1.000_GRIDDISPLAY
 70
     3
102
VTR_0.000_0.000_1.000_1.000_GRIDMAJOR
 70
     5
102
VTR_0.000_0.000_1.000_1.000_DEFAULTLIGHTING
280
     1
102
VTR_0.000_0.000_1.000_1.000_DEFAULTLIGHTINGTYPE
 70
     1
102
VTR_0.000_0.000_1.000_1.000_BRIGHTNESS
141
0.0
102
VTR_0.000_0.000_1.000_1.000_CONTRAST
142
0.0
  0
MATERIAL
  5
45
102
{ACAD_REACTORS
330
43
102
}
102
{ACAD_XDICTIONARY
360
1A3
102
}
330
43
100
AcDbMaterial
  1
BYBLOCK
  0
MATERIAL
  5
44
102
{ACAD_REACTORS
330
43
102
}
102
{ACAD_XDICTIONARY
360
1A1
102
}
330
43
100
AcDbMaterial
  1
BYLAYER
  0
MATERIAL
  5
46
102
{ACAD_REACTORS
330
43
102
}
102
{ACAD_XDICTIONARY
360
1A5
102
}
330
43
100
AcDbMaterial
  1
GLOBAL
  0
ACAD_PROXY_OBJECT
  5
6C
102
{ACAD_REACTORS
330
6B
102
}
330
6B
100
AcDbProxyObject
 90
      499
 91
      505
 93
      610
310
40901902A4063FBFFFFFE056BD1B81E855B9FC0AD7A3703D0AD73F4214DD185B99185C9900AD7A3703D0AC73F90141901A02B5E8DC0F42B1CFC02B5E8DC0F42B1CFE5764000000000000300FC0
340
14
340
0
340
11
340
0
 94
        0
1001
ACAD_MLEADERVER
1070
     2
  0
MLINESTYLE
  5
18
102
{ACAD_REACTORS
330
17
102
}
330
17
100
AcDbMlineStyle
  2
Standard
 70
     0
  3

 62
   256
 51
90.0
 52
90.0
 71
     2
 49
0.5
 62
   256
  6
BYLAYER
 49
-0.5
 62
   256
  6
BYLAYER
  0
ACAD_PROXY_OBJECT
  5
48
102
{ACAD_REACTORS
330
47
102
}
330
47
100
AcDbProxyObject
 90
      499
 91
      503
 93
       41
310
903313A31580
  0
ACAD_PROXY_OBJECT
  5
49
102
{ACAD_REACTORS
330
47
102
}
330
47
100
AcDbProxyObject
 90
      499
 91
      503
 93
      105
310
903313A324000000000000004000
  0
ACAD_PROXY_OBJECT
  5
4A
102
{ACAD_REACTORS
330
47
102
}
330
47
100
AcDbProxyObject
 90
      499
 91
      503
 93
      105
310
903313A344000000000000104000
  0
ACAD_PROXY_OBJECT
  5
4B
102
{ACAD_REACTORS
330
47
102
}
330
47
100
AcDbProxyObject
 90
      499
 91
      503
 93
      105
310
903313A354000000000000144000
  0
ACAD_PROXY_OBJECT
  5
4C
102
{ACAD_REACTORS
330
47
102
}
330
47
100
AcDbProxyObject
 90
      499
 91
      503
 93
      105
310
903313A384000000000000204000
  0
ACAD_PROXY_OBJECT
  5
4D
102
{ACAD_REACTORS
330
47
102
}
330
47
100
AcDbProxyObject
 90
      499
 91
      503
 93
      113
310
904313A31304000000000000244000
  0
ACAD_PROXY_OBJECT
  5
4E
102
{ACAD_REACTORS
330
47
102
}
330
47
100
AcDbProxyObject
 90
      499
 91
      503
 93
      113
310
904313A31364000000000000304000
  0
ACAD_PROXY_OBJECT
  5
4F
102
{ACAD_REACTORS
330
47
102
}
330
47
100
AcDbProxyObject
 90
      499
 91
      503
 93
      113
310
904313A32304000000000000344000
  0
ACAD_PROXY_OBJECT
  5
50
102
{ACAD_REACTORS
330
47
102
}
330
47
100
AcDbProxyObject
 90
      499
 91
      503
 93
      113
310
904313A333040000000000003E4000
  0
ACAD_PROXY_OBJECT
  5
51
102
{ACAD_REACTORS
330
47
102
}
330
47
100
AcDbProxyObject
 90
      499
 91
      503
 93
      113
310
904313A34304000000000000444000
  0
ACAD_PROXY_OBJECT
  5
52
102
{ACAD_REACTORS
330
47
102
}
330
47
100
AcDbProxyObject
 90
      499
 91
      503
 93
      113
310
904313A35304000000000000494000
  0
ACAD_PROXY_OBJECT
  5
53
102
{ACAD_REACTORS
330
47
102
}
330
47
100
AcDbProxyObject
 90
      499
 91
      503
 93
      121
310
905313A3130304000000000000594000
  0
ACAD_PROXY_OBJECT
  5
54
102
{ACAD_REACTORS
330
47
102
}
330
47
100
AcDbProxyObject
 90
      499
 91
      503
 93
      105
310
903323A310000000000000010100
  0
ACAD_PROXY_OBJECT
  5
55
102
{ACAD_REACTORS
330
47
102
}
330
47
100
AcDbProxyObject
 90
      499
 91
      503
 93
      105
310
903343A310000000000000410100
  0
ACAD_PROXY_OBJECT
  5
56
102
{ACAD_REACTORS
330
47
102
}
330
47
100
AcDbProxyObject
 90
      499
 91
      503
 93
      105
310
903383A310000000000000810100
  0
ACAD_PROXY_OBJECT
  5
57
102
{ACAD_REACTORS
330
47
102
}
330
47
100
AcDbProxyObject
 90
      499
 91
      503
 93
      113
310
90431303A310000000000000910100
  0
ACAD_PROXY_OBJECT
  5
58
102
{ACAD_REACTORS
330
47
102
}
330
47
100
AcDbProxyObject
 90
      499
 91
      503
 93
      121
310
9053130303A310000000000001650100
  0
ACAD_PROXY_OBJECT
  5
59
102
{ACAD_REACTORS
330
47
102
}
330
47
100
AcDbProxyObject
 90
      499
 91
      503
 93
      257
310
90E312F31323822203D2031272D3022000000000000200FC000000000000284000
  0
ACAD_PROXY_OBJECT
  5
5A
102
{ACAD_REACTORS
330
47
102
}
330
47
100
AcDbProxyObject
 90
      499
 91
      503
 93
      249
310
90D312F363422203D2031272D3022000000000000240FC000000000000284000
  0
ACAD_PROXY_OBJECT
  5
5B
102
{ACAD_REACTORS
330
47
102
}
330
47
100
AcDbProxyObject
 90
      499
 91
      503
 93
      249
310
90D312F333222203D2031272D3022000000000000280FC000000000000284000
  0
ACAD_PROXY_OBJECT
  5
5C
102
{ACAD_REACTORS
330
47
102
}
330
47
100
AcDbProxyObject
 90
      499
 91
      503
 93
      249
310
90D312F313622203D2031272D30220000000000002C0FC000000000000284000
  0
ACAD_PROXY_OBJECT
  5
5D
102
{ACAD_REACTORS
330
47
102
}
330
47
100
AcDbProxyObject
 90
      499
 91
      503
 93
      249
310
90D332F333222203D2031272D30220000000000002E0FC000000000000284000
  0
ACAD_PROXY_OBJECT
  5
5E
102
{ACAD_REACTORS
330
47
102
}
330
47
100
AcDbProxyObject
 90
      499
 91
      503
 93
      241
310
90C312F3822203D2031272D3022000000000000300FC000000000000284000
  0
ACAD_PROXY_OBJECT
  5
5F
102
{ACAD_REACTORS
330
47
102
}
330
47
100
AcDbProxyObject
 90
      499
 91
      503
 93
      249
310
90D332F313622203D2031272D3022000000000000320FC000000000000284000
  0
ACAD_PROXY_OBJECT
  5
60
102
{ACAD_REACTORS
330
47
102
}
330
47
100
AcDbProxyObject
 90
      499
 91
      503
 93
      241
310
90C312F3422203D2031272D3022000000000000340FC000000000000284000
  0
ACAD_PROXY_OBJECT
  5
61
102
{ACAD_REACTORS
330
47
102
}
330
47
100
AcDbProxyObject
 90
      499
 91
      503
 93
      241
310
90C332F3822203D2031272D3022000000000000360FC000000000000284000
  0
ACAD_PROXY_OBJECT
  5
62
102
{ACAD_REACTORS
330
47
102
}
330
47
100
AcDbProxyObject
 90
      499
 91
      503
 93
      241
310
90C312F3222203D2031272D3022000000000000380FC000000000000284000
  0
ACAD_PROXY_OBJECT
  5
63
102
{ACAD_REACTORS
330
47
102
}
330
47
100
AcDbProxyObject
 90
      499
 91
      503
 93
      241
310
90C332F3422203D2031272D30220000000000003A0FC000000000000284000
  0
ACAD_PROXY_OBJECT
  5
64
102
{ACAD_REACTORS
330
47
102
}
330
47
100
AcDbProxyObject
 90
      499
 91
      503
 93
      161
310
90A3122203D2031272D30224000000000000284000
  0
ACAD_PROXY_OBJECT
  5
65
102
{ACAD_REACTORS
330
47
102
}
330
47
100
AcDbProxyObject
 90
      499
 91
      503
 93
      257
310
90E312D312F3222203D2031272D30220000000000003E0FC000000000000284000
  0
ACAD_PROXY_OBJECT
  5
66
102
{ACAD_REACTORS
330
47
102
}
330
47
100
AcDbProxyObject
 90
      499
 91
      503
 93
      225
310
90A3322203D2031272D302200000000000002100000000000000284000
  0
ACAD_PROXY_OBJECT
  5
67
102
{ACAD_REACTORS
330
47
102
}
330
47
100
AcDbProxyObject
 90
      499
 91
      503
 93
      225
310
90A3622203D2031272D302200000000000006100000000000000284000
  0
ACAD_PROXY_OBJECT
  5
68
102
{ACAD_REACTORS
330
47
102
}
330
47
100
AcDbProxyObject
 90
      499
 91
      503
 93
      249
310
90D31272D3022203D2031272D30220000000000000A100000000000000284000
  0
ACAD_PROXY_OBJECT
  5
2F
102
{ACAD_REACTORS
330
2A
102
}
330
2A
100
AcDbProxyObject
 90
      499
 91
      501
 93
      436
310
42CC9915DA5C99599C985B595049028333333333333E33F0000000000000F90107901411070040501600405405064090741402480A0340
1001
ACAD
1000
AcDbSavedByObjectVersion
1070
     0
  0
ACAD_PROXY_OBJECT
  5
32
102
{ACAD_REACTORS
330
2A
102
}
330
2A
100
AcDbProxyObject
 90
      499
 91
      501
 93
      388
310
4150985CDA58D07406404333333333333E33F0000000000000F90107A41107004050150841D405064090741402480A0350
1001
ACAD
1000
AcDbSavedByObjectVersion
1070
     0
  0
ACAD_PROXY_OBJECT
  5
36
102
{ACAD_REACTORS
330
2A
102
}
330
2A
100
AcDbProxyObject
 90
      499
 91
      501
 93
      428
310
42109C9A59DA1D195B90C409028333333333333E33F0000000000000F9010790141107004050150841D405064090741402480A029950
1001
ACAD
1000
AcDbSavedByObjectVersion
1070
     0
  0
ACAD_PROXY_OBJECT
  5
3A
102
{ACAD_REACTORS
330
2A
102
}
330
2A
100
AcDbProxyObject
 90
      499
 91
      501
 93
      452
310
42D0DBDB1BDC90DA185B99D95104090240C333333333333E33F0000000000000F90108901411070040501508421405064090741402480A0350
1001
ACAD
1000
AcDbSavedByObjectVersion
1070
     0
  0
ACAD_PROXY_OBJECT
  5
34
102
{ACAD_REACTORS
330
2A
102
}
330
2A
100
AcDbProxyObject
 90
      499
 91
      501
 93
      500
310
4290DBDB98D95C1D1D585B10940D028333333333333E33F0000000000000F90107902409070040501000000000018199010841D405064090740C02480A0340
1001
ACAD
1000
AcDbSavedByObjectVersion
1070
     0
  0
ACAD_PROXY_OBJECT
  5
35
102
{ACAD_REACTORS
330
2A
102
}
330
2A
100
AcDbProxyObject
 90
      499
 91
      501
 93
      412
310
40D11A5B50B409028333333333333E33F0000000000000F9010790141107004050150841D405064090741402480A02677FFFFFD0
1001
ACAD
1000
AcDbSavedByObjectVersion
1070
     0
  0
ACAD_PROXY_OBJECT
  5
3D
102
{ACAD_REACTORS
330
2A
102
}
330
2A
100
AcDbProxyObject
 90
      499
 91
      501
 93
      452
310
43115919D950DBDB1BDC93D999916409028333333333333E33F0000000000000F9010790141107004050150841D405064090741402480A0350
1001
ACAD
1000
AcDbSavedByObjectVersion
1070
     0
  0
ACAD_PROXY_OBJECT
  5
39
102
{ACAD_REACTORS
330
2A
102
}
330
2A
100
AcDbProxyObject
 90
      499
 91
      501
 93
      444
310
42D19858D95C185D1D195C9B90F409028333333333333E33F0000000000000F9010790141107004050150841D405064090741402480A0350
1001
ACAD
1000
AcDbSavedByObjectVersion
1070
     0
  0
ACAD_PROXY_OBJECT
  5
2B
102
{ACAD_REACTORS
330
2A
102
}
330
2A
100
AcDbProxyObject
 90
      499
 91
      501
 93
      380
310
41119B185D240901404333333333333E33F0000000000000F9010740A907004050150841D405064090741402480A1B50
1001
ACAD
1000
AcDbSavedByObjectVersion
1070
     0
  0
ACAD_PROXY_OBJECT
  5
2C
102
{ACAD_REACTORS
330
2A
102
}
330
2A
100
AcDbProxyObject
 90
      499
 91
      501
 93
      468
310
43519B185D15DA5D1A115919D95CD0140901404333333333333E33F0000000000000F90107409019070040501600405405064090741402480A1B50
1001
ACAD
1000
AcDbSavedByObjectVersion
1070
     0
  0
ACAD_PROXY_OBJECT
  5
2D
102
{ACAD_REACTORS
330
2A
102
}
330
2A
100
AcDbProxyObject
 90
      499
 91
      501
 93
      404
310
41D1DBDD5C985D5910240902404333333333333E33F0000000000000F9010740A9070040501641D405064090741402480A1B50
1001
ACAD
1000
AcDbSavedByObjectVersion
1070
     0
  0
ACAD_PROXY_OBJECT
  5
2E
102
{ACAD_REACTORS
330
2A
102
}
330
2A
100
AcDbProxyObject
 90
      499
 91
      501
 93
      492
310
4411DBDD5C985D5915DA5D1A115919D95CD0340902404333333333333E33F0000000000000F90107409019070040501600405405064090741402480A1B50
1001
ACAD
1000
AcDbSavedByObjectVersion
1070
     0
  0
ACAD_PROXY_OBJECT
  5
31
102
{ACAD_REACTORS
330
2A
102
}
330
2A
100
AcDbProxyObject
 90
      499
 91
      501
 93
      476
310
41921A5919195B90640502408333333333333E33F0000000000000F901079024090700405020000000000001110200405405064090740C02480A0340
1001
ACAD
1000
AcDbSavedByObjectVersion
1070
     0
  0
ACAD_PROXY_OBJECT
  5
3B
102
{ACAD_REACTORS
330
2A
102
}
330
2A
100
AcDbProxyObject
 90
      499
 91
      501
 93
      428
310
42529A5D1D195C93D999914409028333333333333E33F0000000000000F9010790141107004050150A41D405064090741402480A0350
1001
ACAD
1000
AcDbSavedByObjectVersion
1070
     0
  0
ACAD_PROXY_OBJECT
  5
38
102
{ACAD_REACTORS
330
2A
102
}
330
2A
100
AcDbProxyObject
 90
      499
 91
      501
 93
      444
310
42D31A5B995C185D1D195C9B90E409028333333333333E33F0000000000000F9010790141107004050750841D405064090741402483A0350
1001
ACAD
1000
AcDbSavedByObjectVersion
1070
     0
  0
ACAD_PROXY_OBJECT
  5
3C
102
{ACAD_REACTORS
330
2A
102
}
330
2A
100
AcDbProxyObject
 90
      499
 91
      501
 93
      444
310
42D3DD995C9A185B99D3D999915409028333333333333E33F0000000000000F9010790141107004050150941D405064090741402480A0350
1001
ACAD
1000
AcDbSavedByObjectVersion
1070
     0
  0
ACAD_PROXY_OBJECT
  5
33
102
{ACAD_REACTORS
330
2A
102
}
330
2A
100
AcDbProxyObject
 90
      499
 91
      501
 93
      428
310
425499585B1A5CDD1A58D08409038333333333333E33F0000000000000F9010740A907004050150800405405064090740C02480A1B40
1001
ACAD
1000
AcDbSavedByObjectVersion
1070
     0
  0
ACAD_PROXY_OBJECT
  5
42
102
{ACAD_REACTORS
330
2A
102
}
330
2A
100
AcDbProxyObject
 90
      499
 91
      501
 93
      420
310
4194DA1859195911B40902404333333333333E33F0000000000000F9010740A41107004050150800405405064090840C02480A0B40
1001
ACAD
1000
AcDbSavedByObjectVersion
1070
     0
  0
ACAD_PROXY_OBJECT
  5
41
102
{ACAD_REACTORS
330
2A
102
}
330
2A
100
AcDbProxyObject
 90
      499
 91
      501
 93
      516
310
4454DA18591959081DDA5D1A08195919D95CD1A40902404333333333333E33F0000000000000F901074090142907004050250800405405064090740C02480A0B40
1001
ACAD
1000
AcDbSavedByObjectVersion
1070
     0
  0
ACAD_PROXY_OBJECT
  5
3E
102
{ACAD_REACTORS
330
2A
102
}
330
2A
100
AcDbProxyObject
 90
      499
 91
      501
 93
      532
310
4394DA1859195CC81BD98811DC985E5174090240C333333333333E33F0000000000000F901079024090741D01000000000000111010841D405064090740C02480A0340
1001
ACAD
1000
AcDbSavedByObjectVersion
1070
     0
  0
ACAD_PROXY_OBJECT
  5
3F
102
{ACAD_REACTORS
330
2A
102
}
330
2A
100
AcDbProxyObject
 90
      499
 91
      501
 93
      476
310
41D4DAD95D18DA1E51840502408333333333333E33F0000000000000F901079024090741D01000000000000111010B41D405064090741802480A0340
1001
ACAD
1000
AcDbSavedByObjectVersion
1070
     0
  0
ACAD_PROXY_OBJECT
  5
37
102
{ACAD_REACTORS
330
2A
102
}
330
2A
100
AcDbProxyObject
 90
      499
 91
      501
 93
      412
310
41D51A1A58DAD95B90D409028333333333333E33F0000000000000F9010790141107004050150C41D405064090741402480A0350
1001
ACAD
1000
AcDbSavedByObjectVersion
1070
     0
  0
ACAD_PROXY_OBJECT
  5
30
102
{ACAD_REACTORS
330
2A
102
}
330
2A
100
AcDbProxyObject
 90
      499
 91
      501
 93
      420
310
4255DA5C99599C985B595059028333333333333E33F0000000000000F90107901411070040501600405405064090740C02480A0340
1001
ACAD
1000
AcDbSavedByObjectVersion
1070
     0
  0
ACAD_PROXY_OBJECT
  5
40
102
{ACAD_REACTORS
330
2A
102
}
330
2A
100
AcDbProxyObject
 90
      499
 91
      501
 93
      404
310
41560B54985E51940902404000000000000E03F0000000000000F9010740501907004050150841D405064090740C02480A1B40
1001
ACAD
1000
AcDbSavedByObjectVersion
1070
     0
  0
XRECORD
  5
17F
102
{ACAD_REACTORS
330
175
102
}
330
175
100
AcDbXrecord
340
0
  0
XRECORD
  5
17E
102
{ACAD_REACTORS
330
175
102
}
330
175
100
AcDbXrecord
 90
        0
  0
XRECORD
  5
195
102
{ACAD_REACTORS
330
175
102
}
330
175
100
AcDbXrecord
1000
DSTYLE
1002
{
1070
   171
 70
     2
1070
   143
 40
25.4
1070
   274
 70
     2
1070
    41
 40
0.18
1070
   141
 40
0.09
1070
   271
 70
     4
1070
    43
 40
0.38
1070
   278
 70
    46
1070
    44
 40
0.18
1070
    42
 40
0.0625
1070
   147
 40
0.09
1070
    77
 70
     0
1070
   272
 70
     4
1070
    73
 70
     1
1070
   172
 70
     0
1070
    74
 70
     1
1070
   283
 70
     1
1070
   340
340
11
1070
   140
 40
0.18
1070
   284
 70
     0
1070
    78
 70
     0
1002
}
  0
XRECORD
  5
180
102
{ACAD_REACTORS
330
175
102
}
330
175
100
AcDbXrecord
  1
{4ec3cd74-d8ec-4bdd-88a4-25d57d9e974f}
  0
XRECORD
  5
178
102
{ACAD_REACTORS
330
175
102
}
330
175
100
AcDbXrecord
  1

  0
XRECORD
  5
17D
102
{ACAD_REACTORS
330
175
102
}
330
175
100
AcDbXrecord
 90
        4
  0
XRECORD
  5
17A
102
{ACAD_REACTORS
330
175
102
}
330
175
100
AcDbXrecord
340
1A
  0
XRECORD
  5
17C
102
{ACAD_REACTORS
330
175
102
}
330
175
100
AcDbXrecord
 90
    10781
  0
XRECORD
  5
17B
102
{ACAD_REACTORS
330
175
102
}
330
175
100
AcDbXrecord
340
19
  0
XRECORD
  5
182
102
{ACAD_REACTORS
330
175
102
}
330
175
100
AcDbXrecord
 40
0.0
  0
XRECORD
  5
185
102
{ACAD_REACTORS
330
175
102
}
330
175
100
AcDbXrecord
340
0
  0
XRECORD
  5
18B
102
{ACAD_REACTORS
330
175
102
}
330
175
100
AcDbXrecord
 10
0.0
 20
0.0
 30
0.0
  0
XRECORD
  5
187
102
{ACAD_REACTORS
330
175
102
}
330
175
100
AcDbXrecord
 10
0.0
 20
0.0
 30
0.0
  0
XRECORD
  5
18A
102
{ACAD_REACTORS
330
175
102
}
330
175
100
AcDbXrecord
 10
0.0
 20
0.0
 30
0.0
  0
XRECORD
  5
188
102
{ACAD_REACTORS
330
175
102
}
330
175
100
AcDbXrecord
 10
0.0
 20
0.0
 30
0.0
  0
XRECORD
  5
189
102
{ACAD_REACTORS
330
175
102
}
330
175
100
AcDbXrecord
 10
0.0
 20
0.0
 30
0.0
  0
XRECORD
  5
186
102
{ACAD_REACTORS
330
175
102
}
330
175
100
AcDbXrecord
 10
0.0
 20
0.0
 30
0.0
  0
XRECORD
  5
183
102
{ACAD_REACTORS
330
175
102
}
330
175
100
AcDbXrecord
340
0
  0
XRECORD
  5
184
102
{ACAD_REACTORS
330
175
102
}
330
175
100
AcDbXrecord
 70
     0
  0
XRECORD
  5
179
102
{ACAD_REACTORS
330
175
102
}
330
175
100
AcDbXrecord
  1

  0
XRECORD
  5
176
102
{ACAD_REACTORS
330
175
102
}
330
175
100
AcDbXrecord
 90
        1
  0
XRECORD
  5
177
102
{ACAD_REACTORS
330
175
102
}
330
175
100
AcDbXrecord
 90
       70
  0
XRECORD
  5
18E
102
{ACAD_REACTORS
330
175
102
}
330
175
100
AcDbXrecord
340
0
  0
XRECORD
  5
194
102
{ACAD_REACTORS
330
175
102
}
330
175
100
AcDbXrecord
 10
0.0
 20
0.0
 30
0.0
  0
XRECORD
  5
190
102
{ACAD_REACTORS
330
175
102
}
330
175
100
AcDbXrecord
 10
0.0
 20
0.0
 30
0.0
  0
XRECORD
  5
193
102
{ACAD_REACTORS
330
175
102
}
330
175
100
AcDbXrecord
 10
0.0
 20
0.0
 30
0.0
  0
XRECORD
  5
191
102
{ACAD_REACTORS
330
175
102
}
330
175
100
AcDbXrecord
 10
0.0
 20
0.0
 30
0.0
  0
XRECORD
  5
192
102
{ACAD_REACTORS
330
175
102
}
330
175
100
AcDbXrecord
 10
0.0
 20
0.0
 30
0.0
  0
XRECORD
  5
18F
102
{ACAD_REACTORS
330
175
102
}
330
175
100
AcDbXrecord
 10
0.0
 20
0.0
 30
0.0
  0
XRECORD
  5
18C
102
{ACAD_REACTORS
330
175
102
}
330
175
100
AcDbXrecord
340
0
  0
XRECORD
  5
18D
102
{ACAD_REACTORS
330
175
102
}
330
175
100
AcDbXrecord
 70
     0
  0
XRECORD
  5
181
102
{ACAD_REACTORS
330
175
102
}
330
175
100
AcDbXrecord
  1
{FAEB1C32-E019-11D5-929B-00C0DF256EC4}
  0
DICTIONARYVAR
  5
19F
102
{ACAD_REACTORS
330
196
102
}
330
196
100
DictionaryVariables
280
     0
  1
1:1
  0
DICTIONARYVAR
  5
198
102
{ACAD_REACTORS
330
196
102
}
330
196
100
DictionaryVariables
280
     0
  1
Standard
  0
DICTIONARYVAR
  5
197
102
{ACAD_REACTORS
330
196
102
}
330
196
100
DictionaryVariables
280
     0
  1
Standard
  0
DICTIONARYVAR
  5
19B
102
{ACAD_REACTORS
330
196
102
}
330
196
100
DictionaryVariables
280
     0
  1
2
  0
DICTIONARYVAR
  5
19C
102
{ACAD_REACTORS
330
196
102
}
330
196
100
DictionaryVariables
280
     0
  1
1
  0
DICTIONARYVAR
  5
1A0
102
{ACAD_REACTORS
330
196
102
}
330
196
100
DictionaryVariables
280
     0
  1
1
  0
DICTIONARY
  5
1A3
330
45
100
AcDbDictionary
280
     1
  3
ACAD_XREC_ROUNDTRIP
360
1A4
  0
DICTIONARY
  5
1A1
330
44
100
AcDbDictionary
280
     1
  3
ACAD_XREC_ROUNDTRIP
360
1A2
  0
DICTIONARY
  5
1A5
330
46
100
AcDbDictionary
280
     1
  3
ACAD_XREC_ROUNDTRIP
360
1A6
  0
XRECORD
  5
1A4
102
{ACAD_REACTORS
330
1A3
102
}
330
1A3
100
AcDbXrecord
102
MATERIAL
148
0.0
149
0.0
149
0.0
 93
        0
 94
      127
282
     0
 72
     1
 77
     1
171
     1
175
     1
179
     1
273
     0
  0
XRECORD
  5
1A2
102
{ACAD_REACTORS
330
1A1
102
}
330
1A1
100
AcDbXrecord
102
MATERIAL
148
0.0
149
0.0
149
0.0
 93
        0
 94
      127
282
     0
 72
     1
 77
     1
171
     1
175
     1
179
     1
273
     0
  0
XRECORD
  5
1A6
102
{ACAD_REACTORS
330
1A5
102
}
330
1A5
100
AcDbXrecord
102
MATERIAL
148
0.0
149
0.0
149
0.0
 93
        0
 94
      127
282
     0
 72
     1
 77
     1
171
     1
175
     1
179
     1
273
     0
  0
ENDSEC
  0
EOF
