  0
SECTION
  2
HEADER
  9
$ACADVER
  1
AC1018
  9
$ACADMAINTVER
 70
     0
  9
$DWGCODEPAGE
  3
ANSI_1252
  9
$INSBASE
 10
0.0
 20
0.0
 30
0.0
  9
$EXTMIN
 10
-9757333.69666336
 20
5136507.26227505
 30
0.0
  9
$EXTMAX
 10
-9756205.1404005
 20
5137108.75568864
 30
0.0
  9
$LIMMIN
 10
0.0
 20
0.0
  9
$LIMMAX
 10
12.0
 20
9.0
  9
$ORTHOMODE
 70
     0
  9
$REGENMODE
 70
     1
  9
$FILLMODE
 70
     1
  9
$QTEXTMODE
 70
     0
  9
$MIRRTEXT
 70
     1
  9
$LTSCALE
 40
1.0
  9
$ATTMODE
 70
     1
  9
$TEXTSIZE
 40
0.2
  9
$TRACEWID
 40
0.05
  9
$TEXTSTYLE
  7
Standard
  9
$CLAYER
  8
0
  9
$CELTYPE
  6
ByLayer
  9
$CECOLOR
 62
   256
  9
$CELTSCALE
 40
1.0
  9
$DISPSILH
 70
     0
  9
$DIMSCALE
 40
1.0
  9
$DIMASZ
 40
0.18
  9
$DIMEXO
 40
0.0625
  9
$DIMDLI
 40
0.38
  9
$DIMRND
 40
0.0
  9
$DIMDLE
 40
0.0
  9
$DIMEXE
 40
0.18
  9
$DIMTP
 40
0.0
  9
$DIMTM
 40
0.0
  9
$DIMTXT
 40
0.18
  9
$DIMCEN
 40
0.09
  9
$DIMTSZ
 40
0.0
  9
$DIMTOL
 70
     0
  9
$DIMLIM
 70
     0
  9
$DIMTIH
 70
     1
  9
$DIMTOH
 70
     1
  9
$DIMSE1
 70
     0
  9
$DIMSE2
 70
     0
  9
$DIMTAD
 70
     0
  9
$DIMZIN
 70
     0
  9
$DIMBLK
  1

  9
$DIMASO
 70
     1
  9
$DIMSHO
 70
     1
  9
$DIMPOST
  1

  9
$DIMAPOST
  1

  9
$DIMALT
 70
     0
  9
$DIMALTD
 70
     2
  9
$DIMALTF
 40
25.4
  9
$DIMLFAC
 40
1.0
  9
$DIMTOFL
 70
     0
  9
$DIMTVP
 40
0.0
  9
$DIMTIX
 70
     0
  9
$DIMSOXD
 70
     0
  9
$DIMSAH
 70
     0
  9
$DIMBLK1
  1

  9
$DIMBLK2
  1

  9
$DIMSTYLE
  2
Standard
  9
$DIMCLRD
 70
     0
  9
$DIMCLRE
 70
     0
  9
$DIMCLRT
 70
     0
  9
$DIMTFAC
 40
1.0
  9
$DIMGAP
 40
0.09
  9
$DIMJUST
 70
     0
  9
$DIMSD1
 70
     0
  9
$DIMSD2
 70
     0
  9
$DIMTOLJ
 70
     1
  9
$DIMTZIN
 70
     0
  9
$DIMALTZ
 70
     0
  9
$DIMALTTZ
 70
     0
  9
$DIMUPT
 70
     0
  9
$DIMDEC
 70
     4
  9
$DIMTDEC
 70
     4
  9
$DIMALTU
 70
     2
  9
$DIMALTTD
 70
     2
  9
$DIMTXSTY
  7
Standard
  9
$DIMAUNIT
 70
     0
  9
$DIMADEC
 70
     0
  9
$DIMALTRND
 40
0.0
  9
$DIMAZIN
 70
     0
  9
$DIMDSEP
 70
    46
  9
$DIMATFIT
 70
     3
  9
$DIMFRAC
 70
     0
  9
$DIMLDRBLK
  1

  9
$DIMLUNIT
 70
     2
  9
$DIMLWD
 70
    -2
  9
$DIMLWE
 70
    -2
  9
$DIMTMOVE
 70
     0
  9
$LUNITS
 70
     2
  9
$LUPREC
 70
     4
  9
$SKETCHINC
 40
0.1
  9
$FILLETRAD
 40
0.5
  9
$AUNITS
 70
     0
  9
$AUPREC
 70
     0
  9
$MENU
  1
.
  9
$ELEVATION
 40
0.0
  9
$PELEVATION
 40
0.0
  9
$THICKNESS
 40
0.0
  9
$LIMCHECK
 70
     0
  9
$CHAMFERA
 40
0.5
  9
$CHAMFERB
 40
0.5
  9
$CHAMFERC
 40
1.0
  9
$CHAMFERD
 40
0.0
  9
$SKPOLY
 70
     0
  9
$TDCREATE
 40
2455343.56230316
  9
$TDUCREATE
 40
2455343.728969826
  9
$TDUPDATE
 40
2455343.562303171
  9
$TDUUPDATE
 40
2455343.728969838
  9
$TDINDWG
 40
0.0000000116
  9
$TDUSRTIMER
 40
0.0000000116
  9
$USRTIMER
 70
     1
  9
$ANGBASE
 50
0.0
  9
$ANGDIR
 70
     0
  9
$PDMODE
 70
     0
  9
$PDSIZE
 40
0.0
  9
$PLINEWID
 40
0.0
  9
$SPLFRAME
 70
     0
  9
$SPLINETYPE
 70
     6
  9
$SPLINESEGS
 70
     8
  9
$HANDSEED
  5
000203E5
  9
$SURFTAB1
 70
     6
  9
$SURFTAB2
 70
     6
  9
$SURFTYPE
 70
     6
  9
$SURFU
 70
     6
  9
$SURFV
 70
     6
  9
$UCSBASE
  2

  9
$UCSNAME
  2

  9
$UCSORG
 10
0.0
 20
0.0
 30
0.0
  9
$UCSXDIR
 10
1.0
 20
0.0
 30
0.0
  9
$UCSYDIR
 10
0.0
 20
1.0
 30
0.0
  9
$UCSORTHOREF
  2

  9
$UCSORTHOVIEW
 70
     0
  9
$UCSORGTOP
 10
0.0
 20
0.0
 30
0.0
  9
$UCSORGBOTTOM
 10
0.0
 20
0.0
 30
0.0
  9
$UCSORGLEFT
 10
0.0
 20
0.0
 30
0.0
  9
$UCSORGRIGHT
 10
0.0
 20
0.0
 30
0.0
  9
$UCSORGFRONT
 10
0.0
 20
0.0
 30
0.0
  9
$UCSORGBACK
 10
0.0
 20
0.0
 30
0.0
  9
$PUCSBASE
  2

  9
$PUCSNAME
  2

  9
$PUCSORG
 10
0.0
 20
0.0
 30
0.0
  9
$PUCSXDIR
 10
1.0
 20
0.0
 30
0.0
  9
$PUCSYDIR
 10
0.0
 20
1.0
 30
0.0
  9
$PUCSORTHOREF
  2

  9
$PUCSORTHOVIEW
 70
     0
  9
$PUCSORGTOP
 10
0.0
 20
0.0
 30
0.0
  9
$PUCSORGBOTTOM
 10
0.0
 20
0.0
 30
0.0
  9
$PUCSORGLEFT
 10
0.0
 20
0.0
 30
0.0
  9
$PUCSORGRIGHT
 10
0.0
 20
0.0
 30
0.0
  9
$PUCSORGFRONT
 10
0.0
 20
0.0
 30
0.0
  9
$PUCSORGBACK
 10
0.0
 20
0.0
 30
0.0
  9
$USERI1
 70
     0
  9
$USERI2
 70
     0
  9
$USERI3
 70
     0
  9
$USERI4
 70
     0
  9
$USERI5
 70
     0
  9
$USERR1
 40
0.0
  9
$USERR2
 40
0.0
  9
$USERR3
 40
0.0
  9
$USERR4
 40
0.0
  9
$USERR5
 40
0.0
  9
$WORLDVIEW
 70
     1
  9
$SHADEDGE
 70
     3
  9
$SHADEDIF
 70
    70
  9
$TILEMODE
 70
     1
  9
$MAXACTVP
 70
    64
  9
$PINSBASE
 10
0.0
 20
0.0
 30
0.0
  9
$PLIMCHECK
 70
     0
  9
$PEXTMIN
 10
1.000000000000000E+20
 20
1.000000000000000E+20
 30
1.000000000000000E+20
  9
$PEXTMAX
 10
-1.000000000000000E+20
 20
-1.000000000000000E+20
 30
-1.000000000000000E+20
  9
$PLIMMIN
 10
0.0
 20
0.0
  9
$PLIMMAX
 10
12.0
 20
9.0
  9
$UNITMODE
 70
     0
  9
$VISRETAIN
 70
     1
  9
$PLINEGEN
 70
     0
  9
$PSLTSCALE
 70
     1
  9
$TREEDEPTH
 70
  3020
  9
$CMLSTYLE
  2
Standard
  9
$CMLJUST
 70
     0
  9
$CMLSCALE
 40
1.0
  9
$PROXYGRAPHICS
 70
     1
  9
$MEASUREMENT
 70
     0
  9
$CELWEIGHT
370
    -1
  9
$ENDCAPS
280
     0
  9
$JOINSTYLE
280
     0
  9
$LWDISPLAY
290
     0
  9
$INSUNITS
 70
     1
  9
$HYPERLINKBASE
  1

  9
$STYLESHEET
  1

  9
$XEDIT
290
     1
  9
$CEPSNTYPE
380
     0
  9
$PSTYLEMODE
290
     1
  9
$FINGERPRINTGUID
  2
{E7F7769E-AACA-40AB-9EF3-61BBAFBCBA26}
  9
$VERSIONGUID
  2
{FAEB1C32-E019-11D5-929B-00C0DF256EC4}
  9
$EXTNAMES
290
     1
  9
$PSVPSCALE
 40
0.0
  9
$OLESTARTUP
290
     0
  9
$SORTENTS
280
   127
  9
$INDEXCTL
280
     0
  9
$HIDETEXT
280
     1
  9
$XCLIPFRAME
290
     0
  9
$HALOGAP
280
     0
  9
$OBSCOLOR
 70
   257
  9
$OBSLTYPE
280
     0
  9
$INTERSECTIONDISPLAY
280
     0
  9
$INTERSECTIONCOLOR
 70
   257
  9
$DIMASSOC
280
     2
  9
$PROJECTNAME
  1

  0
ENDSEC
  0
SECTION
  2
CLASSES
  0
CLASS
  1
ACDBDICTIONARYWDFLT
  2
AcDbDictionaryWithDefault
  3
ObjectDBX Classes
 90
        0
 91
        4
280
     0
281
     0
  0
CLASS
  1
VISUALSTYLE
  2
AcDbVisualStyle
  3
ObjectDBX Classes
 90
     4095
 91
        4
280
     0
281
     0
  0
ENDSEC
  0
SECTION
  2
TABLES
  0
TABLE
  2
VPORT
  5
8
330
0
100
AcDbSymbolTable
 70
     1
  0
VPORT
  5
29
330
8
100
AcDbSymbolTableRecord
100
AcDbViewportTableRecord
  2
*Active
 70
     0
 10
0.0
 20
0.0
 11
1.0
 21
1.0
 12
80.25
 22
106.4409457059851
 13
0.0
 23
0.0
 14
0.5
 24
0.5
 15
0.5
 25
0.5
 16
0.0
 26
0.0
 36
1.0
 17
0.0
 27
0.0
 37
0.0
 40
113.3818914119703
 41
0.8863849310366128
 42
50.0
 43
0.0
 44
0.0
 50
0.0
 51
0.0
 71
     0
 72
  1000
 73
     1
 74
     3
 75
     0
 76
     0
 77
     0
 78
     0
281
     0
 65
     1
110
0.0
120
0.0
130
0.0
111
1.0
121
0.0
131
0.0
112
0.0
122
1.0
132
0.0
 79
     0
146
0.0
  0
ENDTAB
  0
TABLE
  2
LTYPE
  5
5
330
0
100
AcDbSymbolTable
 70
     1
  0
LTYPE
  5
14
330
5
100
AcDbSymbolTableRecord
100
AcDbLinetypeTableRecord
  2
ByBlock
 70
     0
  3

 72
    65
 73
     0
 40
0.0
  0
LTYPE
  5
15
330
5
100
AcDbSymbolTableRecord
100
AcDbLinetypeTableRecord
  2
ByLayer
 70
     0
  3

 72
    65
 73
     0
 40
0.0
  0
LTYPE
  5
16
330
5
100
AcDbSymbolTableRecord
100
AcDbLinetypeTableRecord
  2
Continuous
 70
     0
  3
Solid line
 72
    65
 73
     0
 40
0.0
  0
ENDTAB
  0
TABLE
  2
LAYER
  5
2
330
0
100
AcDbSymbolTable
 70
     1
  0
LAYER
  5
10
330
2
100
AcDbSymbolTableRecord
100
AcDbLayerTableRecord
  2
0
 70
     0
 62
     7
  6
Continuous
370
    -3
390
F
  0
ENDTAB
  0
TABLE
  2
STYLE
  5
3
330
0
100
AcDbSymbolTable
 70
     1
  0
STYLE
  5
11
330
3
100
AcDbSymbolTableRecord
100
AcDbTextStyleTableRecord
  2
Standard
 70
     0
 40
0.0
 41
1.0
 50
0.0
 71
     0
 42
0.2
  3
txt
  4

  0
ENDTAB
  0
TABLE
  2
VIEW
  5
6
330
0
100
AcDbSymbolTable
 70
     0
  0
ENDTAB
  0
TABLE
  2
UCS
  5
7
330
0
100
AcDbSymbolTable
 70
     0
  0
ENDTAB
  0
TABLE
  2
APPID
  5
9
330
0
100
AcDbSymbolTable
 70
     1
  0
APPID
  5
12
330
9
100
AcDbSymbolTableRecord
100
AcDbRegAppTableRecord
  2
ACAD
 70
     0
  0
ENDTAB
  0
TABLE
  2
DIMSTYLE
  5
A
330
0
100
AcDbSymbolTable
 70
     1
100
AcDbDimStyleTable
  0
DIMSTYLE
105
27
330
A
100
AcDbSymbolTableRecord
100
AcDbDimStyleTableRecord
  2
Standard
 70
     0
340
11
  0
ENDTAB
  0
TABLE
  2
BLOCK_RECORD
  5
1
330
0
100
AcDbSymbolTable
 70
     1
  0
BLOCK_RECORD
  5
1F
330
1
100
AcDbSymbolTableRecord
100
AcDbBlockTableRecord
  2
*Model_Space
340
22
  0
BLOCK_RECORD
  5
1B
330
1
100
AcDbSymbolTableRecord
100
AcDbBlockTableRecord
  2
*Paper_Space
340
1E
  0
BLOCK_RECORD
  5
23
330
1
100
AcDbSymbolTableRecord
100
AcDbBlockTableRecord
  2
*Paper_Space0
340
26
  0
ENDTAB
  0
ENDSEC
  0
SECTION
  2
BLOCKS
  0
BLOCK
  5
20
330
1F
100
AcDbEntity
  8
0
100
AcDbBlockBegin
  2
*Model_Space
 70
     0
 10
0.0
 20
0.0
 30
0.0
  3
*Model_Space
  1

  0
ENDBLK
  5
21
330
1F
100
AcDbEntity
  8
0
100
AcDbBlockEnd
  0
BLOCK
  5
1C
330
1B
100
AcDbEntity
 67
     1
  8
0
100
AcDbBlockBegin
  2
*Paper_Space
 70
     0
 10
0.0
 20
0.0
 30
0.0
  3
*Paper_Space
  1

  0
ENDBLK
  5
1D
330
1B
100
AcDbEntity
 67
     1
  8
0
100
AcDbBlockEnd
  0
BLOCK
  5
24
330
23
100
AcDbEntity
  8
0
100
AcDbBlockBegin
  2
*Paper_Space0
 70
     0
 10
0.0
 20
0.0
 30
0.0
  3
*Paper_Space0
  1

  0
ENDBLK
  5
25
330
23
100
AcDbEntity
  8
0
100
AcDbBlockEnd
  0
ENDSEC
  0
SECTION
  2
ENTITIES
  0
LWPOLYLINE
  5
20000
  8
0
100
AcDbEntity
100
AcDbPolyline
 70
0
 90
15
 10
-9756271.37317258
 20
5136743.72375101
 10
-9756252.9403048
 20
5136743.86203915
 10
-9756252.89897835
 20
5136738.31149347
 10
-9756241.47060651
 20
5136738.39721405
 10
-9756241.52569965
 20
5136745.79794254
 10
-9756211.29578793
 20
5136746.02462177
 10
-9756210.9818917
 20
5136703.84054199
 10
-9756226.46543727
 20
5136703.72445163
 10
-9756226.55356714
 20
5136715.56557779
 10
-9756236.50728696
 20
5136715.49093469
 10
-9756236.41363594
 20
5136702.90973894
 10
-9756266.64341052
 20
5136702.68298229
 10
-9756267.13882497
 20
5136719.70183674
 10
-9756271.19128986
 20
5136719.30137499
 10
-9756271.37317258
 20
5136743.72375101
  0
LWPOLYLINE
  5
20001
  8
0
100
AcDbEntity
100
AcDbPolyline
 70
0
 90
5
 10
-9756289.43186914
 20
5136742.84812116
 10
-9756289.19205444
 20
5136710.65500602
 10
-9756300.62039229
 20
5136710.56922875
 10
-9756300.86024532
 20
5136742.76234296
 10
-9756289.43186914
 20
5136742.84812116
  0
LWPOLYLINE
  5
20002
  8
0
100
AcDbEntity
100
AcDbPolyline
 70
0
 90
7
 10
-9756314.15120977
 20
5136745.2529675
 10
-9756302.7228309
 20
5136745.33876169
 10
-9756302.52984036
 20
5136719.43624077
 10
-9756308.05968622
 20
5136719.39472952
 10
-9756308.09001554
 20
5136723.46512101
 10
-9756313.98852021
 20
5136723.42083875
 10
-9756314.15120977
 20
5136745.2529675
  0
LWPOLYLINE
  5
20003
  8
0
100
AcDbEntity
100
AcDbPolyline
 70
0
 90
5
 10
-9756401.37667515
 20
5136724.98469384
 10
-9756378.51996885
 20
5136725.156477
 10
-9756378.26605684
 20
5136691.1132537
 10
-9756401.12268208
 20
5136690.94147253
 10
-9756401.37667515
 20
5136724.98469384
  0
LWPOLYLINE
  5
20004
  8
0
100
AcDbEntity
100
AcDbPolyline
 70
0
 90
5
 10
-9756370.13414254
 20
5136737.72740364
 10
-9756345.43411926
 20
5136737.91295743
 10
-9756345.19135837
 20
5136705.34982693
 10
-9756369.89129786
 20
5136705.16427519
 10
-9756370.13414254
 20
5136737.72740364
  0
LWPOLYLINE
  5
20005
  8
0
100
AcDbEntity
100
AcDbPolyline
 70
0
 90
5
 10
-9756441.89270567
 20
5136719.83231683
 10
-9756442.0418741
 20
5136739.81425134
 10
-9756421.76573386
 20
5136739.96672945
 10
-9756421.61660764
 20
5136719.98479391
 10
-9756441.89270567
 20
5136719.83231683
  0
LWPOLYLINE
  5
20006
  8
0
100
AcDbEntity
100
AcDbPolyline
 70
0
 90
5
 10
-9756494.75651711
 20
5136741.6589085
 10
-9756480.71972695
 20
5136741.76454853
 10
-9756480.36894305
 20
5136694.80032573
 10
-9756494.40566453
 20
5136694.69468738
 10
-9756494.75651711
 20
5136741.6589085
  0
LWPOLYLINE
  5
20007
  8
0
100
AcDbEntity
100
AcDbPolyline
 70
0
 90
5
 10
-9756594.36090926
 20
5136742.25061134
 10
-9756580.32412071
 20
5136742.35639815
 10
-9756579.97284937
 20
5136695.39218074
 10
-9756594.00956925
 20
5136695.28639561
 10
-9756594.36090926
 20
5136742.25061134
  0
LWPOLYLINE
  5
20008
  8
0
100
AcDbEntity
100
AcDbPolyline
 70
0
 90
6
 10
-9756662.23170181
 20
5136712.81338566
 10
-9756627.47404989
 20
5136713.07554197
 10
-9756614.75907612
 20
5136711.15854758
 10
-9756614.49800791
 20
5136676.27093646
 10
-9756661.95538945
 20
5136675.91302836
 10
-9756662.23170181
 20
5136712.81338566
  0
LWPOLYLINE
  5
20009
  8
0
100
AcDbEntity
100
AcDbPolyline
 70
0
 90
7
 10
-9756722.37408471
 20
5136710.34660385
 10
-9756670.23762462
 20
5136710.74011969
 10
-9756670.05674516
 20
5136686.58714815
 10
-9756701.47222623
 20
5136686.35006573
 10
-9756701.53757219
 20
5136695.07196446
 10
-9756722.25843885
 20
5136694.91553379
 10
-9756722.37408471
 20
5136710.34660385
  0
LWPOLYLINE
  5
2000A
  8
0
100
AcDbEntity
100
AcDbPolyline
 70
0
 90
5
 10
-9756255.5148579
 20
5136693.51508483
 10
-9756247.40443839
 20
5136693.57592179
 10
-9756247.34107685
 20
5136685.06513056
 10
-9756255.45148917
 20
5136685.00429378
 10
-9756255.5148579
 20
5136693.51508483
  0
LWPOLYLINE
  5
2000B
  8
0
100
AcDbEntity
100
AcDbPolyline
 70
0
 90
5
 10
-9756233.41481177
 20
5136696.27122994
 10
-9756212.7701005
 20
5136696.42602628
 10
-9756212.72053719
 20
5136689.76540405
 10
-9756233.36523413
 20
5136689.61060806
 10
-9756233.41481177
 20
5136696.27122994
  0
LWPOLYLINE
  5
2000C
  8
0
100
AcDbEntity
100
AcDbPolyline
 70
0
 90
5
 10
-9756508.38226293
 20
5136687.58124055
 10
-9756483.31371967
 20
5136687.7699249
 10
-9756483.24185721
 20
5136678.1490408
 10
-9756508.31037535
 20
5136677.96035706
 10
-9756508.38226293
 20
5136687.58124055
  0
LWPOLYLINE
  5
2000D
  8
0
100
AcDbEntity
100
AcDbPolyline
 70
0
 90
5
 10
-9756238.13571697
 20
5136686.61439199
 10
-9756212.32985389
 20
5136686.80789278
 10
-9756212.63242492
 20
5136677.92430919
 10
-9756238.06960927
 20
5136677.73357278
 10
-9756238.13571697
 20
5136686.61439199
  0
LWPOLYLINE
  5
2000E
  8
0
100
AcDbEntity
100
AcDbPolyline
 70
0
 90
5
 10
-9756582.78940527
 20
5136678.84259802
 10
-9756582.85583196
 20
5136687.72341285
 10
-9756557.04998159
 20
5136687.91784749
 10
-9756556.98357877
 20
5136679.03703208
 10
-9756582.78940527
 20
5136678.84259802
  0
LWPOLYLINE
  5
2000F
  8
0
100
AcDbEntity
100
AcDbPolyline
 70
0
 90
5
 10
-9756545.6050778
 20
5136685.78372725
 10
-9756536.38870412
 20
5136685.85314015
 10
-9756536.32232046
 20
5136676.9723263
 10
-9756545.53868561
 20
5136676.90291361
 10
-9756545.6050778
 20
5136685.78372725
  0
LWPOLYLINE
  5
20010
  8
0
100
AcDbEntity
100
AcDbPolyline
 70
0
 90
5
 10
-9756366.90921377
 20
5136700.78301932
 10
-9756348.47643157
 20
5136700.92149092
 10
-9756348.39918656
 20
5136690.56052264
 10
-9756366.83194886
 20
5136690.42205153
 10
-9756366.90921377
 20
5136700.78301932
  0
LWPOLYLINE
  5
20011
  8
0
100
AcDbEntity
100
AcDbPolyline
 70
0
 90
5
 10
-9756371.20061923
 20
5136682.98812875
 10
-9756345.76342692
 20
5136683.17922088
 10
-9756345.70273695
 20
5136675.03847406
 10
-9756371.13990768
 20
5136674.84738246
 10
-9756371.20061923
 20
5136682.98812875
  0
LWPOLYLINE
  5
20012
  8
0
100
AcDbEntity
100
AcDbPolyline
 70
0
 90
5
 10
-9756393.66952313
 20
5136680.26590102
 10
-9756384.45315227
 20
5136680.33516684
 10
-9756384.38690928
 20
5136671.45435569
 10
-9756393.60327161
 20
5136671.38509008
 10
-9756393.66952313
 20
5136680.26590102
  0
LWPOLYLINE
  5
20013
  8
0
100
AcDbEntity
100
AcDbPolyline
 70
0
 90
5
 10
-9756448.79523452
 20
5136706.12533498
 10
-9756401.97594674
 20
5136706.47738599
 10
-9756401.85999255
 20
5136690.93593028
 10
-9756448.67920453
 20
5136690.58388112
 10
-9756448.79523452
 20
5136706.12533498
  0
LWPOLYLINE
  5
20014
  8
0
100
AcDbEntity
100
AcDbPolyline
 70
0
 90
5
 10
-9756448.61262569
 20
5136681.66605817
 10
-9756420.96351112
 20
5136681.8739884
 10
-9756420.91104197
 20
5136674.8433449
 10
-9756448.56013629
 20
5136674.63541516
 10
-9756448.61262569
 20
5136681.66605817
  0
LWPOLYLINE
  5
20015
  8
0
100
AcDbEntity
100
AcDbPolyline
 70
0
 90
5
 10
-9756724.20837374
 20
5136687.52032471
 10
-9756704.15593766
 20
5136687.67171377
 10
-9756704.06545557
 20
5136675.59525
 10
-9756724.11786641
 20
5136675.44386155
 10
-9756724.20837374
 20
5136687.52032471
  0
LWPOLYLINE
  5
20016
  8
0
100
AcDbEntity
100
AcDbPolyline
 70
0
 90
5
 10
-9756527.0896379
 20
5136674.8585312
 10
-9756515.29269259
 20
5136674.94735496
 10
-9756515.2346241
 20
5136667.17665087
 10
-9756527.03155986
 20
5136667.08782735
 10
-9756527.0896379
 20
5136674.8585312
  0
LWPOLYLINE
  5
20017
  8
0
100
AcDbEntity
100
AcDbPolyline
 70
0
 90
5
 10
-9756509.77669914
 20
5136676.83915465
 10
-9756482.86491076
 20
5136677.04171368
 10
-9756482.81792415
 20
5136670.7511415
 10
-9756509.7296949
 20
5136670.5485829
 10
-9756509.77669914
 20
5136676.83915465
  0
LWPOLYLINE
  5
20018
  8
0
100
AcDbEntity
100
AcDbPolyline
 70
0
 90
5
 10
-9756255.35230369
 20
5136671.68307064
 10
-9756247.24190263
 20
5136671.74390715
 10
-9756247.17854155
 20
5136663.23313513
 10
-9756255.28893543
 20
5136663.1722988
 10
-9756255.35230369
 20
5136671.68307064
  0
LWPOLYLINE
  5
20019
  8
0
100
AcDbEntity
100
AcDbPolyline
 70
0
 90
5
 10
-9756235.84115388
 20
5136675.52995771
 10
-9756214.090523
 20
5136675.6930502
 10
-9756214.02168416
 20
5136666.44220709
 10
-9756235.77229408
 20
5136666.27911511
 10
-9756235.84115388
 20
5136675.52995771
  0
LWPOLYLINE
  5
2001A
  8
0
100
AcDbEntity
100
AcDbPolyline
 70
0
 90
5
 10
-9756255.35230369
 20
5136671.68307064
 10
-9756247.24190263
 20
5136671.74390715
 10
-9756247.17854155
 20
5136663.23313513
 10
-9756255.28893543
 20
5136663.1722988
 10
-9756255.35230369
 20
5136671.68307064
  0
LWPOLYLINE
  5
2001B
  8
0
100
AcDbEntity
100
AcDbPolyline
 70
0
 90
5
 10
-9756369.28559634
 20
5136673.381097
 10
-9756347.53497544
 20
5136673.54449409
 10
-9756347.46324932
 20
5136663.92362183
 10
-9756369.21384842
 20
5136663.76022528
 10
-9756369.28559634
 20
5136673.381097
  0
LWPOLYLINE
  5
2001C
  8
0
100
AcDbEntity
100
AcDbPolyline
 70
0
 90
5
 10
-9756450.39567371
 20
5136673.585456
 10
-9756429.01371001
 20
5136673.74626611
 10
-9756428.94466406
 20
5136664.49542837
 10
-9756450.32660715
 20
5136664.33461875
 10
-9756450.39567371
 20
5136673.585456
  0
LWPOLYLINE
  5
2001D
  8
0
100
AcDbEntity
100
AcDbPolyline
 70
0
 90
5
 10
-9756408.72086642
 20
5136671.64150879
 10
-9756399.50450409
 20
5136671.71078903
 10
-9756399.43824731
 20
5136662.82998603
 10
-9756408.65460111
 20
5136662.76070599
 10
-9756408.72086642
 20
5136671.64150879
  0
LWPOLYLINE
  5
2001E
  8
0
100
AcDbEntity
100
AcDbPolyline
 70
0
 90
5
 10
-9756723.43436835
 20
5136673.43616612
 10
-9756695.36099872
 20
5136673.64809601
 10
-9756695.32078946
 20
5136668.28078461
 10
-9756723.39414339
 20
5136668.06885511
 10
-9756723.43436835
 20
5136673.43616612
  0
LWPOLYLINE
  5
2001F
  8
0
100
AcDbEntity
100
AcDbPolyline
 70
0
 90
5
 10
-9756529.97249655
 20
5136665.95551916
 10
-9756517.43825384
 20
5136666.04989751
 10
-9756517.38571422
 20
5136659.0192667
 10
-9756529.91994775
 20
5136658.92488858
 10
-9756529.97249655
 20
5136665.95551916
  0
LWPOLYLINE
  5
20020
  8
0
100
AcDbEntity
100
AcDbPolyline
 70
0
 90
5
 10
-9756505.29201839
 20
5136668.73171803
 10
-9756483.91006759
 20
5136668.89265117
 10
-9756483.8409688
 20
5136659.64181896
 10
-9756505.222899
 20
5136659.48088631
 10
-9756505.29201839
 20
5136668.73171803
  0
LWPOLYLINE
  5
20021
  8
0
100
AcDbEntity
100
AcDbPolyline
 70
0
 90
5
 10
-9756254.17195226
 20
5136661.7004616
 10
-9756246.06155961
 20
5136661.76129695
 10
-9756245.99819973
 20
5136653.25053371
 10
-9756254.10858519
 20
5136653.18969852
 10
-9756254.17195226
 20
5136661.7004616
  0
LWPOLYLINE
  5
20022
  8
0
100
AcDbEntity
100
AcDbPolyline
 70
0
 90
5
 10
-9756236.48756755
 20
5136663.31331793
 10
-9756211.41907566
 20
5136663.50128574
 10
-9756211.36951367
 20
5136656.84068617
 10
-9756236.43798818
 20
5136656.65271879
 10
-9756236.48756755
 20
5136663.31331793
  0
LWPOLYLINE
  5
20023
  8
0
100
AcDbEntity
100
AcDbPolyline
 70
0
 90
5
 10
-9756369.580295
 20
5136663.46142875
 10
-9756348.19835081
 20
5136663.62205709
 10
-9756348.12938291
 20
5136654.37122771
 10
-9756369.5113065
 20
5136654.21059987
 10
-9756369.580295
 20
5136663.46142875
  0
LWPOLYLINE
  5
20024
  8
0
100
AcDbEntity
100
AcDbPolyline
 70
0
 90
5
 10
-9756393.89766904
 20
5136661.42842003
 10
-9756382.10073747
 20
5136661.51707857
 10
-9756382.042777
 20
5136653.74638345
 10
-9756393.83969902
 20
5136653.65772514
 10
-9756393.89766904
 20
5136661.42842003
  0
LWPOLYLINE
  5
20025
  8
0
100
AcDbEntity
100
AcDbPolyline
 70
0
 90
5
 10
-9756409.37810401
 20
5136660.90499699
 10
-9756400.161752
 20
5136660.97427769
 10
-9756400.09549478
 20
5136652.09348456
 10
-9756409.31183826
 20
5136652.02420407
 10
-9756409.37810401
 20
5136660.90499699
  0
LWPOLYLINE
  5
20026
  8
0
100
AcDbEntity
100
AcDbPolyline
 70
0
 90
5
 10
-9756449.94137711
 20
5136662.11719212
 10
-9756419.71174006
 20
5136662.34452826
 10
-9756419.65374913
 20
5136654.57383299
 10
-9756449.88336171
 20
5136654.34649745
 10
-9756449.94137711
 20
5136662.11719212
  0
LWPOLYLINE
  5
20027
  8
0
100
AcDbEntity
100
AcDbPolyline
 70
0
 90
5
 10
-9756722.62014104
 20
5136653.98472475
 10
-9756722.71064603
 20
5136666.06116114
 10
-9756688.62158022
 20
5136666.31849079
 10
-9756688.53111812
 20
5136654.24205335
 10
-9756722.62014104
 20
5136653.98472475
  0
LWPOLYLINE
  5
20028
  8
0
100
AcDbEntity
100
AcDbPolyline
 70
0
 90
5
 10
-9756526.94831494
 20
5136655.94982938
 10
-9756517.7319696
 20
5136656.01922375
 10
-9756517.66560367
 20
5136647.13843701
 10
-9756526.88194048
 20
5136647.06904286
 10
-9756526.94831494
 20
5136655.94982938
  0
LWPOLYLINE
  5
20029
  8
0
100
AcDbEntity
100
AcDbPolyline
 70
0
 90
5
 10
-9756509.63015684
 20
5136657.22738565
 10
-9756484.9303468
 20
5136657.41329763
 10
-9756484.86953916
 20
5136649.2725745
 10
-9756509.56932825
 20
5136649.08666303
 10
-9756509.63015684
 20
5136657.22738565
  0
LWPOLYLINE
  5
2002A
  8
0
100
AcDbEntity
100
AcDbPolyline
 70
0
 90
5
 10
-9756239.74761078
 20
5136655.51773641
 10
-9756209.14932931
 20
5136655.74716887
 10
-9756209.07774222
 20
5136646.12631198
 10
-9756239.67599302
 20
5136645.89688026
 10
-9756239.74761078
 20
5136655.51773641
  0
LWPOLYLINE
  5
2002B
  8
0
100
AcDbEntity
100
AcDbPolyline
 70
0
 90
5
 10
-9756580.7081108
 20
5136647.0336355
 10
-9756580.77453506
 20
5136655.91442115
 10
-9756554.96877013
 20
5136656.1088487
 10
-9756554.90236974
 20
5136647.22806246
 10
-9756580.7081108
 20
5136647.0336355
  0
LWPOLYLINE
  5
2002C
  8
0
100
AcDbEntity
100
AcDbPolyline
 70
0
 90
5
 10
-9756545.00681857
 20
5136655.07372475
 10
-9756535.79047437
 20
5136655.14313657
 10
-9756535.72409174
 20
5136646.26235092
 10
-9756544.94042741
 20
5136646.19293931
 10
-9756545.00681857
 20
5136655.07372475
  0
LWPOLYLINE
  5
2002D
  8
0
100
AcDbEntity
100
AcDbPolyline
 70
0
 90
5
 10
-9756660.59344321
 20
5136672.56854254
 10
-9756615.14131899
 20
5136672.91132579
 10
-9756615.03588761
 20
5136658.8221388
 10
-9756660.48794512
 20
5136658.47935719
 10
-9756660.59344321
 20
5136672.56854254
  0
LWPOLYLINE
  5
2002E
  8
0
100
AcDbEntity
100
AcDbPolyline
 70
0
 90
5
 10
-9756659.81450889
 20
5136657.8134866
 10
-9756614.36245448
 20
5136658.15626493
 10
-9756614.25702461
 20
5136644.06709942
 10
-9756659.7090123
 20
5136643.72432272
 10
-9756659.81450889
 20
5136657.8134866
  0
LWPOLYLINE
  5
2002F
  8
0
100
AcDbEntity
100
AcDbPolyline
 70
0
 90
5
 10
-9756375.77290225
 20
5136653.42344428
 10
-9756345.54328863
 20
5136653.65054461
 10
-9756345.48535787
 20
5136645.87985532
 10
-9756375.71494702
 20
5136645.65275558
 10
-9756375.77290225
 20
5136653.42344428
  0
LWPOLYLINE
  5
20030
  8
0
100
AcDbEntity
100
AcDbPolyline
 70
0
 90
5
 10
-9756390.86534929
 20
5136650.31259188
 10
-9756381.64900715
 20
5136650.3818545
 10
-9756381.58276722
 20
5136641.50107081
 10
-9756390.79910084
 20
5136641.4318084
 10
-9756390.86534929
 20
5136650.31259188
  0
LWPOLYLINE
  5
20031
  8
0
100
AcDbEntity
100
AcDbPolyline
 70
0
 90
5
 10
-9756408.56900871
 20
5136651.28968113
 10
-9756399.35266592
 20
5136651.35896089
 10
-9756399.28640959
 20
5136642.47817658
 10
-9756408.50274386
 20
5136642.40889702
 10
-9756408.56900871
 20
5136651.28968113
  0
LWPOLYLINE
  5
20032
  8
0
100
AcDbEntity
100
AcDbPolyline
 70
0
 90
5
 10
-9756451.33311269
 20
5136651.00510966
 10
-9756421.10351071
 20
5136651.23244963
 10
-9756421.0455188
 20
5136643.46176331
 10
-9756451.27509631
 20
5136643.23442394
 10
-9756451.33311269
 20
5136651.00510966
  0
LWPOLYLINE
  5
20033
  8
0
100
AcDbEntity
100
AcDbPolyline
 70
0
 90
5
 10
-9756719.90626947
 20
5136648.63761154
 10
-9756673.78585146
 20
5136648.98571929
 10
-9756673.57984279
 20
5136621.47834899
 10
-9756719.70012864
 20
5136621.13024447
 10
-9756719.90626947
 20
5136648.63761154
  0
LWPOLYLINE
  5
20034
  8
0
100
AcDbEntity
100
AcDbPolyline
 70
0
 90
5
 10
-9756526.86009227
 20
5136644.14578574
 10
-9756518.38106499
 20
5136644.20962863
 10
-9756518.33129021
 20
5136637.54904595
 10
-9756526.8103116
 20
5136637.48520321
 10
-9756526.86009227
 20
5136644.14578574
  0
LWPOLYLINE
  5
20035
  8
0
100
AcDbEntity
100
AcDbPolyline
 70
0
 90
5
 10
-9756514.34246865
 20
5136646.46035478
 10
-9756484.11288434
 20
5136646.68789445
 10
-9756484.05484149
 20
5136638.91721265
 10
-9756514.28440132
 20
5136638.68967358
 10
-9756514.34246865
 20
5136646.46035478
  0
LWPOLYLINE
  5
20036
  8
0
100
AcDbEntity
100
AcDbPolyline
 70
0
 90
5
 10
-9756253.65176919
 20
5136641.35141468
 10
-9756245.54139373
 20
5136641.41224932
 10
-9756245.47803462
 20
5136632.90150397
 10
-9756253.58840288
 20
5136632.84066951
 10
-9756253.65176919
 20
5136641.35141468
  0
LWPOLYLINE
  5
20037
  8
0
100
AcDbEntity
100
AcDbPolyline
 70
0
 90
5
 10
-9756234.86972437
 20
5136644.08265827
 10
-9756209.43262906
 20
5136644.27338464
 10
-9756209.37480862
 20
5136636.50270102
 10
-9756234.81188334
 20
5136636.31197515
 10
-9756234.86972437
 20
5136644.08265827
  0
LWPOLYLINE
  5
20038
  8
0
100
AcDbEntity
100
AcDbPolyline
 70
0
 90
5
 10
-9756583.95402895
 20
5136637.38779083
 10
-9756584.02045607
 20
5136646.26856757
 10
-9756558.21471721
 20
5136646.46300348
 10
-9756558.14831397
 20
5136637.58222616
 10
-9756583.95402895
 20
5136637.38779083
  0
LWPOLYLINE
  5
20039
  8
0
100
AcDbEntity
100
AcDbPolyline
 70
0
 90
5
 10
-9756371.64320069
 20
5136643.4630301
 10
-9756346.94342007
 20
5136643.64858372
 10
-9756346.88272965
 20
5136635.50787019
 10
-9756371.58248933
 20
5136635.32231709
 10
-9756371.64320069
 20
5136643.4630301
  0
LWPOLYLINE
  5
2003A
  8
0
100
AcDbEntity
100
AcDbPolyline
 70
0
 90
5
 10
-9756658.85390634
 20
5136642.29951962
 10
-9756648.16296353
 20
5136642.38016403
 10
-9756648.10478791
 20
5136634.60948802
 10
-9756658.79572207
 20
5136634.52884382
 10
-9756658.85390634
 20
5136642.29951962
  0
LWPOLYLINE
  5
2003B
  8
0
100
AcDbEntity
100
AcDbPolyline
 70
0
 90
5
 10
-9756638.88569522
 20
5136634.3089672
 10
-9756638.95217312
 20
5136643.18974016
 10
-9756613.1464453
 20
5136643.38432474
 10
-9756613.07999128
 20
5136634.50355119
 10
-9756638.88569522
 20
5136634.3089672
  0
LWPOLYLINE
  5
2003C
  8
0
100
AcDbEntity
100
AcDbPolyline
 70
0
 90
5
 10
-9756450.52673896
 20
5136641.75984003
 10
-9756420.29716606
 20
5136641.98717695
 10
-9756420.23917493
 20
5136634.21649805
 10
-9756450.46872336
 20
5136633.98916173
 10
-9756450.52673896
 20
5136641.75984003
  0
LWPOLYLINE
  5
2003D
  8
0
100
AcDbEntity
100
AcDbPolyline
 70
0
 90
5
 10
-9756527.90244274
 20
5136635.62671435
 10
-9756515.36823959
 20
5136635.72108931
 10
-9756515.31017158
 20
5136627.95041674
 10
-9756527.84436459
 20
5136627.85604203
 10
-9756527.90244274
 20
5136635.62671435
  0
LWPOLYLINE
  5
2003E
  8
0
100
AcDbEntity
100
AcDbPolyline
 70
0
 90
5
 10
-9756505.79431956
 20
5136637.27337611
 10
-9756484.04378572
 20
5136637.43708349
 10
-9756483.97468732
 20
5136628.18628137
 10
-9756505.72520019
 20
5136628.02257451
 10
-9756505.79431956
 20
5136637.27337611
  0
LWPOLYLINE
  5
2003F
  8
0
100
AcDbEntity
100
AcDbPolyline
 70
0
 90
5
 10
-9756234.43221283
 20
5136634.83461037
 10
-9756208.25783559
 20
5136635.03086239
 10
-9756208.18900303
 20
5136625.78005808
 10
-9756234.36335505
 20
5136625.58380667
 10
-9756234.43221283
 20
5136634.83461037
  0
LWPOLYLINE
  5
20040
  8
0
100
AcDbEntity
100
AcDbPolyline
 70
0
 90
5
 10
-9756583.06806621
 20
5136636.20602028
 10
-9756559.5863066
 20
5136636.38294622
 10
-9756559.52286113
 20
5136627.89789184
 10
-9756583.00459998
 20
5136627.72096641
 10
-9756583.06806621
 20
5136636.20602028
  0
LWPOLYLINE
  5
20041
  8
0
100
AcDbEntity
100
AcDbPolyline
 70
0
 90
5
 10
-9756374.51791568
 20
5136633.44999614
 10
-9756349.81816095
 20
5136633.63555677
 10
-9756349.75746824
 20
5136625.49485171
 10
-9756374.45720203
 20
5136625.30929159
 10
-9756374.51791568
 20
5136633.44999614
  0
LWPOLYLINE
  5
20042
  8
0
100
AcDbEntity
100
AcDbPolyline
 70
0
 90
5
 10
-9756391.07141774
 20
5136628.51491296
 10
-9756382.59240224
 20
5136628.57863476
 10
-9756382.54272187
 20
5136621.91806126
 10
-9756391.02173149
 20
5136621.8543396
 10
-9756391.07141774
 20
5136628.51491296
  0
LWPOLYLINE
  5
20043
  8
0
100
AcDbEntity
100
AcDbPolyline
 70
0
 90
5
 10
-9756638.73980168
 20
5136633.4916737
 10
-9756615.25805125
 20
5136633.66873676
 10
-9756615.1945566
 20
5136625.18368567
 10
-9756638.67628627
 20
5136625.00662313
 10
-9756638.73980168
 20
5136633.4916737
  0
LWPOLYLINE
  5
20044
  8
0
100
AcDbEntity
100
AcDbPolyline
 70
0
 90
5
 10
-9756656.93306335
 20
5136631.95252496
 10
-9756647.71674327
 20
5136632.02204469
 10
-9756647.65025744
 20
5136623.14128211
 10
-9756656.866569
 20
5136623.0717626
 10
-9756656.93306335
 20
5136631.95252496
  0
LWPOLYLINE
  5
20045
  8
0
100
AcDbEntity
100
AcDbPolyline
 70
0
 90
5
 10
-9756312.5444939
 20
5136628.58669871
 10
-9756287.47609606
 20
5136628.77486512
 10
-9756287.41269995
 20
5136620.26413153
 10
-9756312.48107557
 20
5136620.07596565
 10
-9756312.5444939
 20
5136628.58669871
  0
LWPOLYLINE
  5
20046
  8
0
100
AcDbEntity
100
AcDbPolyline
 70
0
 90
5
 10
-9756271.62484686
 20
5136629.00482829
 10
-9756263.51448209
 20
5136629.06567805
 10
-9756263.45110722
 20
5136620.55494384
 10
-9756271.5614648
 20
5136620.49409426
 10
-9756271.62484686
 20
5136629.00482829
  0
LWPOLYLINE
  5
20047
  8
0
100
AcDbEntity
100
AcDbPolyline
 70
0
 90
5
 10
-9756407.30567131
 20
5136630.20614618
 10
-9756398.08934875
 20
5136630.27542438
 10
-9756398.02309392
 20
5136621.39465941
 10
-9756407.23940796
 20
5136621.32538141
 10
-9756407.30567131
 20
5136630.20614618
  0
LWPOLYLINE
  5
20048
  8
0
100
AcDbEntity
100
AcDbPolyline
 70
0
 90
5
 10
-9756448.61717056
 20
5136632.89293005
 10
-9756418.38762549
 20
5136633.12026043
 10
-9756418.32963603
 20
5136625.34958863
 10
-9756448.55915663
 20
5136625.12225884
 10
-9756448.61717056
 20
5136632.89293005
  0
LWPOLYLINE
  5
20049
  8
0
100
AcDbEntity
100
AcDbPolyline
 70
0
 90
5
 10
-9756525.61557843
 20
5136625.61550346
 10
-9756516.3992622
 20
5136625.68489604
 10
-9756516.33289797
 20
5136616.80413714
 10
-9756525.54920567
 20
5136616.73474477
 10
-9756525.61557843
 20
5136625.61550346
  0
LWPOLYLINE
  5
2004A
  8
0
100
AcDbEntity
100
AcDbPolyline
 70
0
 90
5
 10
-9756503.86534825
 20
5136625.81625882
 10
-9756482.1148403
 20
5136625.97996135
 10
-9756482.06232705
 20
5136618.94935925
 10
-9756503.81281906
 20
5136618.7856571
 10
-9756503.86534825
 20
5136625.81625882
  0
LWPOLYLINE
  5
2004B
  8
0
100
AcDbEntity
100
AcDbPolyline
 70
0
 90
5
 10
-9756256.83189101
 20
5136622.82491557
 10
-9756244.66635131
 20
5136622.91616859
 10
-9756244.59748386
 20
5136613.66537647
 10
-9756256.76301184
 20
5136613.57412373
 10
-9756256.83189101
 20
5136622.82491557
  0
LWPOLYLINE
  5
2004C
  8
0
100
AcDbEntity
100
AcDbPolyline
 70
0
 90
5
 10
-9756230.65203923
 20
5136622.28116487
 10
-9756208.16422337
 20
5136622.4497707
 10
-9756208.11191083
 20
5136615.41916776
 10
-9756230.59971022
 20
5136615.25056233
 10
-9756230.65203923
 20
5136622.28116487
  0
LWPOLYLINE
  5
2004D
  8
0
100
AcDbEntity
100
AcDbPolyline
 70
0
 90
5
 10
-9756582.62468426
 20
5136626.2179355
 10
-9756559.14294907
 20
5136626.39485993
 10
-9756559.07950413
 20
5136617.9098143
 10
-9756582.56121856
 20
5136617.73289038
 10
-9756582.62468426
 20
5136626.2179355
  0
LWPOLYLINE
  5
2004E
  8
0
100
AcDbEntity
100
AcDbPolyline
 70
0
 90
5
 10
-9756374.06950742
 20
5136622.75884205
 10
-9756345.31460093
 20
5136622.97485985
 10
-9756345.25115362
 20
5136614.46413223
 10
-9756374.00603462
 20
5136614.24811505
 10
-9756374.06950742
 20
5136622.75884205
  0
LWPOLYLINE
  5
2004F
  8
0
100
AcDbEntity
100
AcDbPolyline
 70
0
 90
5
 10
-9756390.63900122
 20
5136619.96994865
 10
-9756381.42268821
 20
5136620.03921055
 10
-9756381.35644896
 20
5136611.15845472
 10
-9756390.57275344
 20
5136611.08919302
 10
-9756390.63900122
 20
5136619.96994865
  0
LWPOLYLINE
  5
20050
  8
0
100
AcDbEntity
100
AcDbPolyline
 70
0
 90
5
 10
-9756390.63900122
 20
5136619.96994865
 10
-9756381.42268821
 20
5136620.03921055
 10
-9756381.35644896
 20
5136611.15845472
 10
-9756390.57275344
 20
5136611.08919302
 10
-9756390.63900122
 20
5136619.96994865
  0
LWPOLYLINE
  5
20051
  8
0
100
AcDbEntity
100
AcDbPolyline
 70
0
 90
5
 10
-9756656.11818182
 20
5136621.59719821
 10
-9756646.90187166
 20
5136621.66671698
 10
-9756646.83538675
 20
5136612.78596391
 10
-9756656.05168838
 20
5136612.71644535
 10
-9756656.11818182
 20
5136621.59719821
  0
LWPOLYLINE
  5
20052
  8
0
100
AcDbEntity
100
AcDbPolyline
 70
0
 90
5
 10
-9756632.90166579
 20
5136622.91946635
 10
-9756614.83769445
 20
5136623.05567076
 10
-9756614.77677711
 20
5136614.91497851
 10
-9756632.84073313
 20
5136614.77877446
 10
-9756632.90166579
 20
5136622.91946635
  0
LWPOLYLINE
  5
20053
  8
0
100
AcDbEntity
100
AcDbPolyline
 70
0
 90
5
 10
-9756406.48829815
 20
5136619.48076568
 10
-9756397.27198587
 20
5136619.55004291
 10
-9756397.20573196
 20
5136610.66928778
 10
-9756406.42203571
 20
5136610.60001075
 10
-9756406.48829815
 20
5136619.48076568
  0
LWPOLYLINE
  5
20054
  8
0
100
AcDbEntity
100
AcDbPolyline
 70
0
 90
5
 10
-9756449.64853902
 20
5136622.89374946
 10
-9756428.26668823
 20
5136623.05455599
 10
-9756428.19764382
 20
5136613.80376672
 10
-9756449.57947401
 20
5136613.6429607
 10
-9756449.64853902
 20
5136622.89374946
  0
LWPOLYLINE
  5
20055
  8
0
100
AcDbEntity
100
AcDbPolyline
 70
0
 90
5
 10
-9756310.24158785
 20
5136616.39225477
 10
-9756286.27917913
 20
5136616.57211482
 10
-9756286.21578426
 20
5136608.06139194
 10
-9756310.17817174
 20
5136607.88153241
 10
-9756310.24158785
 20
5136616.39225477
  0
LWPOLYLINE
  5
20056
  8
0
100
AcDbEntity
100
AcDbPolyline
 70
0
 90
5
 10
-9756271.53941891
 20
5136617.53384069
 10
-9756263.42906383
 20
5136617.59469022
 10
-9756263.36568921
 20
5136609.0839661
 10
-9756271.4760371
 20
5136609.02311675
 10
-9756271.53941891
 20
5136617.53384069
  0
LWPOLYLINE
  5
20057
  8
0
100
AcDbEntity
100
AcDbPolyline
 70
0
 90
5
 10
-9756527.74756799
 20
5136614.90493539
 10
-9756513.00147843
 20
5136615.01596225
 10
-9756512.95170772
 20
5136608.35539962
 10
-9756527.69778705
 20
5136608.244373
 10
-9756527.74756799
 20
5136614.90493539
  0
LWPOLYLINE
  5
20058
  8
0
100
AcDbEntity
100
AcDbPolyline
 70
0
 90
5
 10
-9756504.53353555
 20
5136616.55991805
 10
-9756480.57113461
 20
5136616.74026681
 10
-9756480.4992761
 20
5136607.11945333
 10
-9756504.46165302
 20
5136606.93910516
 10
-9756504.53353555
 20
5136616.55991805
  0
LWPOLYLINE
  5
20059
  8
0
100
AcDbEntity
100
AcDbPolyline
 70
0
 90
5
 10
-9756237.58757995
 20
5136612.97784587
 10
-9756209.93865297
 20
5136613.18516031
 10
-9756209.87532585
 20
5136604.67443928
 10
-9756237.52422831
 20
5136604.46712543
 10
-9756237.58757995
 20
5136612.97784587
  0
LWPOLYLINE
  5
2005A
  8
0
100
AcDbEntity
100
AcDbPolyline
 70
0
 90
5
 10
-9756582.91860781
 20
5136616.22430484
 10
-9756559.43689709
 20
5136616.40122958
 10
-9756559.37345204
 20
5136607.91619273
 10
-9756582.855142
 20
5136607.73926849
 10
-9756582.91860781
 20
5136616.22430484
  0
LWPOLYLINE
  5
2005B
  8
0
100
AcDbEntity
100
AcDbPolyline
 70
0
 90
5
 10
-9756543.58550593
 20
5136612.89839631
 10
-9756534.3692022
 20
5136612.96780607
 10
-9756534.30282154
 20
5136604.08705913
 10
-9756543.51911674
 20
5136604.01764958
 10
-9756543.58550593
 20
5136612.89839631
  0
LWPOLYLINE
  5
2005C
  8
0
100
AcDbEntity
100
AcDbPolyline
 70
0
 90
5
 10
-9756656.40648759
 20
5136610.86350861
 10
-9756647.19018775
 20
5136610.93302748
 10
-9756647.12370273
 20
5136602.05228426
 10
-9756656.33999405
 20
5136601.9827656
 10
-9756656.40648759
 20
5136610.86350861
  0
LWPOLYLINE
  5
2005D
  8
0
100
AcDbEntity
100
AcDbPolyline
 70
0
 90
5
 10
-9756630.61220274
 20
5136612.57526683
 10
-9756617.70938
 20
5136612.67255586
 10
-9756617.65676759
 20
5136605.64196518
 10
-9756630.55958087
 20
5136605.54467638
 10
-9756630.61220274
 20
5136612.57526683
  0
LWPOLYLINE
  5
2005E
  8
0
100
AcDbEntity
100
AcDbPolyline
 70
0
 90
5
 10
-9756358.85514555
 20
5136609.51426245
 10
-9756340.79119053
 20
5136609.6499468
 10
-9756340.73050581
 20
5136601.5092618
 10
-9756358.79444552
 20
5136601.37357782
 10
-9756358.85514555
 20
5136609.51426245
  0
LWPOLYLINE
  5
2005F
  8
0
100
AcDbEntity
100
AcDbPolyline
 70
0
 90
5
 10
-9756448.82559413
 20
5136611.42831854
 10
-9756423.75724714
 20
5136611.61684282
 10
-9756423.68544566
 20
5136601.99603346
 10
-9756448.75376754
 20
5136601.80750981
 10
-9756448.82559413
 20
5136611.42831854
  0
LWPOLYLINE
  5
20060
  8
0
100
AcDbEntity
100
AcDbPolyline
 70
0
 90
5
 10
-9756406.77964408
 20
5136609.11711446
 10
-9756397.56334176
 20
5136609.18639181
 10
-9756397.49708774
 20
5136600.3056462
 10
-9756406.71338154
 20
5136600.23636906
 10
-9756406.77964408
 20
5136609.11711446
  0
LWPOLYLINE
  5
20061
  8
0
100
AcDbEntity
100
AcDbPolyline
 70
0
 90
5
 10
-9756310.89617523
 20
5136605.28577896
 10
-9756285.09053412
 20
5136605.47947316
 10
-9756285.01335927
 20
5136595.11860599
 10
-9756310.81897252
 20
5136594.92491247
 10
-9756310.89617523
 20
5136605.28577896
  0
LWPOLYLINE
  5
20062
  8
0
100
AcDbEntity
100
AcDbPolyline
 70
0
 90
5
 10
-9756271.45399129
 20
5136606.0628667
 10
-9756263.34364591
 20
5136606.12371598
 10
-9756263.28027153
 20
5136597.61300196
 10
-9756271.39060973
 20
5136597.55215285
 10
-9756271.45399129
 20
5136606.0628667
  0
LWPOLYLINE
  5
20063
  8
0
100
AcDbEntity
100
AcDbPolyline
 70
0
 90
5
 10
-9756505.55654985
 20
5136605.45065574
 10
-9756480.85687288
 20
5136605.6365549
 10
-9756480.79606942
 20
5136597.4958753
 10
-9756505.49572545
 20
5136597.30997664
 10
-9756505.55654985
 20
5136605.45065574
  0
LWPOLYLINE
  5
20064
  8
0
100
AcDbEntity
100
AcDbPolyline
 70
0
 90
5
 10
-9756254.08877338
 20
5136601.01241888
 10
-9756245.97843201
 20
5136601.07325331
 10
-9756245.91507311
 20
5136592.56254347
 10
-9756254.02540728
 20
5136592.50170922
 10
-9756254.08877338
 20
5136601.01241888
  0
LWPOLYLINE
  5
20065
  8
0
100
AcDbEntity
100
AcDbPolyline
 70
0
 90
5
 10
-9756236.04411151
 20
5136603.7381219
 10
-9756209.86981915
 20
5136603.93437693
 10
-9756209.81475225
 20
5136596.53375659
 10
-9756235.98902443
 20
5136596.33750205
 10
-9756236.04411151
 20
5136603.7381219
  0
LWPOLYLINE
  5
20066
  8
0
100
AcDbEntity
100
AcDbPolyline
 70
0
 90
5
 10
-9756655.59160863
 20
5136600.50820438
 10
-9756646.37531871
 20
5136600.5777223
 10
-9756646.30883461
 20
5136591.69698858
 10
-9756655.525116
 20
5136591.62747087
 10
-9756655.59160863
 20
5136600.50820438
  0
LWPOLYLINE
  5
20067
  8
0
100
AcDbEntity
100
AcDbPolyline
 70
0
 90
5
 10
-9756631.65168823
 20
5136603.686182
 10
-9756616.53696701
 20
5136603.80014881
 10
-9756616.4760485
 20
5136595.65947278
 10
-9756631.5907569
 20
5136595.54550628
 10
-9756631.65168823
 20
5136603.686182
  0
LWPOLYLINE
  5
20068
  8
0
100
AcDbEntity
100
AcDbPolyline
 70
0
 90
5
 10
-9756448.00817639
 20
5136600.70296285
 10
-9756422.93985737
 20
5136600.8914845
 10
-9756422.8680569
 20
5136591.27068581
 10
-9756447.9363508
 20
5136591.08216477
 10
-9756448.00817639
 20
5136600.70296285
  0
LWPOLYLINE
  5
20069
  8
0
100
AcDbEntity
100
AcDbPolyline
 70
0
 90
5
 10
-9756373.1497892
 20
5136598.30531283
 10
-9756342.92034904
 20
5136598.5324019
 10
-9756342.86242115
 20
5136590.76175686
 10
-9756373.09183684
 20
5136590.53466838
 10
-9756373.1497892
 20
5136598.30531283
  0
LWPOLYLINE
  5
2006A
  8
0
100
AcDbEntity
100
AcDbPolyline
 70
0
 90
5
 10
-9756311.1683234
 20
5136592.33193003
 10
-9756286.10002019
 20
5136592.52009123
 10
-9756286.03662584
 20
5136584.00938952
 10
-9756311.10490682
 20
5136583.82122886
 10
-9756311.1683234
 20
5136592.33193003
  0
LWPOLYLINE
  5
2006B
  8
0
100
AcDbEntity
100
AcDbPolyline
 70
0
 90
5
 10
-9756270.99991239
 20
5136594.59467232
 10
-9756262.88957669
 20
5136594.65552106
 10
-9756262.82620289
 20
5136586.14481712
 10
-9756270.9365314
 20
5136586.08396856
 10
-9756270.99991239
 20
5136594.59467232
  0
LWPOLYLINE
  5
2006C
  8
0
100
AcDbEntity
100
AcDbPolyline
 70
0
 90
5
 10
-9756525.74362955
 20
5136593.42001614
 10
-9756516.52734424
 20
5136593.48940832
 10
-9756516.46098039
 20
5136584.60867899
 10
-9756525.67725718
 20
5136584.53928702
 10
-9756525.74362955
 20
5136593.42001614
  0
LWPOLYLINE
  5
2006D
  8
0
100
AcDbEntity
100
AcDbPolyline
 70
0
 90
5
 10
-9756507.32239443
 20
5136595.07591704
 10
-9756482.62274423
 20
5136595.26182033
 10
-9756482.56193943
 20
5136587.12114948
 10
-9756507.26156868
 20
5136586.9352467
 10
-9756507.32239443
 20
5136595.07591704
  0
LWPOLYLINE
  5
2006E
  8
0
100
AcDbEntity
100
AcDbPolyline
 70
0
 90
5
 10
-9756244.08834329
 20
5136594.79655294
 10
-9756207.59182882
 20
5136595.07021479
 10
-9756207.50923132
 20
5136583.96929654
 10
-9756244.00570358
 20
5136583.69563572
 10
-9756244.08834329
 20
5136594.79655294
  0
LWPOLYLINE
  5
2006F
  8
0
100
AcDbEntity
100
AcDbPolyline
 70
0
 90
5
 10
-9756580.97847842
 20
5136603.28710526
 10
-9756557.49679926
 20
5136603.46402468
 10
-9756557.43335612
 20
5136594.97899915
 10
-9756580.91501452
 20
5136594.80208023
 10
-9756580.97847842
 20
5136603.28710526
  0
LWPOLYLINE
  5
20070
  8
0
100
AcDbEntity
100
AcDbPolyline
 70
0
 90
5
 10
-9756543.13110156
 20
5136601.43020987
 10
-9756533.91480884
 20
5136601.499619
 10
-9756533.84842878
 20
5136592.61888259
 10
-9756543.06471298
 20
5136592.54947366
 10
-9756543.13110156
 20
5136601.43020987
  0
LWPOLYLINE
  5
20071
  8
0
100
AcDbEntity
100
AcDbPolyline
 70
0
 90
5
 10
-9756444.6074389
 20
5136589.62699793
 10
-9756422.85701069
 20
5136589.79056378
 10
-9756422.78797203
 20
5136580.53980625
 10
-9756444.53837928
 20
5136580.37624091
 10
-9756444.6074389
 20
5136589.62699793
  0
LWPOLYLINE
  5
20072
  8
0
100
AcDbEntity
100
AcDbPolyline
 70
0
 90
5
 10
-9756406.99368308
 20
5136588.39261661
 10
-9756397.77740066
 20
5136588.46189383
 10
-9756397.71114677
 20
5136579.58116725
 10
-9756406.92742066
 20
5136579.51189025
 10
-9756406.99368308
 20
5136588.39261661
  0
LWPOLYLINE
  5
20073
  8
0
100
AcDbEntity
100
AcDbPolyline
 70
0
 90
5
 10
-9756718.9764135
 20
5136613.75527904
 10
-9756674.86139143
 20
5136614.0882493
 10
-9756674.65035676
 20
5136585.91007023
 10
-9756718.76524933
 20
5136585.57710315
 10
-9756718.9764135
 20
5136613.75527904
  0
LWPOLYLINE
  5
20074
  8
0
100
AcDbEntity
100
AcDbPolyline
 70
0
 90
5
 10
-9756374.55264398
 20
5136588.67343593
 10
-9756344.32323423
 20
5136588.90052894
 10
-9756344.26530533
 20
5136581.12989166
 10
-9756374.49469061
 20
5136580.90279924
 10
-9756374.55264398
 20
5136588.67343593
  0
LWPOLYLINE
  5
20075
  8
0
100
AcDbEntity
100
AcDbPolyline
 70
0
 90
5
 10
-9756374.54712461
 20
5136587.93337502
 10
-9756344.31771718
 20
5136588.16046798
 10
-9756344.2597883
 20
5136580.38983129
 10
-9756374.48917126
 20
5136580.16273893
 10
-9756374.54712461
 20
5136587.93337502
  0
LWPOLYLINE
  5
20076
  8
0
100
AcDbEntity
100
AcDbPolyline
 70
0
 90
5
 10
-9756374.55264398
 20
5136588.67343593
 10
-9756344.32323423
 20
5136588.90052894
 10
-9756344.26530533
 20
5136581.12989166
 10
-9756374.49469061
 20
5136580.90279924
 10
-9756374.55264398
 20
5136588.67343593
  0
LWPOLYLINE
  5
20077
  8
0
100
AcDbEntity
100
AcDbPolyline
 70
0
 90
5
 10
-9756526.03761167
 20
5136583.42642059
 10
-9756516.82133596
 20
5136583.49581289
 10
-9756516.754972
 20
5136574.61509275
 10
-9756525.97123918
 20
5136574.54570065
 10
-9756526.03761167
 20
5136583.42642059
  0
LWPOLYLINE
  5
20078
  8
0
100
AcDbEntity
100
AcDbPolyline
 70
0
 90
5
 10
-9756503.19534719
 20
5136585.48565129
 10
-9756478.4957215
 20
5136585.67154346
 10
-9756478.43492034
 20
5136577.53088063
 10
-9756503.13452508
 20
5136577.34498897
 10
-9756503.19534719
 20
5136585.48565129
  0
LWPOLYLINE
  5
20079
  8
0
100
AcDbEntity
100
AcDbPolyline
 70
0
 90
5
 10
-9756243.63429773
 20
5136583.32837031
 10
-9756207.13782684
 20
5136583.60202969
 10
-9756207.05523009
 20
5136572.5011246
 10
-9756243.55165877
 20
5136572.22746624
 10
-9756243.63429773
 20
5136583.32837031
  0
LWPOLYLINE
  5
2007A
  8
0
100
AcDbEntity
100
AcDbPolyline
 70
0
 90
5
 10
-9756312.19431667
 20
5136581.59274446
 10
-9756287.12604156
 20
5136581.78090788
 10
-9756287.06264646
 20
5136573.27021564
 10
-9756312.13089935
 20
5136573.08205276
 10
-9756312.19431667
 20
5136581.59274446
  0
LWPOLYLINE
  5
2007B
  8
0
100
AcDbEntity
100
AcDbPolyline
 70
0
 90
5
 10
-9756270.53205633
 20
5136581.27634009
 10
-9756262.42173188
 20
5136581.33718823
 10
-9756262.35835869
 20
5136572.82649601
 10
-9756270.46867595
 20
5136572.76564804
 10
-9756270.53205633
 20
5136581.27634009
  0
LWPOLYLINE
  5
2007C
  8
0
100
AcDbEntity
100
AcDbPolyline
 70
0
 90
5
 10
-9756655.07057918
 20
5136580.15931636
 10
-9756645.8543088
 20
5136580.22883344
 10
-9756645.78782549
 20
5136571.34811841
 10
-9756655.00408735
 20
5136571.27860154
 10
-9756655.07057918
 20
5136580.15931636
  0
LWPOLYLINE
  5
2007D
  8
0
100
AcDbEntity
100
AcDbPolyline
 70
0
 90
9
 10
-9756637.10390924
 20
5136593.28362217
 10
-9756615.35348035
 20
5136593.44762766
 10
-9756615.292563
 20
5136585.30696033
 10
-9756632.25051023
 20
5136585.17909626
 10
-9756632.23112289
 20
5136582.58888548
 10
-9756614.90452931
 20
5136582.71952876
 10
-9756614.8380746
 20
5136573.83881094
 10
-9756636.95710965
 20
5136573.67202724
 10
-9756637.10390924
 20
5136593.28362217
  0
LWPOLYLINE
  5
2007E
  8
0
100
AcDbEntity
100
AcDbPolyline
 70
0
 90
5
 10
-9756445.93259634
 20
5136569.59727994
 10
-9756445.99889469
 20
5136578.4779966
 10
-9756420.19333181
 20
5136578.67205555
 10
-9756420.12705733
 20
5136569.79133832
 10
-9756445.93259634
 20
5136569.59727994
  0
LWPOLYLINE
  5
2007F
  8
0
100
AcDbEntity
100
AcDbPolyline
 70
0
 90
5
 10
-9756408.0250906
 20
5136578.39348618
 10
-9756398.8088178
 20
5136578.46276424
 10
-9756398.74256311
 20
5136569.58204686
 10
-9756407.95882738
 20
5136569.51276902
 10
-9756408.0250906
 20
5136578.39348618
  0
LWPOLYLINE
  5
20080
  8
0
100
AcDbEntity
100
AcDbPolyline
 70
0
 90
5
 10
-9756721.41110508
 20
5136583.52818523
 10
-9756670.49743004
 20
5136583.91246352
 10
-9756670.41953334
 20
5136573.51073965
 10
-9756721.33315322
 20
5136573.1264627
 10
-9756721.41110508
 20
5136583.52818523
  0
LWPOLYLINE
  5
20081
  8
0
100
AcDbEntity
100
AcDbPolyline
 70
0
 90
5
 10
-9756370.04880221
 20
5136577.97579733
 10
-9756345.34919004
 20
5136578.16134397
 10
-9756345.28850191
 20
5136570.02068555
 10
-9756369.98809314
 20
5136569.83513942
 10
-9756370.04880221
 20
5136577.97579733
  0
LWPOLYLINE
  5
20082
  8
0
100
AcDbEntity
100
AcDbPolyline
 70
0
 90
5
 10
-9756389.2018119
 20
5136575.57456386
 10
-9756379.9855415
 20
5136575.64382366
 10
-9756379.91930427
 20
5136566.76310857
 10
-9756389.13556614
 20
5136566.69384898
 10
-9756389.2018119
 20
5136575.57456386
  0
LWPOLYLINE
  5
20083
  8
0
100
AcDbEntity
100
AcDbPolyline
 70
0
 90
5
 10
-9756504.96948498
 20
5136576.22102411
 10
-9756481.00718477
 20
5136576.40137226
 10
-9756480.93532651
 20
5136566.78059892
 10
-9756504.8976027
 20
5136566.60025135
 10
-9756504.96948498
 20
5136576.22102411
  0
LWPOLYLINE
  5
20084
  8
0
100
AcDbEntity
100
AcDbPolyline
 70
0
 90
5
 10
-9756525.59456854
 20
5136573.47539006
 10
-9756513.06044651
 20
5136573.56976061
 10
-9756513.00238121
 20
5136565.79913796
 10
-9756525.5364931
 20
5136565.70476766
 10
-9756525.59456854
 20
5136573.47539006
  0
LWPOLYLINE
  5
20085
  8
0
100
AcDbEntity
100
AcDbPolyline
 70
0
 90
5
 10
-9756252.38274754
 20
5136569.94092454
 10
-9756244.2724324
 20
5136570.00175707
 10
-9756244.20907548
 20
5136561.49107455
 10
-9756252.31938342
 20
5136561.43024219
 10
-9756252.38274754
 20
5136569.94092454
  0
LWPOLYLINE
  5
20086
  8
0
100
AcDbEntity
100
AcDbPolyline
 70
0
 90
5
 10
-9756233.22943686
 20
5136572.30487875
 10
-9756212.58499223
 20
5136572.4596702
 10
-9756212.51064967
 20
5136562.46886664
 10
-9756233.15507281
 20
5136562.31407571
 10
-9756233.22943686
 20
5136572.30487875
  0
LWPOLYLINE
  5
20087
  8
0
100
AcDbEntity
100
AcDbPolyline
 70
0
 90
5
 10
-9756580.83099638
 20
5136564.88119888
 10
-9756580.89741948
 20
5136573.76190909
 10
-9756555.09187543
 20
5136573.95633324
 10
-9756555.0254762
 20
5136565.07562245
 10
-9756580.83099638
 20
5136564.88119888
  0
LWPOLYLINE
  5
20088
  8
0
100
AcDbEntity
100
AcDbPolyline
 70
0
 90
5
 10
-9756313.21755045
 20
5136570.48354091
 10
-9756281.88224264
 20
5136570.71873764
 10
-9756281.81058407
 20
5136561.09796657
 10
-9756313.14586048
 20
5136560.8627706
 10
-9756313.21755045
 20
5136570.48354091
  0
LWPOLYLINE
  5
20089
  8
0
100
AcDbEntity
100
AcDbPolyline
 70
0
 90
5
 10
-9756270.44387498
 20
5136569.43537927
 10
-9756262.33356054
 20
5136569.49622717
 10
-9756262.2701876
 20
5136560.98554537
 10
-9756270.38049486
 20
5136560.92469764
 10
-9756270.44387498
 20
5136569.43537927
  0
LWPOLYLINE
  5
2008A
  8
0
100
AcDbEntity
100
AcDbPolyline
 70
0
 90
5
 10
-9756407.57913302
 20
5136568.03542156
 10
-9756398.36287016
 20
5136568.10469902
 10
-9756398.29661605
 20
5136559.22399115
 10
-9756407.51287038
 20
5136559.1547139
 10
-9756407.57913302
 20
5136568.03542156
  0
LWPOLYLINE
  5
2008B
  8
0
100
AcDbEntity
100
AcDbPolyline
 70
0
 90
5
 10
-9756446.65912385
 20
5136568.14861871
 10
-9756416.42978259
 20
5136568.37593944
 10
-9756416.37179559
 20
5136560.60531964
 10
-9756446.60111239
 20
5136560.3779995
 10
-9756446.65912385
 20
5136568.14861871
  0
LWPOLYLINE
  5
2008C
  8
0
100
AcDbEntity
100
AcDbPolyline
 70
0
 90
6
 10
-9756719.53206272
 20
5136571.70122502
 10
-9756686.10008831
 20
5136571.95358135
 10
-9756686.0250564
 20
5136561.9365576
 10
-9756719.45699592
 20
5136561.68420212
 10
-9756719.52830937
 20
5136571.20037363
 10
-9756719.53206272
 20
5136571.70122502
  0
LWPOLYLINE
  5
2008D
  8
0
100
AcDbEntity
100
AcDbPolyline
 70
0
 90
5
 10
-9756373.63596421
 20
5136564.62702542
 10
-9756343.40663014
 20
5136564.85411425
 10
-9756343.34870231
 20
5136557.08349628
 10
-9756373.57801191
 20
5136556.85640805
 10
-9756373.63596421
 20
5136564.62702542
  0
LWPOLYLINE
  5
2008E
  8
0
100
AcDbEntity
100
AcDbPolyline
 70
0
 90
5
 10
-9756389.1162445
 20
5136564.10364201
 10
-9756379.89998511
 20
5136564.17290154
 10
-9756379.83374814
 20
5136555.29219699
 10
-9756389.049999
 20
5136555.22293767
 10
-9756389.1162445
 20
5136564.10364201
  0
LWPOLYLINE
  5
2008F
  8
0
100
AcDbEntity
100
AcDbPolyline
 70
0
 90
5
 10
-9756525.88550835
 20
5136563.0747828
 10
-9756516.66925217
 20
5136563.14417462
 10
-9756516.60288867
 20
5136554.26347316
 10
-9756525.81913632
 20
5136554.19408154
 10
-9756525.88550835
 20
5136563.0747828
  0
LWPOLYLINE
  5
20090
  8
0
100
AcDbEntity
100
AcDbPolyline
 70
0
 90
5
 10
-9756504.51512889
 20
5136564.75287888
 10
-9756479.81555661
 20
5136564.93877357
 10
-9756479.75475462
 20
5136556.79812821
 10
-9756504.45430596
 20
5136556.61223403
 10
-9756504.51512889
 20
5136564.75287888
  0
LWPOLYLINE
  5
20091
  8
0
100
AcDbEntity
100
AcDbPolyline
 70
0
 90
5
 10
-9756252.67150395
 20
5136559.20730015
 10
-9756244.56119789
 20
5136559.26813278
 10
-9756244.49784087
 20
5136550.75745971
 10
-9756252.60813974
 20
5136550.69662726
 10
-9756252.67150395
 20
5136559.20730015
  0
LWPOLYLINE
  5
20092
  8
0
100
AcDbEntity
100
AcDbPolyline
 70
0
 90
5
 10
-9756233.52096898
 20
5136561.94128164
 10
-9756212.87654665
 20
5136562.09607335
 10
-9756212.80220396
 20
5136552.10528051
 10
-9756233.44660481
 20
5136551.95048933
 10
-9756233.52096898
 20
5136561.94128164
  0
LWPOLYLINE
  5
20093
  8
0
100
AcDbEntity
100
AcDbPolyline
 70
0
 90
5
 10
-9756544.75859237
 20
5136572.55396425
 10
-9756535.5423274
 20
5136572.6233745
 10
-9756535.47594629
 20
5136563.74266463
 10
-9756544.69220273
 20
5136563.6732546
 10
-9756544.75859237
 20
5136572.55396425
  0
LWPOLYLINE
  5
20094
  8
0
100
AcDbEntity
100
AcDbPolyline
 70
0
 90
5
 10
-9756581.04822386
 20
5136563.32107357
 10
-9756557.56664249
 20
5136563.49799151
 10
-9756557.50319988
 20
5136555.01300105
 10
-9756580.9847605
 20
5136554.83608361
 10
-9756581.04822386
 20
5136563.32107357
  0
LWPOLYLINE
  5
20095
  8
0
100
AcDbEntity
100
AcDbPolyline
 70
0
 90
5
 10
-9756307.8259337
 20
5136558.34508511
 10
-9756284.34435318
 20
5136558.5213294
 10
-9756284.28115219
 20
5136550.03633921
 10
-9756307.76271195
 20
5136549.86009543
 10
-9756307.8259337
 20
5136558.34508511
  0
LWPOLYLINE
  5
20096
  8
0
100
AcDbEntity
100
AcDbPolyline
 70
0
 90
5
 10
-9756271.09299438
 20
5136557.58890101
 10
-9756262.98268996
 20
5136557.6497493
 10
-9756262.91931662
 20
5136549.13907793
 10
-9756271.02961386
 20
5136549.07822982
 10
-9756271.09299438
 20
5136557.58890101
  0
LWPOLYLINE
  5
20097
  8
0
100
AcDbEntity
100
AcDbPolyline
 70
0
 90
5
 10
-9756407.5073485
 20
5136558.4146553
 10
-9756398.29109488
 20
5136558.48393253
 10
-9756398.22484098
 20
5136549.60323349
 10
-9756407.44108608
 20
5136549.53395647
 10
-9756407.5073485
 20
5136558.4146553
  0
LWPOLYLINE
  5
20098
  8
0
100
AcDbEntity
100
AcDbPolyline
 70
0
 90
5
 10
-9756445.4841122
 20
5136558.90620054
 10
-9756420.78455239
 20
5136559.09194193
 10
-9756420.72380055
 20
5136550.95130065
 10
-9756445.42333942
 20
5136550.76555977
 10
-9756445.4841122
 20
5136558.90620054
  0
LWPOLYLINE
  5
20099
  8
0
100
AcDbEntity
100
AcDbPolyline
 70
0
 90
6
 10
-9756718.77315812
 20
5136559.62995289
 10
-9756685.34122571
 20
5136559.88230586
 10
-9756685.2661948
 20
5136549.86529459
 10
-9756718.69809232
 20
5136549.61294249
 10
-9756718.76940482
 20
5136559.12910213
 10
-9756718.77315812
 20
5136559.62995289
  0
LWPOLYLINE
  5
2009A
  8
0
100
AcDbEntity
100
AcDbPolyline
 70
0
 90
5
 10
-9756389.7790183
 20
5136554.10730907
 10
-9756380.56276852
 20
5136554.17656908
 10
-9756380.49653109
 20
5136545.29587372
 10
-9756389.71277234
 20
5136545.22661392
 10
-9756389.7790183
 20
5136554.10730907
  0
LWPOLYLINE
  5
2009B
  8
0
100
AcDbEntity
100
AcDbPolyline
 70
0
 90
5
 10
-9756370.6150135
 20
5136555.02842113
 10
-9756345.91546041
 20
5136555.21396824
 10
-9756345.85477213
 20
5136547.07332914
 10
-9756370.55430427
 20
5136546.88778255
 10
-9756370.6150135
 20
5136555.02842113
  0
LWPOLYLINE
  5
2009C
  8
0
100
AcDbEntity
100
AcDbPolyline
 70
0
 90
5
 10
-9756525.44218997
 20
5136553.08677029
 10
-9756516.22594338
 20
5136553.15616153
 10
-9756516.15958044
 20
5136544.27546923
 10
-9756525.3758185
 20
5136544.20607821
 10
-9756525.44218997
 20
5136553.08677029
  0
LWPOLYLINE
  5
2009D
  8
0
100
AcDbEntity
100
AcDbPolyline
 70
0
 90
5
 10
-9756506.66067648
 20
5136555.85552539
 10
-9756482.69842719
 20
5136556.03587693
 10
-9756482.62656757
 20
5136546.41512388
 10
-9756506.58879285
 20
5136546.23477292
 10
-9756506.66067648
 20
5136555.85552539
  0
LWPOLYLINE
  5
2009E
  8
0
100
AcDbEntity
100
AcDbPolyline
 70
0
 90
5
 10
-9756252.60262982
 20
5136549.9565691
 10
-9756244.49233157
 20
5136550.01740154
 10
-9756244.42897475
 20
5136541.50673661
 10
-9756252.5392658
 20
5136541.44590435
 10
-9756252.60262982
 20
5136549.9565691
  0
LWPOLYLINE
  5
2009F
  8
0
100
AcDbEntity
100
AcDbPolyline
 70
0
 90
5
 10
-9756233.81002177
 20
5136551.24466943
 10
-9756208.37317245
 20
5136551.43538882
 10
-9756208.30434114
 20
5136542.18466448
 10
-9756233.74116593
 20
5136541.99394568
 10
-9756233.81002177
 20
5136551.24466943
  0
LWPOLYLINE
  5
200A0
  8
0
100
AcDbEntity
100
AcDbPolyline
 70
0
 90
5
 10
-9756583.6919079
 20
5136553.05504333
 10
-9756565.6280663
 20
5136553.19115221
 10
-9756565.5671917
 20
5136545.05051798
 10
-9756583.63101798
 20
5136544.91440946
 10
-9756583.6919079
 20
5136553.05504333
  0
LWPOLYLINE
  5
200A1
  8
0
100
AcDbEntity
100
AcDbPolyline
 70
0
 90
5
 10
-9756636.78538306
 20
5136550.73021193
 10
-9756613.92910145
 20
5136550.90255287
 10
-9756613.86818592
 20
5136542.76192134
 10
-9756636.72444814
 20
5136542.58958087
 10
-9756636.78538306
 20
5136550.73021193
  0
LWPOLYLINE
  5
200A2
  8
0
100
AcDbEntity
100
AcDbPolyline
 70
0
 90
5
 10
-9756311.93789122
 20
5136547.17999365
 10
-9756282.81455821
 20
5136547.39858654
 10
-9756282.75392356
 20
5136539.25795312
 10
-9756311.87723187
 20
5136539.03936084
 10
-9756311.93789122
 20
5136547.17999365
  0
LWPOLYLINE
  5
200A3
  8
0
100
AcDbEntity
100
AcDbPolyline
 70
0
 90
5
 10
-9756271.01859118
 20
5136547.59811385
 10
-9756262.90829519
 20
5136547.65896193
 10
-9756262.84492207
 20
5136539.14829935
 10
-9756270.95521087
 20
5136539.08745145
 10
-9756271.01859118
 20
5136547.59811385
  0
LWPOLYLINE
  5
200A4
  8
0
100
AcDbEntity
100
AcDbPolyline
 70
0
 90
5
 10
-9756445.03259056
 20
5136547.80810118
 10
-9756420.33305929
 20
5136547.99384092
 10
-9756420.27230799
 20
5136539.85320897
 10
-9756444.97181831
 20
5136539.66746975
 10
-9756445.03259056
 20
5136547.80810118
  0
LWPOLYLINE
  5
200A5
  8
0
100
AcDbEntity
100
AcDbPolyline
 70
0
 90
5
 10
-9756388.21333209
 20
5136541.90743749
 10
-9756378.997094
 20
5136541.97669579
 10
-9756378.93085821
 20
5136533.09601161
 10
-9756388.14708777
 20
5136533.02675352
 10
-9756388.21333209
 20
5136541.90743749
  0
LWPOLYLINE
  5
200A6
  8
0
100
AcDbEntity
100
AcDbPolyline
 70
0
 90
5
 10
-9756369.79768849
 20
5136544.30312043
 10
-9756345.83546226
 20
5136544.48312724
 10
-9756345.76374002
 20
5136534.86238335
 10
-9756369.72594224
 20
5136534.68237712
 10
-9756369.79768849
 20
5136544.30312043
  0
LWPOLYLINE
  5
200A7
  8
0
100
AcDbEntity
100
AcDbPolyline
 70
0
 90
5
 10
-9756525.36752209
 20
5136543.09599227
 10
-9756516.15128509
 20
5136543.16538327
 10
-9756516.08492237
 20
5136534.28470014
 10
-9756525.30115085
 20
5136534.21530936
 10
-9756525.36752209
 20
5136543.09599227
  0
LWPOLYLINE
  5
200A8
  8
0
100
AcDbEntity
100
AcDbPolyline
 70
0
 90
5
 10
-9756505.77380508
 20
5136535.84252058
 10
-9756505.84015827
 20
5136544.72320529
 10
-9756480.03468887
 20
5136544.91742481
 10
-9756479.96835955
 20
5136536.03673951
 10
-9756505.77380508
 20
5136535.84252058
  0
LWPOLYLINE
  5
200A9
  8
0
100
AcDbEntity
100
AcDbPolyline
 70
0
 90
5
 10
-9756252.53100094
 20
5136540.33581819
 10
-9756244.42071083
 20
5136540.39665043
 10
-9756244.35735421
 20
5136531.88599396
 10
-9756252.46763713
 20
5136531.8251619
 10
-9756252.53100094
 20
5136540.33581819
  0
LWPOLYLINE
  5
200AA
  8
0
100
AcDbEntity
100
AcDbPolyline
 70
0
 90
5
 10
-9756231.15786444
 20
5136541.64326829
 10
-9756208.67023752
 20
5136541.81187214
 10
-9756208.60140608
 20
5136532.56115701
 10
-9756231.08901132
 20
5136532.39255369
 10
-9756231.15786444
 20
5136541.64326829
  0
LWPOLYLINE
  5
200AB
  8
0
100
AcDbEntity
100
AcDbPolyline
 70
0
 90
5
 10
-9756584.95114837
 20
5136542.93892156
 10
-9756561.46961703
 20
5136543.11584829
 10
-9756561.40617127
 20
5136534.63087577
 10
-9756584.88768186
 20
5136534.45394955
 10
-9756584.95114837
 20
5136542.93892156
  0
LWPOLYLINE
  5
200AC
  8
0
100
AcDbEntity
100
AcDbPolyline
 70
0
 90
5
 10
-9756656.60353179
 20
5136538.70214598
 10
-9756645.91270433
 20
5136538.78278591
 10
-9756645.85453195
 20
5136531.0121931
 10
-9756656.54535075
 20
5136530.93155339
 10
-9756656.60353179
 20
5136538.70214598
  0
LWPOLYLINE
  5
200AD
  8
0
100
AcDbEntity
100
AcDbPolyline
 70
0
 90
5
 10
-9756639.65176114
 20
5136539.64411449
 10
-9756610.89711742
 20
5136539.8609297
 10
-9756610.83343585
 20
5136531.35027929
 10
-9756639.58805408
 20
5136531.1334647
 10
-9756639.65176114
 20
5136539.64411449
  0
LWPOLYLINE
  5
200AE
  8
0
100
AcDbEntity
100
AcDbPolyline
 70
0
 90
5
 10
-9756407.05310987
 20
5136546.94652543
 10
-9756397.83686725
 20
5136547.01580203
 10
-9756397.77061395
 20
5136538.13511352
 10
-9756406.98684805
 20
5136538.06583712
 10
-9756407.05310987
 20
5136546.94652543
  0
LWPOLYLINE
  5
200AF
  8
0
100
AcDbEntity
100
AcDbPolyline
 70
0
 90
5
 10
-9756445.32665579
 20
5136537.81455448
 10
-9756420.62715025
 20
5136538.00029455
 10
-9756420.56639885
 20
5136529.85967101
 10
-9756445.26588344
 20
5136529.67393146
 10
-9756445.32665579
 20
5136537.81455448
  0
LWPOLYLINE
  5
200B0
  8
0
100
AcDbEntity
100
AcDbPolyline
 70
0
 90
6
 10
-9756721.3060012
 20
5136540.82441217
 10
-9756687.87413445
 20
5136541.07677292
 10
-9756687.79910122
 20
5136531.05978118
 10
-9756721.23093309
 20
5136530.80742129
 10
-9756721.30224779
 20
5136540.32356238
 10
-9756721.3060012
 20
5136540.82441217
  0
LWPOLYLINE
  5
200B1
  8
0
100
AcDbEntity
100
AcDbPolyline
 70
0
 90
5
 10
-9756311.86896015
 20
5136537.92927507
 10
-9756282.74565521
 20
5136538.14786728
 10
-9756282.68502075
 20
5136530.00724164
 10
-9756311.80830099
 20
5136529.78865004
 10
-9756311.86896015
 20
5136537.92927507
  0
LWPOLYLINE
  5
200B2
  8
0
100
AcDbEntity
100
AcDbPolyline
 70
0
 90
5
 10
-9756270.5700275
 20
5136536.87004584
 10
-9756262.45974058
 20
5136536.93089339
 10
-9756262.39636801
 20
5136528.42024025
 10
-9756270.50664775
 20
5136528.35939288
 10
-9756270.5700275
 20
5136536.87004584
  0
LWPOLYLINE
  5
200B3
  8
0
100
AcDbEntity
100
AcDbPolyline
 70
0
 90
5
 10
-9756505.75749328
 20
5136533.6593535
 10
-9756481.05800106
 20
5136533.84525006
 10
-9756480.99719847
 20
5136525.7046309
 10
-9756505.69666974
 20
5136525.51873485
 10
-9756505.75749328
 20
5136533.6593535
  0
LWPOLYLINE
  5
200B4
  8
0
100
AcDbEntity
100
AcDbPolyline
 70
0
 90
5
 10
-9756252.82526652
 20
5136530.34228327
 10
-9756244.71498485
 20
5136530.40311562
 10
-9756244.65162812
 20
5136521.89246796
 10
-9756252.7619026
 20
5136521.83163578
 10
-9756252.82526652
 20
5136530.34228327
  0
LWPOLYLINE
  5
200B5
  8
0
100
AcDbEntity
100
AcDbPolyline
 70
0
 90
5
 10
-9756231.08074896
 20
5136531.28246853
 10
-9756208.59314632
 20
5136531.45107179
 10
-9756208.53532809
 20
5136523.68047881
 10
-9756231.02291253
 20
5136523.511876
 10
-9756231.08074896
 20
5136531.28246853
  0
LWPOLYLINE
  5
200B6
  8
0
100
AcDbEntity
100
AcDbPolyline
 70
0
 90
5
 10
-9756542.99077661
 20
5136533.34199753
 10
-9756533.77454926
 20
5136533.41140542
 10
-9756533.7081704
 20
5136524.53073154
 10
-9756542.92438922
 20
5136524.46132385
 10
-9756542.99077661
 20
5136533.34199753
  0
LWPOLYLINE
  5
200B7
  8
0
100
AcDbEntity
100
AcDbPolyline
 70
0
 90
5
 10
-9756583.91110017
 20
5136533.07072165
 10
-9756565.84729619
 20
5136533.20683031
 10
-9756565.78642169
 20
5136525.0662129
 10
-9756583.85021035
 20
5136524.93010461
 10
-9756583.91110017
 20
5136533.07072165
  0
LWPOLYLINE
  5
200B8
  8
0
100
AcDbEntity
100
AcDbPolyline
 70
0
 90
5
 10
-9756655.80251193
 20
5136530.19705902
 10
-9756646.58628953
 20
5136530.266576
 10
-9756646.51980634
 20
5136521.38590686
 10
-9756655.73602021
 20
5136521.31639009
 10
-9756655.80251193
 20
5136530.19705902
  0
LWPOLYLINE
  5
200B9
  8
0
100
AcDbEntity
100
AcDbPolyline
 70
0
 90
5
 10
-9756639.94008373
 20
5136528.91051619
 10
-9756611.18547218
 20
5136529.12733173
 10
-9756611.12179052
 20
5136520.61669078
 10
-9756639.87637657
 20
5136520.39987586
 10
-9756639.94008373
 20
5136528.91051619
  0
LWPOLYLINE
  5
200BA
  8
0
100
AcDbEntity
100
AcDbPolyline
 70
0
 90
5
 10
-9756312.53181291
 20
5136527.93297383
 10
-9756283.40853833
 20
5136528.15156754
 10
-9756283.34790345
 20
5136520.01095034
 10
-9756312.47115333
 20
5136519.79235722
 10
-9756312.53181291
 20
5136527.93297383
  0
LWPOLYLINE
  5
200BB
  8
0
100
AcDbEntity
100
AcDbPolyline
 70
0
 90
5
 10
-9756446.35249355
 20
5136527.07541647
 10
-9756421.6530157
 20
5136527.26115874
 10
-9756421.59226358
 20
5136519.12054426
 10
-9756446.29172049
 20
5136518.93480251
 10
-9756446.35249355
 20
5136527.07541647
  0
LWPOLYLINE
  5
200BC
  8
0
100
AcDbEntity
100
AcDbPolyline
 70
0
 90
6
 10
-9756716.42760295
 20
5136529.38972124
 10
-9756682.99577574
 20
5136529.64206418
 10
-9756682.92074781
 20
5136519.6250842
 10
-9756716.35254014
 20
5136519.37274211
 10
-9756716.4238498
 20
5136528.88887204
 10
-9756716.42760295
 20
5136529.38972124
  0
LWPOLYLINE
  5
200BD
  8
0
100
AcDbEntity
100
AcDbPolyline
 70
0
 90
5
 10
-9756346.423247
 20
5136524.42204961
 10
-9756339.05026943
 20
5136524.47742439
 10
-9756338.98958741
 20
5136516.33681107
 10
-9756346.36255872
 20
5136516.28143644
 10
-9756346.423247
 20
5136524.42204961
  0
LWPOLYLINE
  5
200BE
  8
0
100
AcDbEntity
100
AcDbPolyline
 70
0
 90
5
 10
-9756354.53352216
 20
5136524.36113076
 10
-9756348.63514024
 20
5136524.40543606
 10
-9756348.56341554
 20
5136514.7847122
 10
-9756354.46179154
 20
5136514.74040704
 10
-9756354.53352216
 20
5136524.36113076
  0
LWPOLYLINE
  5
200BF
  8
0
100
AcDbEntity
100
AcDbPolyline
 70
0
 90
5
 10
-9756368.91938194
 20
5136525.40020817
 10
-9756360.80910611
 20
5136525.46113928
 10
-9756360.74840562
 20
5136517.32052545
 10
-9756368.85867458
 20
5136517.2595945
 10
-9756368.91938194
 20
5136525.40020817
  0
LWPOLYLINE
  5
200C0
  8
0
100
AcDbEntity
100
AcDbPolyline
 70
0
 90
5
 10
-9756388.81538113
 20
5136523.77050871
 10
-9756380.33645813
 20
5136523.83422693
 10
-9756380.28678054
 20
5136517.17372554
 10
-9756388.76569767
 20
5136517.11000746
 10
-9756388.81538113
 20
5136523.77050871
  0
LWPOLYLINE
  5
200C1
  8
0
100
AcDbEntity
100
AcDbPolyline
 70
0
 90
5
 10
-9756504.80215655
 20
5136523.18988402
 10
-9756481.32067019
 20
5136523.36661237
 10
-9756481.25729558
 20
5136514.88165597
 10
-9756504.73876118
 20
5136514.70492812
 10
-9756504.80215655
 20
5136523.18988402
  0
LWPOLYLINE
  5
200C2
  8
0
100
AcDbEntity
100
AcDbPolyline
 70
0
 90
5
 10
-9756252.37672416
 20
5136519.61423335
 10
-9756244.26645155
 20
5136519.67506517
 10
-9756244.20309538
 20
5136511.16442694
 10
-9756252.3133608
 20
5136511.1035953
 10
-9756252.37672416
 20
5136519.61423335
  0
LWPOLYLINE
  5
200C3
  8
0
100
AcDbEntity
100
AcDbPolyline
 70
0
 90
5
 10
-9756231.38054494
 20
5136522.02899942
 10
-9756205.20647519
 20
5136522.22523789
 10
-9756205.1404005
 20
5136513.34456913
 10
-9756231.31444604
 20
5136513.14833125
 10
-9756231.38054494
 20
5136522.02899942
  0
LWPOLYLINE
  5
200C4
  8
0
100
AcDbEntity
100
AcDbPolyline
 70
0
 90
5
 10
-9756583.84218398
 20
5136523.85702379
 10
-9756555.08758444
 20
5136524.07366975
 10
-9756555.02395259
 20
5136515.56303232
 10
-9756583.77852664
 20
5136515.34638698
 10
-9756583.84218398
 20
5136523.85702379
  0
LWPOLYLINE
  5
200C5
  8
0
100
AcDbEntity
100
AcDbPolyline
 70
0
 90
5
 10
-9756542.90530288
 20
5136521.90813168
 10
-9756533.68908651
 20
5136521.9775393
 10
-9756533.63100521
 20
5136514.20695839
 10
-9756542.84721412
 20
5136514.13755095
 10
-9756542.90530288
 20
5136521.90813168
  0
LWPOLYLINE
  5
200C6
  8
0
100
AcDbEntity
100
AcDbPolyline
 70
0
 90
5
 10
-9756630.65157782
 20
5136519.32229151
 10
-9756612.58780138
 20
5136519.45848836
 10
-9756612.52688743
 20
5136511.31788328
 10
-9756630.59064855
 20
5136511.1816868
 10
-9756630.65157782
 20
5136519.32229151
  0
LWPOLYLINE
  5
200C7
  8
0
100
AcDbEntity
100
AcDbPolyline
 70
0
 90
5
 10
-9756445.54337377
 20
5136517.46023707
 10
-9756423.79310914
 20
5136517.6238023
 10
-9756423.72407075
 20
5136508.37311382
 10
-9756445.47431443
 20
5136508.2095491
 10
-9756445.54337377
 20
5136517.46023707
  0
LWPOLYLINE
  5
200C8
  8
0
100
AcDbEntity
100
AcDbPolyline
 70
0
 90
5
 10
-9756309.87131225
 20
5136517.22153505
 10
-9756285.90915109
 20
5136517.40138999
 10
-9756285.84575803
 20
5136508.89075438
 10
-9756309.80789794
 20
5136508.71089996
 10
-9756309.87131225
 20
5136517.22153505
  0
LWPOLYLINE
  5
200C9
  8
0
100
AcDbEntity
100
AcDbPolyline
 70
0
 90
5
 10
-9756270.85325162
 20
5136525.39640156
 10
-9756262.74297439
 20
5136525.45724919
 10
-9756262.67960175
 20
5136516.94660615
 10
-9756270.78987179
 20
5136516.88575869
 10
-9756270.85325162
 20
5136525.39640156
  0
LWPOLYLINE
  5
200CA
  8
0
100
AcDbEntity
100
AcDbPolyline
 70
0
 90
5
 10
-9756271.15025346
 20
5136515.77290944
 10
-9756263.03998437
 20
5136515.83375718
 10
-9756262.9766116
 20
5136507.32312261
 10
-9756271.08687351
 20
5136507.26227505
 10
-9756271.15025346
 20
5136515.77290944
  0
LWPOLYLINE
  5
200CB
  8
0
100
AcDbEntity
100
AcDbPolyline
 70
0
 90
5
 10
-9756316.7301297
 20
5136695.5350512
 10
-9756288.34365776
 20
5136695.74813286
 10
-9756288.26923419
 20
5136685.75720326
 10
-9756316.65567658
 20
5136685.54412232
 10
-9756316.7301297
 20
5136695.5350512
  0
LWPOLYLINE
  5
200CC
  8
0
100
AcDbEntity
100
AcDbPolyline
 70
0
 90
5
 10
-9756276.15404943
 20
5136692.62012692
 10
-9756268.04363097
 20
5136692.68098143
 10
-9756267.98025114
 20
5136684.1701913
 10
-9756276.09066241
 20
5136684.10933696
 10
-9756276.15404943
 20
5136692.62012692
  0
LWPOLYLINE
  5
200CD
  8
0
100
AcDbEntity
100
AcDbPolyline
 70
0
 90
5
 10
-9756276.15404943
 20
5136692.62012692
 10
-9756268.04363097
 20
5136692.68098143
 10
-9756267.98025114
 20
5136684.1701913
 10
-9756276.09066241
 20
5136684.10933696
 10
-9756276.15404943
 20
5136692.62012692
  0
LWPOLYLINE
  5
200CE
  8
0
100
AcDbEntity
100
AcDbPolyline
 70
0
 90
5
 10
-9756315.53592396
 20
5136683.70225487
 10
-9756290.09872726
 20
5136683.8931984
 10
-9756290.02154558
 20
5136673.53224731
 10
-9756315.45871482
 20
5136673.34130445
 10
-9756315.53592396
 20
5136683.70225487
  0
LWPOLYLINE
  5
200CF
  8
0
100
AcDbEntity
100
AcDbPolyline
 70
0
 90
5
 10
-9756274.22809597
 20
5136681.53292915
 10
-9756266.11768685
 20
5136681.59378187
 10
-9756266.05430889
 20
5136673.08300147
 10
-9756274.16471082
 20
5136673.02214893
 10
-9756274.22809597
 20
5136681.53292915
  0
LWPOLYLINE
  5
200D0
  8
0
100
AcDbEntity
100
AcDbPolyline
 70
0
 90
5
 10
-9756315.43665512
 20
5136670.38103494
 10
-9756286.31294846
 20
5136670.59964482
 10
-9756286.25230909
 20
5136662.45890774
 10
-9756315.37599105
 20
5136662.24029846
 10
-9756315.43665512
 20
5136670.38103494
  0
LWPOLYLINE
  5
200D1
  8
0
100
AcDbEntity
100
AcDbPolyline
 70
0
 90
5
 10
-9756274.14266386
 20
5136670.06187929
 10
-9756266.03226443
 20
5136670.12273178
 10
-9756265.96888672
 20
5136661.61196147
 10
-9756274.07927895
 20
5136661.55110916
 10
-9756274.14266386
 20
5136670.06187929
  0
LWPOLYLINE
  5
200D2
  8
0
100
AcDbEntity
100
AcDbPolyline
 70
0
 90
5
 10
-9756314.25624143
 20
5136660.39843527
 10
-9756279.97416301
 20
5136661.0258053
 10
-9756279.9217974
 20
5136653.99517521
 10
-9756314.20660811
 20
5136653.73783905
 10
-9756314.25624143
 20
5136660.39843527
  0
LWPOLYLINE
  5
200D3
  8
0
100
AcDbEntity
100
AcDbPolyline
 70
0
 90
5
 10
-9756311.60397265
 20
5136650.79694919
 10
-9756284.69224788
 20
5136650.99894716
 10
-9756284.62885391
 20
5136642.48819397
 10
-9756311.54055482
 20
5136642.28619657
 10
-9756311.60397265
 20
5136650.79694919
  0
LWPOLYLINE
  5
200D4
  8
0
100
AcDbEntity
100
AcDbPolyline
 70
0
 90
5
 10
-9756272.51372083
 20
5136649.35108179
 10
-9756264.40333889
 20
5136649.41193259
 10
-9756264.33996293
 20
5136640.90118049
 10
-9756272.45033769
 20
5136640.84032986
 10
-9756272.51372083
 20
5136649.35108179
  0
LWPOLYLINE
  5
200D5
  8
0
100
AcDbEntity
100
AcDbPolyline
 70
0
 90
5
 10
-9756311.16087228
 20
5136640.80883405
 10
-9756279.82533475
 20
5136641.04402789
 10
-9756279.75367706
 20
5136631.42318682
 10
-9756311.08918318
 20
5136631.18799374
 10
-9756311.16087228
 20
5136640.80883405
  0
LWPOLYLINE
  5
200D6
  8
0
100
AcDbEntity
100
AcDbPolyline
 70
0
 90
5
 10
-9756582.34048572
 20
5136668.11440243
 10
-9756582.40691182
 20
5136676.99520741
 10
-9756556.60109027
 20
5136677.18964035
 10
-9756556.53468805
 20
5136668.30883478
 10
-9756582.34048572
 20
5136668.11440243
  0
LWPOLYLINE
  5
200D7
  8
0
100
AcDbEntity
100
AcDbPolyline
 70
0
 90
5
 10
-9756666.66004664
 20
5136916.93741501
 10
-9756656.37439467
 20
5136917.01501354
 10
-9756656.30508793
 20
5136907.75890269
 10
-9756666.59072997
 20
5136907.6813044
 10
-9756666.66004664
 20
5136916.93741501
  0
LWPOLYLINE
  5
200D8
  8
0
100
AcDbEntity
100
AcDbPolyline
 70
0
 90
5
 10
-9756641.84060573
 20
5136918.19271627
 10
-9756618.78655383
 20
5136918.36656855
 10
-9756618.71461906
 20
5136908.75445162
 10
-9756641.76864788
 20
5136908.5805999
 10
-9756641.84060573
 20
5136918.19271627
  0
LWPOLYLINE
  5
200D9
  8
0
100
AcDbEntity
100
AcDbPolyline
 70
0
 90
11
 10
-9756722.95410792
 20
5136917.52885432
 10
-9756684.4234954
 20
5136917.81971326
 10
-9756684.35107119
 20
5136908.15103074
 10
-9756678.42329028
 20
5136908.19576429
 10
-9756678.13361968
 20
5136869.52113027
 10
-9756684.0613767
 20
5136869.4763973
 10
-9756683.80511166
 20
5136835.26435049
 10
-9756729.00409492
 20
5136834.92314428
 10
-9756729.51137558
 20
5136902.60360706
 10
-9756722.84262644
 20
5136902.65396359
 10
-9756722.95410792
 20
5136917.52885432
  0
LWPOLYLINE
  5
200DA
  8
0
100
AcDbEntity
100
AcDbPolyline
 70
0
 90
5
 10
-9756533.23736189
 20
5136909.39855344
 10
-9756487.48396762
 20
5136909.74300652
 10
-9756487.41748324
 20
5136900.8429038
 10
-9756533.17083509
 20
5136900.49845175
 10
-9756533.23736189
 20
5136909.39855344
  0
LWPOLYLINE
  5
200DB
  8
0
100
AcDbEntity
100
AcDbPolyline
 70
0
 90
5
 10
-9756667.64942977
 20
5136906.96126822
 10
-9756657.00911123
 20
5136907.04154328
 10
-9756656.94246969
 20
5136898.14144571
 10
-9756667.58277836
 20
5136898.06117089
 10
-9756667.64942977
 20
5136906.96126822
  0
LWPOLYLINE
  5
200DC
  8
0
100
AcDbEntity
100
AcDbPolyline
 70
0
 90
5
 10
-9756640.33927826
 20
5136907.16728365
 10
-9756619.76799405
 20
5136907.32241242
 10
-9756619.69339421
 20
5136897.35430275
 10
-9756640.26465706
 20
5136897.1991745
 10
-9756640.33927826
 20
5136907.16728365
  0
LWPOLYLINE
  5
200DD
  8
0
100
AcDbEntity
100
AcDbPolyline
 70
0
 90
5
 10
-9756508.33811523
 20
5136899.97338316
 10
-9756488.47619591
 20
5136900.12288792
 10
-9756488.40439196
 20
5136890.51078692
 10
-9756508.26629139
 20
5136890.36128264
 10
-9756508.33811523
 20
5136899.97338316
  0
LWPOLYLINE
  5
200DE
  8
0
100
AcDbEntity
100
AcDbPolyline
 70
0
 90
5
 10
-9756585.64973107
 20
5136898.32297669
 10
-9756556.92089204
 20
5136898.53944436
 10
-9756556.85434344
 20
5136889.63935304
 10
-9756585.58315584
 20
5136889.42288602
 10
-9756585.64973107
 20
5136898.32297669
  0
LWPOLYLINE
  5
200DF
  8
0
100
AcDbEntity
100
AcDbPolyline
 70
0
 90
5
 10
-9756553.72879868
 20
5136898.56349097
 10
-9756540.25107088
 20
5136898.66500933
 10
-9756540.18453775
 20
5136889.76491764
 10
-9756553.66225304
 20
5136889.66339958
 10
-9756553.72879868
 20
5136898.56349097
  0
LWPOLYLINE
  5
200E0
  8
0
100
AcDbEntity
100
AcDbPolyline
 70
0
 90
5
 10
-9756666.86276036
 20
5136896.6425081
 10
-9756650.90229957
 20
5136896.76291463
 10
-9756650.83566386
 20
5136887.86282642
 10
-9756666.79610984
 20
5136887.74242026
 10
-9756666.86276036
 20
5136896.6425081
  0
LWPOLYLINE
  5
200E1
  8
0
100
AcDbEntity
100
AcDbPolyline
 70
0
 90
5
 10
-9756645.22746892
 20
5136896.8057194
 10
-9756623.59217628
 20
5136896.96888156
 10
-9756623.52823029
 20
5136888.42479613
 10
-9756645.16350368
 20
5136888.26163444
 10
-9756645.22746892
 20
5136896.8057194
  0
LWPOLYLINE
  5
200E2
  8
0
100
AcDbEntity
100
AcDbPolyline
 70
0
 90
5
 10
-9756514.64249201
 20
5136889.24520833
 10
-9756488.39641376
 20
5136889.44277628
 10
-9756488.33258825
 20
5136880.89869546
 10
-9756514.57864313
 20
5136880.70112808
 10
-9756514.64249201
 20
5136889.24520833
  0
LWPOLYLINE
  5
200E3
  8
0
100
AcDbEntity
100
AcDbPolyline
 70
0
 90
5
 10
-9756589.83128653
 20
5136888.32279915
 10
-9756563.58521429
 20
5136888.52057421
 10
-9756563.52132186
 20
5136879.97649535
 10
-9756589.76737073
 20
5136879.77872085
 10
-9756589.83128653
 20
5136888.32279915
  0
LWPOLYLINE
  5
200E4
  8
0
100
AcDbEntity
100
AcDbPolyline
 70
0
 90
5
 10
-9756550.10750084
 20
5136888.62210628
 10
-9756540.53123047
 20
5136888.6942359
 10
-9756540.46469723
 20
5136879.79415339
 10
-9756550.04095872
 20
5136879.72202399
 10
-9756550.10750084
 20
5136888.62210628
  0
LWPOLYLINE
  5
200E5
  8
0
100
AcDbEntity
100
AcDbPolyline
 70
0
 90
5
 10
-9756649.05428485
 20
5136886.8081932
 10
-9756622.80821951
 20
5136887.00613136
 10
-9756622.74427437
 20
5136878.46205472
 10
-9756648.99031636
 20
5136878.26411714
 10
-9756649.05428485
 20
5136886.8081932
  0
LWPOLYLINE
  5
200E6
  8
0
100
AcDbEntity
100
AcDbPolyline
 70
0
 90
5
 10
-9756532.30181891
 20
5136879.1435831
 10
-9756521.30685232
 20
5136879.22637704
 10
-9756521.24033705
 20
5136870.32630294
 10
-9756532.23529345
 20
5136870.24350925
 10
-9756532.30181891
 20
5136879.1435831
  0
LWPOLYLINE
  5
200E7
  8
0
100
AcDbEntity
100
AcDbPolyline
 70
0
 90
5
 10
-9756553.93175122
 20
5136878.26862278
 10
-9756539.74469932
 20
5136878.37548348
 10
-9756539.68082826
 20
5136869.83141322
 10
-9756553.86786753
 20
5136869.72455282
 10
-9756553.93175122
 20
5136878.26862278
  0
LWPOLYLINE
  5
200E8
  8
0
100
AcDbEntity
100
AcDbPolyline
 70
0
 90
5
 10
-9756589.04470245
 20
5136878.00405169
 10
-9756555.35045638
 20
5136878.25793555
 10
-9756555.28390956
 20
5136869.35786287
 10
-9756588.97812439
 20
5136869.10397978
 10
-9756589.04470245
 20
5136878.00405169
  0
LWPOLYLINE
  5
200E9
  8
0
100
AcDbEntity
100
AcDbPolyline
 70
0
 90
5
 10
-9756641.88613132
 20
5136876.89360894
 10
-9756622.02426446
 20
5136877.04339134
 10
-9756621.96564886
 20
5136869.21132886
 10
-9756641.82749951
 20
5136869.06154686
 10
-9756641.88613132
 20
5136876.89360894
  0
LWPOLYLINE
  5
200EA
  8
0
100
AcDbEntity
100
AcDbPolyline
 70
0
 90
5
 10
-9756507.75998803
 20
5136870.07177186
 10
-9756485.06072229
 20
5136870.2426285
 10
-9756484.99424077
 20
5136861.3425621
 10
-9756507.69348547
 20
5136861.17170598
 10
-9756507.75998803
 20
5136870.07177186
  0
LWPOLYLINE
  5
200EB
  8
0
100
AcDbEntity
100
AcDbPolyline
 70
0
 90
5
 10
-9756532.22997143
 20
5136869.5315037
 10
-9756523.00839579
 20
5136869.60094441
 10
-9756522.94453976
 20
5136861.05688164
 10
-9756532.16610719
 20
5136860.98744113
 10
-9756532.22997143
 20
5136869.5315037
  0
LWPOLYLINE
  5
200EC
  8
0
100
AcDbEntity
100
AcDbPolyline
 70
0
 90
5
 10
-9756585.05272238
 20
5136865.92935896
 10
-9756565.54555205
 20
5136866.07635028
 10
-9756565.45769806
 20
5136854.32827109
 10
-9756584.96484452
 20
5136854.18128035
 10
-9756585.05272238
 20
5136865.92935896
  0
LWPOLYLINE
  5
200ED
  8
0
100
AcDbEntity
100
AcDbPolyline
 70
0
 90
5
 10
-9756647.14230736
 20
5136868.30941432
 10
-9756620.89629251
 20
5136868.50734636
 10
-9756620.83234935
 20
5136859.96328604
 10
-9756647.07834084
 20
5136859.76535458
 10
-9756647.14230736
 20
5136868.30941432
  0
LWPOLYLINE
  5
200EE
  8
0
100
AcDbEntity
100
AcDbPolyline
 70
0
 90
5
 10
-9756512.29362831
 20
5136859.71298445
 10
-9756486.04763072
 20
5136859.91054456
 10
-9756485.98380773
 20
5136851.3664898
 10
-9756512.22978197
 20
5136851.16893026
 10
-9756512.29362831
 20
5136859.71298445
  0
LWPOLYLINE
  5
200EF
  8
0
100
AcDbEntity
100
AcDbPolyline
 70
0
 90
5
 10
-9756532.15280216
 20
5136859.20742905
 10
-9756523.28591206
 20
5136859.27419889
 10
-9756523.2247166
 20
5136851.08614734
 10
-9756532.09159914
 20
5136851.01937768
 10
-9756532.15280216
 20
5136859.20742905
  0
LWPOLYLINE
  5
200F0
  8
0
100
AcDbEntity
100
AcDbPolyline
 70
0
 90
5
 10
-9756552.77456007
 20
5136865.81653853
 10
-9756541.4249333
 20
5136865.90202716
 10
-9756541.33977018
 20
5136854.50994988
 10
-9756552.68938348
 20
5136854.42446158
 10
-9756552.77456007
 20
5136865.81653853
  0
LWPOLYLINE
  5
200F1
  8
0
100
AcDbEntity
100
AcDbPolyline
 70
0
 90
5
 10
-9756639.6141643
 20
5136857.68551787
 10
-9756618.68831063
 20
5136857.84331746
 10
-9756618.61904119
 20
5136848.58726262
 10
-9756639.54487468
 20
5136848.42946352
 10
-9756639.6141643
 20
5136857.68551787
  0
LWPOLYLINE
  5
200F2
  8
0
100
AcDbEntity
100
AcDbPolyline
 70
0
 90
5
 10
-9756666.21215817
 20
5136857.12885659
 10
-9756656.99059664
 20
5136857.19842679
 10
-9756656.92129027
 20
5136847.9423732
 10
-9756666.1428429
 20
5136847.87280322
 10
-9756666.21215817
 20
5136857.12885659
  0
LWPOLYLINE
  5
200F3
  8
0
100
AcDbEntity
100
AcDbPolyline
 70
0
 90
5
 10
-9756509.02706355
 20
5136849.76895332
 10
-9756486.32784588
 20
5136849.93981217
 10
-9756486.25870421
 20
5136840.68376273
 10
-9756508.9579
 20
5136840.51290442
 10
-9756509.02706355
 20
5136849.76895332
  0
LWPOLYLINE
  5
200F4
  8
0
100
AcDbEntity
100
AcDbPolyline
 70
0
 90
5
 10
-9756551.57744627
 20
5136848.02443928
 10
-9756540.5825157
 20
5136848.10725486
 10
-9756540.51332174
 20
5136838.85120807
 10
-9756551.50824171
 20
5136838.76839274
 10
-9756551.57744627
 20
5136848.02443928
  0
LWPOLYLINE
  5
200F5
  8
0
100
AcDbEntity
100
AcDbPolyline
 70
0
 90
5
 10
-9756584.91424833
 20
5136847.41724156
 10
-9756573.20996882
 20
5136847.5054406
 10
-9756573.14873094
 20
5136839.31739973
 10
-9756584.85300047
 20
5136839.22920094
 10
-9756584.91424833
 20
5136847.41724156
  0
LWPOLYLINE
  5
200F6
  8
0
100
AcDbEntity
100
AcDbPolyline
 70
0
 90
5
 10
-9756645.21168122
 20
5136847.31865694
 10
-9756618.96572368
 20
5136847.51658269
 10
-9756618.90178256
 20
5136838.97254089
 10
-9756645.14771674
 20
5136838.77461571
 10
-9756645.21168122
 20
5136847.31865694
  0
LWPOLYLINE
  5
200F7
  8
0
100
AcDbEntity
100
AcDbPolyline
 70
0
 90
5
 10
-9756666.84152913
 20
5136846.44344388
 10
-9756655.1372525
 20
5136846.53174355
 10
-9756655.06794809
 20
5136837.27570014
 10
-9756666.77221343
 20
5136837.18740075
 10
-9756666.84152913
 20
5136846.44344388
  0
LWPOLYLINE
  5
200F8
  8
0
100
AcDbEntity
100
AcDbPolyline
 70
0
 90
5
 10
-9756506.11252052
 20
5136839.46625959
 10
-9756486.25072634
 20
5136839.6157576
 10
-9756486.17892564
 20
5136830.0037167
 10
-9756506.04069993
 20
5136829.85421917
 10
-9756506.11252052
 20
5136839.46625959
  0
LWPOLYLINE
  5
200F9
  8
0
100
AcDbEntity
100
AcDbPolyline
 70
0
 90
5
 10
-9756584.48501098
 20
5136837.45186593
 10
-9756575.26346702
 20
5136837.5213567
 10
-9756575.19423979
 20
5136828.2653206
 10
-9756584.41577485
 20
5136828.19583005
 10
-9756584.48501098
 20
5136837.45186593
  0
LWPOLYLINE
  5
200FA
  8
0
100
AcDbEntity
100
AcDbPolyline
 70
0
 90
5
 10
-9756550.79356868
 20
5136838.06173283
 10
-9756538.73462506
 20
5136838.15256095
 10
-9756538.66809427
 20
5136829.25252492
 10
-9756550.72702671
 20
5136829.16169709
 10
-9756550.79356868
 20
5136838.06173283
  0
LWPOLYLINE
  5
200FB
  8
0
100
AcDbEntity
100
AcDbPolyline
 70
0
 90
5
 10
-9756640.87562928
 20
5136836.67070744
 10
-9756616.40307427
 20
5136836.85525051
 10
-9756616.33913559
 20
5136828.31121809
 10
-9756640.81166882
 20
5136828.12667556
 10
-9756640.87562928
 20
5136836.67070744
  0
LWPOLYLINE
  5
200FC
  8
0
100
AcDbEntity
100
AcDbPolyline
 70
0
 90
5
 10
-9756666.06286403
 20
5136837.19275264
 10
-9756656.48664694
 20
5136837.26499796
 10
-9756656.42000697
 20
5136828.3649646
 10
-9756665.99621518
 20
5136828.2927195
 10
-9756666.06286403
 20
5136837.19275264
  0
LWPOLYLINE
  5
200FD
  8
0
100
AcDbEntity
100
AcDbPolyline
 70
0
 90
5
 10
-9756703.96237549
 20
5136830.14232719
 10
-9756690.48474736
 20
5136830.24405648
 10
-9756690.02871912
 20
5136769.36803978
 10
-9756703.50626178
 20
5136769.26631258
 10
-9756703.96237549
 20
5136830.14232719
  0
LWPOLYLINE
  5
200FE
  8
0
100
AcDbEntity
100
AcDbPolyline
 70
0
 90
5
 10
-9756512.41686068
 20
5136828.73815372
 10
-9756484.39757524
 20
5136828.94905872
 10
-9756484.32045816
 20
5136818.62502652
 10
-9756512.33971347
 20
5136818.41412226
 10
-9756512.41686068
 20
5136828.73815372
  0
LWPOLYLINE
  5
200FF
  8
0
100
AcDbEntity
100
AcDbPolyline
 70
0
 90
5
 10
-9756531.92661794
 20
5136828.94727374
 10
-9756522.35040681
 20
5136829.01938408
 10
-9756522.29453381
 20
5136821.54336011
 10
-9756531.87073749
 20
5136821.47124995
 10
-9756531.92661794
 20
5136828.94727374
  0
LWPOLYLINE
  5
20100
  8
0
100
AcDbEntity
100
AcDbPolyline
 70
0
 90
5
 10
-9756584.75979753
 20
5136826.76915243
 10
-9756572.70086882
 20
5136826.8600233
 10
-9756572.63430671
 20
5136817.9599982
 10
-9756584.69322424
 20
5136817.8691276
 10
-9756584.75979753
 20
5136826.76915243
  0
LWPOLYLINE
  5
20101
  8
0
100
AcDbEntity
100
AcDbPolyline
 70
0
 90
5
 10
-9756550.71638002
 20
5136827.73769212
 10
-9756537.59342605
 20
5136827.8365334
 10
-9756537.52157413
 20
5136818.22450509
 10
-9756550.64451496
 20
5136818.12566413
 10
-9756550.71638002
 20
5136827.73769212
  0
LWPOLYLINE
  5
20102
  8
0
100
AcDbEntity
100
AcDbPolyline
 70
0
 90
5
 10
-9756635.83556809
 20
5136826.74011945
 10
-9756614.55510739
 20
5136826.90058362
 10
-9756614.48051437
 20
5136816.93255675
 10
-9756635.76095297
 20
5136816.77209313
 10
-9756635.83556809
 20
5136826.74011945
  0
LWPOLYLINE
  5
20103
  8
0
100
AcDbEntity
100
AcDbPolyline
 70
0
 90
5
 10
-9756666.33489378
 20
5136826.15403684
 10
-9756656.75868771
 20
5136826.22628224
 10
-9756656.68938207
 20
5136816.9702583
 10
-9756666.26557891
 20
5136816.89801312
 10
-9756666.33489378
 20
5136826.15403684
  0
LWPOLYLINE
  5
20104
  8
0
100
AcDbEntity
100
AcDbPolyline
 70
0
 90
5
 10
-9756491.01671535
 20
5136812.87829729
 10
-9756481.79519348
 20
5136812.94769719
 10
-9756481.65692031
 20
5136794.43567784
 10
-9756490.87842439
 20
5136794.36627838
 10
-9756491.01671535
 20
5136812.87829729
  0
LWPOLYLINE
  5
20105
  8
0
100
AcDbEntity
100
AcDbPolyline
 70
0
 90
5
 10
-9756500.7933159
 20
5136792.15553067
 10
-9756491.5718141
 20
5136792.22493969
 10
-9756491.380334
 20
5136766.59297771
 10
-9756500.60181118
 20
5136766.52356929
 10
-9756500.7933159
 20
5136792.15553067
  0
LWPOLYLINE
  5
20106
  8
0
100
AcDbEntity
100
AcDbPolyline
 70
0
 90
5
 10
-9756529.90046039
 20
5136795.14056654
 10
-9756516.77755051
 20
5136795.2393784
 10
-9756516.56471999
 20
5136766.75941723
 10
-9756529.68759094
 20
5136766.66060632
 10
-9756529.90046039
 20
5136795.14056654
  0
LWPOLYLINE
  5
20107
  8
0
100
AcDbEntity
100
AcDbPolyline
 70
0
 90
5
 10
-9756539.17518889
 20
5136802.19112336
 10
-9756531.37237206
 20
5136802.24988623
 10
-9756531.09829694
 20
5136765.58192611
 10
-9756538.90108397
 20
5136765.52316396
 10
-9756539.17518889
 20
5136802.19112336
  0
LWPOLYLINE
  5
20108
  8
0
100
AcDbEntity
100
AcDbPolyline
 70
0
 90
5
 10
-9756537.82834682
 20
5136811.81382038
 10
-9756530.73486985
 20
5136811.86724055
 10
-9756530.67100781
 20
5136803.32322891
 10
-9756537.76447846
 20
5136803.2698089
 10
-9756537.82834682
 20
5136811.81382038
  0
LWPOLYLINE
  5
20109
  8
0
100
AcDbEntity
100
AcDbPolyline
 70
0
 90
5
 10
-9756548.68749503
 20
5136793.57499381
 10
-9756539.46599265
 20
5136793.64444921
 10
-9756539.25309489
 20
5136765.16449389
 10
-9756548.47456992
 20
5136765.09503915
 10
-9756548.68749503
 20
5136793.57499381
  0
LWPOLYLINE
  5
2010A
  8
0
100
AcDbEntity
100
AcDbPolyline
 70
0
 90
5
 10
-9756549.53258354
 20
5136811.72566555
 10
-9756541.37508526
 20
5136811.78710832
 10
-9756541.31919767
 20
5136804.31109792
 10
-9756549.4766896
 20
5136804.24965532
 10
-9756549.53258354
 20
5136811.72566555
  0
LWPOLYLINE
  5
2010B
  8
0
100
AcDbEntity
100
AcDbPolyline
 70
0
 90
5
 10
-9756559.06352343
 20
5136805.6015196
 10
-9756549.13266244
 20
5136805.67632838
 10
-9756548.82924203
 20
5136765.09236763
 10
-9756558.76006103
 20
5136765.01755987
 10
-9756559.06352343
 20
5136805.6015196
  0
LWPOLYLINE
  5
2010C
  8
0
100
AcDbEntity
100
AcDbPolyline
 70
0
 90
5
 10
-9756570.69320497
 20
5136795.54533322
 10
-9756560.40768136
 20
5136795.62282593
 10
-9756560.18141143
 20
5136765.3628711
 10
-9756570.46690262
 20
5136765.28537918
 10
-9756570.69320497
 20
5136795.54533322
  0
LWPOLYLINE
  5
2010D
  8
0
100
AcDbEntity
100
AcDbPolyline
 70
0
 90
5
 10
-9756579.06956445
 20
5136777.32520953
 10
-9756573.39480369
 20
5136777.36797032
 10
-9756573.30694192
 20
5136765.61999906
 10
-9756578.98169574
 20
5136765.57723845
 10
-9756579.06956445
 20
5136777.32520953
  0
LWPOLYLINE
  5
2010E
  8
0
100
AcDbEntity
100
AcDbPolyline
 70
0
 90
5
 10
-9756589.6080617
 20
5136811.06769256
 10
-9756579.67719559
 20
5136811.14253328
 10
-9756579.33104246
 20
5136764.86256801
 10
-9756589.26186069
 20
5136764.78772845
 10
-9756589.6080617
 20
5136811.06769256
  0
LWPOLYLINE
  5
2010F
  8
0
100
AcDbEntity
100
AcDbPolyline
 70
0
 90
5
 10
-9756627.20081663
 20
5136810.42827264
 10
-9756617.26995184
 20
5136810.50315255
 10
-9756616.93160976
 20
5136765.29118997
 10
-9756626.85976332
 20
5136764.86031235
 10
-9756627.20081663
 20
5136810.42827264
  0
LWPOLYLINE
  5
20110
  8
0
100
AcDbEntity
100
AcDbPolyline
 70
0
 90
5
 10
-9756637.05173528
 20
5136799.67337271
 10
-9756626.76620844
 20
5136799.75093714
 10
-9756626.55571578
 20
5136771.62696732
 10
-9756636.84121248
 20
5136771.54940362
 10
-9756637.05173528
 20
5136799.67337271
  0
LWPOLYLINE
  5
20111
  8
0
100
AcDbEntity
100
AcDbPolyline
 70
0
 90
5
 10
-9756644.80124567
 20
5136792.49452355
 10
-9756636.99843818
 20
5136792.5533728
 10
-9756636.78525106
 20
5136764.07342559
 10
-9756644.5880354
 20
5136764.01457691
 10
-9756644.80124567
 20
5136792.49452355
  0
LWPOLYLINE
  5
20112
  8
0
100
AcDbEntity
100
AcDbPolyline
 70
0
 90
5
 10
-9756645.64118539
 20
5136809.933182
 10
-9756637.83836373
 20
5136809.99203218
 10
-9756637.76108194
 20
5136799.66802302
 10
-9756645.56389521
 20
5136799.60917305
 10
-9756645.64118539
 20
5136809.933182
  0
LWPOLYLINE
  5
20113
  8
0
100
AcDbEntity
100
AcDbPolyline
 70
0
 90
5
 10
-9756655.57204909
 20
5136809.85827253
 10
-9756645.9958591
 20
5136809.93050684
 10
-9756645.81196131
 20
5136785.36650365
 10
-9756655.3881268
 20
5136785.29426995
 10
-9756655.57204909
 20
5136809.85827253
  0
LWPOLYLINE
  5
20114
  8
0
100
AcDbEntity
100
AcDbPolyline
 70
0
 90
5
 10
-9756665.83892471
 20
5136807.28867377
 10
-9756655.90806384
 20
5136807.3635939
 10
-9756655.59086419
 20
5136764.99963938
 10
-9756665.52168122
 20
5136764.92472032
 10
-9756665.83892471
 20
5136807.28867377
  0
LWPOLYLINE
  5
20115
  8
0
100
AcDbEntity
100
AcDbPolyline
 70
0
 90
6
 10
-9756591.74395074
 20
5137099.06201679
 10
-9756562.86158374
 20
5137099.411703
 10
-9756562.69751389
 20
5137090.91201274
 10
-9756591.5337358
 20
5137090.56288554
 10
-9756591.80436861
 20
5137091.49546104
 10
-9756591.74395074
 20
5137099.06201679
  0
LWPOLYLINE
  5
20116
  8
0
100
AcDbEntity
100
AcDbPolyline
 70
0
 90
4
 10
-9756591.5798553
 20
5137090.56232709
 10
-9756591.5337358
 20
5137090.56288554
 10
-9756591.46573965
 20
5137090.32857712
 10
-9756591.5798553
 20
5137090.56232709
  0
LWPOLYLINE
  5
20117
  8
0
100
AcDbEntity
100
AcDbPolyline
 70
0
 90
9
 10
-9756387.44771417
 20
5137091.01344068
 10
-9756385.59212006
 20
5137090.99847299
 10
-9756385.58652803
 20
5137091.69692374
 10
-9756353.10617098
 20
5137092.36619825
 10
-9756352.9460166
 20
5137083.40087903
 10
-9756370.46283242
 20
5137082.96014019
 10
-9756370.35804416
 20
5137081.56230439
 10
-9756387.41002611
 20
5137081.23420005
 10
-9756387.44771417
 20
5137091.01344068
  0
LWPOLYLINE
  5
20118
  8
0
100
AcDbEntity
100
AcDbPolyline
 70
0
 90
5
 10
-9756424.5172149
 20
5137082.11551917
 10
-9756424.45014454
 20
5137090.49692434
 10
-9756411.22903646
 20
5137090.39032304
 10
-9756411.29611837
 20
5137082.00891816
 10
-9756424.5172149
 20
5137082.11551917
  0
LWPOLYLINE
  5
20119
  8
0
100
AcDbEntity
100
AcDbPolyline
 70
0
 90
5
 10
-9756456.40928174
 20
5137082.48900357
 10
-9756456.34317037
 20
5137090.75400111
 10
-9756433.14824221
 20
5137090.56704678
 10
-9756433.21437356
 20
5137082.30204976
 10
-9756456.40928174
 20
5137082.48900357
  0
LWPOLYLINE
  5
2011A
  8
0
100
AcDbEntity
100
AcDbPolyline
 70
0
 90
5
 10
-9756520.83624273
 20
5137089.87653572
 10
-9756489.98233397
 20
5137090.21012529
 10
-9756489.58917189
 20
5137081.35934899
 10
-9756521.0229249
 20
5137081.03042994
 10
-9756520.83624273
 20
5137089.87653572
  0
LWPOLYLINE
  5
2011B
  8
0
100
AcDbEntity
100
AcDbPolyline
 70
0
 90
9
 10
-9756594.72883136
 20
5137088.375756
 10
-9756578.48959228
 20
5137088.59435524
 10
-9756578.49609994
 20
5137087.77949601
 10
-9756575.13097612
 20
5137087.98525119
 10
-9756575.15514846
 20
5137084.95863174
 10
-9756578.8663357
 20
5137084.98849287
 10
-9756578.67436196
 20
5137079.98106568
 10
-9756594.56752177
 20
5137079.52685063
 10
-9756594.72883136
 20
5137088.375756
  0
LWPOLYLINE
  5
2011C
  8
0
100
AcDbEntity
100
AcDbPolyline
 70
0
 90
5
 10
-9756552.85454673
 20
5137088.97013848
 10
-9756545.2002203
 20
5137088.90852737
 10
-9756545.38036954
 20
5137080.87728029
 10
-9756553.26570868
 20
5137081.05716642
 10
-9756552.85454673
 20
5137088.97013848
  0
LWPOLYLINE
  5
2011D
  8
0
100
AcDbEntity
100
AcDbPolyline
 70
0
 90
17
 10
-9756402.40055634
 20
5137077.62979744
 10
-9756391.38391341
 20
5137077.42453077
 10
-9756391.52039035
 20
5137074.86448412
 10
-9756366.35207365
 20
5137074.89428207
 10
-9756366.21465776
 20
5137077.57073659
 10
-9756354.38526249
 20
5137077.4752853
 10
-9756354.54039687
 20
5137072.5870745
 10
-9756353.49662725
 20
5137072.57865165
 10
-9756353.3308783
 20
5137064.3117995
 10
-9756354.60659563
 20
5137064.32209408
 10
-9756354.77012096
 20
5137058.38621739
 10
-9756365.55945357
 20
5137058.00761404
 10
-9756365.65771523
 20
5137060.220303
 10
-9756391.05887388
 20
5137060.0759693
 10
-9756391.07751253
 20
5137057.74780794
 10
-9756402.32887672
 20
5137057.60572072
 10
-9756402.40055634
 20
5137077.62979744
  0
LWPOLYLINE
  5
2011E
  8
0
100
AcDbEntity
100
AcDbPolyline
 70
0
 90
5
 10
-9756421.00025657
 20
5137072.30823623
 10
-9756420.92945699
 20
5137081.15526621
 10
-9756411.53552094
 20
5137081.07952176
 10
-9756411.60632918
 20
5137072.23249201
 10
-9756421.00025657
 20
5137072.30823623
  0
LWPOLYLINE
  5
2011F
  8
0
100
AcDbEntity
100
AcDbPolyline
 70
0
 90
9
 10
-9756453.40511776
 20
5137081.06780249
 10
-9756437.51567657
 20
5137081.0561486
 10
-9756437.47328056
 20
5137071.85895887
 10
-9756452.89974005
 20
5137071.75046577
 10
-9756452.77817851
 20
5137072.44798054
 10
-9756456.02732465
 20
5137072.24133426
 10
-9756456.09301715
 20
5137078.52831604
 10
-9756453.54250941
 20
5137078.39134551
 10
-9756453.40511776
 20
5137081.06780249
  0
LWPOLYLINE
  5
20120
  8
0
100
AcDbEntity
100
AcDbPolyline
 70
0
 90
5
 10
-9756526.36891738
 20
5137079.67648485
 10
-9756512.80082856
 20
5137079.45081511
 10
-9756512.7444035
 20
5137071.99975014
 10
-9756526.31527267
 20
5137071.87619492
 10
-9756526.36891738
 20
5137079.67648485
  0
LWPOLYLINE
  5
20121
  8
0
100
AcDbEntity
100
AcDbPolyline
 70
0
 90
7
 10
-9756511.19486439
 20
5137077.22598156
 10
-9756508.52372901
 20
5137077.67013338
 10
-9756508.38821373
 20
5137080.11377442
 10
-9756492.2677548
 20
5137079.98393553
 10
-9756491.98218895
 20
5137072.18177706
 10
-9756511.23766639
 20
5137071.87120056
 10
-9756511.19486439
 20
5137077.22598156
  0
LWPOLYLINE
  5
20122
  8
0
100
AcDbEntity
100
AcDbPolyline
 70
0
 90
5
 10
-9756592.61640343
 20
5137076.95000677
 10
-9756569.53561763
 20
5137076.99713475
 10
-9756569.58861454
 20
5137070.3618625
 10
-9756592.32146111
 20
5137070.31193536
 10
-9756592.61640343
 20
5137076.95000677
  0
LWPOLYLINE
  5
20123
  8
0
100
AcDbEntity
100
AcDbPolyline
 70
0
 90
5
 10
-9756553.52834667
 20
5137077.21755785
 10
-9756544.94437347
 20
5137077.38129575
 10
-9756545.11801214
 20
5137070.16491589
 10
-9756553.8179533
 20
5137070.00211133
 10
-9756553.52834667
 20
5137077.21755785
  0
LWPOLYLINE
  5
20124
  8
0
100
AcDbEntity
100
AcDbPolyline
 70
0
 90
5
 10
-9756420.5032949
 20
5137061.9432335
 10
-9756420.43249503
 20
5137070.79025398
 10
-9756411.15454352
 20
5137070.7154444
 10
-9756411.22535194
 20
5137061.86842414
 10
-9756420.5032949
 20
5137061.9432335
  0
LWPOLYLINE
  5
20125
  8
0
100
AcDbEntity
100
AcDbPolyline
 70
0
 90
7
 10
-9756456.62675069
 20
5137069.8014346
 10
-9756425.19023983
 20
5137070.47936575
 10
-9756425.14040343
 20
5137062.21345102
 10
-9756428.50365793
 20
5137062.24056555
 10
-9756428.51297272
 20
5137061.07648445
 10
-9756456.46556861
 20
5137060.95254517
 10
-9756456.62675069
 20
5137069.8014346
  0
LWPOLYLINE
  5
20126
  8
0
100
AcDbEntity
100
AcDbPolyline
 70
0
 90
7
 10
-9756514.62046399
 20
5137069.45371177
 10
-9756491.30402605
 20
5137069.96441539
 10
-9756491.02218409
 20
5137061.69663247
 10
-9756510.27857098
 20
5137061.26964991
 10
-9756510.38430994
 20
5137062.55107331
 10
-9756514.56310706
 20
5137062.11906264
 10
-9756514.62046399
 20
5137069.45371177
  0
LWPOLYLINE
  5
20127
  8
0
100
AcDbEntity
100
AcDbPolyline
 70
0
 90
5
 10
-9756535.50515837
 20
5137068.45771163
 10
-9756525.99525832
 20
5137068.38114661
 10
-9756525.8247093
 20
5137060.69634013
 10
-9756534.98760902
 20
5137060.65369607
 10
-9756535.50515837
 20
5137068.45771163
  0
LWPOLYLINE
  5
20128
  8
0
100
AcDbEntity
100
AcDbPolyline
 70
0
 90
5
 10
-9756591.52544167
 20
5137068.32646449
 10
-9756564.04043902
 20
5137067.98890041
 10
-9756563.9932725
 20
5137059.373763
 10
-9756591.59329528
 20
5137059.82866776
 10
-9756591.52544167
 20
5137068.32646449
  0
LWPOLYLINE
  5
20129
  8
0
100
AcDbEntity
100
AcDbPolyline
 70
0
 90
5
 10
-9756420.24014566
 20
5137051.34729602
 10
-9756420.16748257
 20
5137060.42712299
 10
-9756411.58538669
 20
5137060.35792437
 10
-9756411.6580579
 20
5137051.27809761
 10
-9756420.24014566
 20
5137051.34729602
  0
LWPOLYLINE
  5
2012A
  8
0
100
AcDbEntity
100
AcDbPolyline
 70
0
 90
7
 10
-9756459.26198692
 20
5137059.34526233
 10
-9756431.30846422
 20
5137059.58561793
 10
-9756431.13519678
 20
5137052.2500415
 10
-9756436.35403463
 20
5137052.29211188
 10
-9756436.36148568
 20
5137051.36084793
 10
-9756459.21305223
 20
5137050.96294902
 10
-9756459.26198692
 20
5137059.34526233
  0
LWPOLYLINE
  5
2012B
  8
0
100
AcDbEntity
100
AcDbPolyline
 70
0
 90
5
 10
-9756536.39976433
 20
5137058.10392164
 10
-9756527.70169437
 20
5137058.03389402
 10
-9756527.63874578
 20
5137051.39770155
 10
-9756536.22176571
 20
5137051.35038746
 10
-9756536.39976433
 20
5137058.10392164
  0
LWPOLYLINE
  5
2012C
  8
0
100
AcDbEntity
100
AcDbPolyline
 70
0
 90
5
 10
-9756523.74461455
 20
5137059.748267
 10
-9756488.25369294
 20
5137059.81168144
 10
-9756488.20938669
 20
5137050.84732763
 10
-9756523.815319
 20
5137050.90125489
 10
-9756523.74461455
 20
5137059.748267
  0
LWPOLYLINE
  5
2012D
  8
0
100
AcDbEntity
100
AcDbPolyline
 70
0
 90
9
 10
-9756595.66540813
 20
5137058.23160749
 10
-9756568.06260028
 20
5137058.12593893
 10
-9756568.03123643
 20
5137047.5318746
 10
-9756561.77049228
 20
5137047.2486605
 10
-9756561.47252371
 20
5137055.51176287
 10
-9756544.19236212
 20
5137055.37267911
 10
-9756543.86239628
 20
5137038.60619892
 10
-9756595.81969639
 20
5137038.90788139
 10
-9756595.66540813
 20
5137058.23160749
  0
LWPOLYLINE
  5
2012E
  8
0
100
AcDbEntity
100
AcDbPolyline
 70
0
 90
5
 10
-9756556.61249839
 20
5137068.62761471
 10
-9756544.43611677
 20
5137068.41319119
 10
-9756544.27950408
 20
5137058.98226317
 10
-9756556.91977087
 20
5137059.20042016
 10
-9756556.61249839
 20
5137068.62761471
  0
LWPOLYLINE
  5
2012F
  8
0
100
AcDbEntity
100
AcDbPolyline
 70
0
 90
5
 10
-9756403.0270847
 20
5137042.82658542
 10
-9756402.96931404
 20
5137050.04387649
 10
-9756394.85112428
 20
5137049.97840404
 10
-9756394.90890104
 20
5137042.76111313
 10
-9756403.0270847
 20
5137042.82658542
  0
LWPOLYLINE
  5
20130
  8
0
100
AcDbEntity
100
AcDbPolyline
 70
0
 90
9
 10
-9756386.84238496
 20
5137050.72871587
 10
-9756353.55407717
 20
5137050.9258103
 10
-9756353.62866788
 20
5137041.61317769
 10
-9756373.11230512
 20
5137041.77038397
 10
-9756373.93064831
 20
5137040.96207839
 10
-9756375.78716483
 20
5137040.86064033
 10
-9756377.63249621
 20
5137042.15609617
 10
-9756386.91041952
 20
5137042.2309379
 10
-9756386.84238496
 20
5137050.72871587
  0
LWPOLYLINE
  5
20131
  8
0
100
AcDbEntity
100
AcDbPolyline
 70
0
 90
5
 10
-9756416.83638188
 20
5137041.89020158
 10
-9756416.77862162
 20
5137049.10749213
 10
-9756410.74796678
 20
5137049.05886486
 10
-9756410.80573157
 20
5137041.84157442
 10
-9756416.83638188
 20
5137041.89020158
  0
LWPOLYLINE
  5
20132
  8
0
100
AcDbEntity
100
AcDbPolyline
 70
0
 90
5
 10
-9756445.18390372
 20
5137050.38422176
 10
-9756419.0869252
 20
5137050.52308949
 10
-9756418.82005134
 20
5137040.3927959
 10
-9756445.26399314
 20
5137040.37314089
 10
-9756445.18390372
 20
5137050.38422176
  0
LWPOLYLINE
  5
20133
  8
0
100
AcDbEntity
100
AcDbPolyline
 70
0
 90
6
 10
-9756536.82303037
 20
5137048.67767185
 10
-9756487.99046892
 20
5137049.21574741
 10
-9756487.58427938
 20
5137041.99471885
 10
-9756489.33971283
 20
5137040.02979842
 10
-9756536.89744322
 20
5137039.36503818
 10
-9756536.82303037
 20
5137048.67767185
  0
LWPOLYLINE
  5
20134
  8
0
100
AcDbEntity
100
AcDbPolyline
 70
0
 90
9
 10
-9756401.88555348
 20
5137013.48412492
 10
-9756398.78464958
 20
5137013.34791707
 10
-9756398.77218838
 20
5137014.90461563
 10
-9756385.36800549
 20
5137014.79650299
 10
-9756385.22389979
 20
5137005.12095062
 10
-9756398.62984933
 20
5137005.00667792
 10
-9756398.84339511
 20
5137006.00919865
 10
-9756401.94607674
 20
5137005.92302102
 10
-9756401.88555348
 20
5137013.48412492
  0
LWPOLYLINE
  5
20135
  8
0
100
AcDbEntity
100
AcDbPolyline
 70
0
 90
8
 10
-9756377.28207497
 20
5137014.62007613
 10
-9756354.12227255
 20
5137015.32281409
 10
-9756352.81074448
 20
5137013.08823187
 10
-9756353.15821994
 20
5137011.20063744
 10
-9756354.05246193
 20
5137010.2070546
 10
-9756354.0854142
 20
5137006.09292557
 10
-9756376.80297166
 20
5137005.27542084
 10
-9756377.28207497
 20
5137014.62007613
  0
LWPOLYLINE
  5
20136
  8
0
100
AcDbEntity
100
AcDbPolyline
 70
0
 90
5
 10
-9756420.67561332
 20
5137005.07324926
 10
-9756420.60620651
 20
5137013.74628024
 10
-9756409.30681353
 20
5137013.65517113
 10
-9756409.37623055
 20
5137004.98214042
 10
-9756420.67561332
 20
5137005.07324926
  0
LWPOLYLINE
  5
20137
  8
0
100
AcDbEntity
100
AcDbPolyline
 70
0
 90
5
 10
-9756459.67045376
 20
5137005.27636848
 10
-9756459.60552909
 20
5137013.39343647
 10
-9756421.386994
 20
5137013.08537582
 10
-9756421.45195099
 20
5137004.96830868
 10
-9756459.67045376
 20
5137005.27636848
  0
LWPOLYLINE
  5
20138
  8
0
100
AcDbEntity
100
AcDbPolyline
 70
0
 90
13
 10
-9756595.25697046
 20
5137007.70409152
 10
-9756595.23745212
 20
5137010.14864926
 10
-9756594.06749106
 20
5137011.41980284
 10
-9756566.12154578
 20
5137010.72929404
 10
-9756566.28400929
 20
5137004.90985273
 10
-9756573.12552388
 20
5137005.08132086
 10
-9756573.04116048
 20
5137001.12253484
 10
-9756579.65072536
 20
5137001.2921318
 10
-9756580.5701475
 20
5137002.34726343
 10
-9756584.04749646
 20
5137002.60807062
 10
-9756584.86953697
 20
5137001.33412031
 10
-9756594.146495
 20
5137001.52516691
 10
-9756595.25697046
 20
5137007.70409152
  0
LWPOLYLINE
  5
20139
  8
0
100
AcDbEntity
100
AcDbPolyline
 70
0
 90
5
 10
-9756556.3695259
 20
5137011.93137667
 10
-9756543.14852276
 20
5137011.82496041
 10
-9756543.33983249
 20
5137002.39688825
 10
-9756556.32794554
 20
5137002.61784465
 10
-9756556.3695259
 20
5137011.93137667
  0
LWPOLYLINE
  5
2013A
  8
0
100
AcDbEntity
100
AcDbPolyline
 70
0
 90
5
 10
-9756400.25106015
 20
5136996.23497023
 10
-9756400.19320589
 20
5137003.46248862
 10
-9756391.99561613
 20
5137003.39637379
 10
-9756392.05347656
 20
5136996.16885556
 10
-9756400.25106015
 20
5136996.23497023
  0
LWPOLYLINE
  5
2013B
  8
0
100
AcDbEntity
100
AcDbPolyline
 70
0
 90
9
 10
-9756385.89747166
 20
5137004.0143856
 10
-9756356.75745105
 20
5137004.44648993
 10
-9756356.7993078
 20
5136999.22043753
 10
-9756355.36008201
 20
5136999.09762415
 10
-9756355.27067789
 20
5136996.42810886
 10
-9756356.93235015
 20
5136996.44151747
 10
-9756356.83225881
 20
5136995.10631315
 10
-9756385.86058268
 20
5136994.7845077
 10
-9756385.89747166
 20
5137004.0143856
  0
LWPOLYLINE
  5
2013C
  8
0
100
AcDbEntity
100
AcDbPolyline
 70
0
 90
5
 10
-9756418.42757703
 20
5136995.26954402
 10
-9756418.37151618
 20
5137002.27467669
 10
-9756409.39847955
 20
5137002.20232453
 10
-9756409.45454694
 20
5136995.19719203
 10
-9756418.42757703
 20
5136995.26954402
  0
LWPOLYLINE
  5
2013D
  8
0
100
AcDbEntity
100
AcDbPolyline
 70
0
 90
11
 10
-9756454.60667287
 20
5137001.23236762
 10
-9756452.50188656
 20
5137001.21540489
 10
-9756452.49566034
 20
5137001.99375324
 10
-9756446.95674862
 20
5137001.94911226
 10
-9756446.8361856
 20
5137003.17133835
 10
-9756426.78621308
 20
5137002.89851813
 10
-9756426.84849608
 20
5136995.11503707
 10
-9756447.56578984
 20
5136995.05963622
 10
-9756447.55511565
 20
5136996.39394686
 10
-9756454.42158336
 20
5136996.67168583
 10
-9756454.60667287
 20
5137001.23236762
  0
LWPOLYLINE
  5
2013E
  8
0
100
AcDbEntity
100
AcDbPolyline
 70
0
 90
11
 10
-9756529.8682909
 20
5137004.61673533
 10
-9756519.89083831
 20
5137005.00206027
 10
-9756519.68215007
 20
5137002.09000684
 10
-9756513.6515236
 20
5137002.04144526
 10
-9756513.49833261
 20
5137006.69680887
 10
-9756502.36300208
 20
5137006.83996133
 10
-9756502.25633417
 20
5137005.6749527
 10
-9756494.13724974
 20
5137005.72597298
 10
-9756494.11062044
 20
5136994.54993004
 10
-9756529.72192555
 20
5136993.90538889
 10
-9756529.8682909
 20
5137004.61673533
  0
LWPOLYLINE
  5
2013F
  8
0
100
AcDbEntity
100
AcDbPolyline
 70
0
 90
6
 10
-9756591.84003586
 20
5136999.8768042
 10
-9756563.30960745
 20
5136999.76366046
 10
-9756563.25872199
 20
5136991.61421302
 10
-9756591.79005566
 20
5136991.61094927
 10
-9756591.66757579
 20
5136992.42486746
 10
-9756591.84003586
 20
5136999.8768042
  0
LWPOLYLINE
  5
20140
  8
0
100
AcDbEntity
100
AcDbPolyline
 70
0
 90
5
 10
-9756400.89573668
 20
5136984.8978038
 10
-9756400.83076261
 20
5136993.01485379
 10
-9756391.41462246
 20
5136992.93891129
 10
-9756391.47960449
 20
5136984.82186151
 10
-9756400.89573668
 20
5136984.8978038
  0
LWPOLYLINE
  5
20141
  8
0
100
AcDbEntity
100
AcDbPolyline
 70
0
 90
13
 10
-9756379.68638697
 20
5136991.06511356
 10
-9756378.24538143
 20
5136991.16468872
 10
-9756378.44824099
 20
5136993.5015185
 10
-9756358.17406416
 20
5136993.56034458
 10
-9756358.27771788
 20
5136994.45077858
 10
-9756356.282821
 20
5136994.54588103
 10
-9756356.24596046
 20
5136985.31601233
 10
-9756357.57618729
 20
5136985.21554666
 10
-9756358.01395607
 20
5136985.88627671
 10
-9756378.06923156
 20
5136985.49208629
 10
-9756378.3873206
 20
5136987.27384613
 10
-9756379.60587915
 20
5136987.28367616
 10
-9756379.68638697
 20
5136991.06511356
  0
LWPOLYLINE
  5
20142
  8
0
100
AcDbEntity
100
AcDbPolyline
 70
0
 90
5
 10
-9756422.06145895
 20
5136984.17887729
 10
-9756421.98849448
 20
5136993.29665963
 10
-9756409.02745368
 20
5136993.19215338
 10
-9756409.10043045
 20
5136984.07437136
 10
-9756422.06145895
 20
5136984.17887729
  0
LWPOLYLINE
  5
20143
  8
0
100
AcDbEntity
100
AcDbPolyline
 70
0
 90
5
 10
-9756458.61465091
 20
5136984.91831232
 10
-9756458.55150443
 20
5136992.81297816
 10
-9756425.76117925
 20
5136992.54867804
 10
-9756425.8243527
 20
5136984.6540129
 10
-9756458.61465091
 20
5136984.91831232
  0
LWPOLYLINE
  5
20144
  8
0
100
AcDbEntity
100
AcDbPolyline
 70
0
 90
5
 10
-9756535.19593387
 20
5136991.03908948
 10
-9756526.15186491
 20
5136990.73344603
 10
-9756526.21419351
 20
5136982.93416161
 10
-9756535.02816874
 20
5136983.00512302
 10
-9756535.19593387
 20
5136991.03908948
  0
LWPOLYLINE
  5
20145
  8
0
100
AcDbEntity
100
AcDbPolyline
 70
0
 90
7
 10
-9756520.00248099
 20
5136991.03317666
 10
-9756510.37575402
 20
5136991.07207088
 10
-9756510.12798907
 20
5136993.0491269
 10
-9756490.41436018
 20
5136992.65751967
 10
-9756490.48881708
 20
5136983.34494077
 10
-9756520.06016284
 20
5136983.81592804
 10
-9756520.00248099
 20
5136991.03317666
  0
LWPOLYLINE
  5
20146
  8
0
100
AcDbEntity
100
AcDbPolyline
 70
0
 90
5
 10
-9756589.60143177
 20
5136989.73070613
 10
-9756568.14634361
 20
5136989.55807955
 10
-9756568.21235714
 20
5136981.29316676
 10
-9756589.78247067
 20
5136981.58313302
 10
-9756589.60143177
 20
5136989.73070613
  0
LWPOLYLINE
  5
20147
  8
0
100
AcDbEntity
100
AcDbPolyline
 70
0
 90
7
 10
-9756552.943593
 20
5136990.71629207
 10
-9756544.12775027
 20
5136990.87816168
 10
-9756544.19843479
 20
5136982.03121224
 10
-9756552.78325264
 20
5136981.75106859
 10
-9756553.13117269
 20
5136981.75386888
 10
-9756552.99381046
 20
5136984.43030085
 10
-9756552.943593
 20
5136990.71629207
  0
LWPOLYLINE
  5
20148
  8
0
100
AcDbEntity
100
AcDbPolyline
 70
0
 90
13
 10
-9756383.62059663
 20
5136983.98007337
 10
-9756356.59076248
 20
5136983.76200036
 10
-9756356.49779584
 20
5136981.53725878
 10
-9756354.50379222
 20
5136981.52116838
 10
-9756354.41884142
 20
5136978.29569626
 10
-9756356.08140111
 20
5136978.19791263
 10
-9756355.88745304
 20
5136974.74916313
 10
-9756383.36482469
 20
5136974.41485054
 10
-9756383.67490209
 20
5136977.19733906
 10
-9756387.32879353
 20
5136977.44921124
 10
-9756387.40396309
 20
5136981.89779902
 10
-9756383.96895518
 20
5136981.98129104
 10
-9756383.62059663
 20
5136983.98007337
  0
LWPOLYLINE
  5
20149
  8
0
100
AcDbEntity
100
AcDbPolyline
 70
0
 90
9
 10
-9756452.20998226
 20
5136982.30910727
 10
-9756409.22277792
 20
5136982.62976342
 10
-9756408.84819294
 20
5136974.06437968
 10
-9756421.58854191
 20
5136974.05590713
 10
-9756421.66728659
 20
5136978.05972385
 10
-9756425.87506928
 20
5136978.31604697
 10
-9756425.68999376
 20
5136973.75537557
 10
-9756452.39458518
 20
5136973.08103527
 10
-9756452.20998226
 20
5136982.30910727
  0
LWPOLYLINE
  5
2014A
  8
0
100
AcDbEntity
100
AcDbPolyline
 70
0
 90
5
 10
-9756534.35372266
 20
5136980.32215619
 10
-9756525.77076628
 20
5136980.36946889
 10
-9756525.82937392
 20
5136973.03582108
 10
-9756534.06347385
 20
5136973.1021144
 10
-9756534.35372266
 20
5136980.32215619
  0
LWPOLYLINE
  5
2014B
  8
0
100
AcDbEntity
100
AcDbPolyline
 70
0
 90
5
 10
-9756512.65554585
 20
5136981.54442358
 10
-9756491.42963368
 20
5136981.72271387
 10
-9756491.26842017
 20
5136972.87390533
 10
-9756512.37833954
 20
5136972.69468145
 10
-9756512.65554585
 20
5136981.54442358
  0
LWPOLYLINE
  5
2014C
  8
0
100
AcDbEntity
100
AcDbPolyline
 70
0
 90
5
 10
-9756590.26774256
 20
5136978.90950015
 10
-9756567.88210274
 20
5136979.07863099
 10
-9756567.94997586
 20
5136970.58091307
 10
-9756589.9886057
 20
5136970.29257605
 10
-9756590.26774256
 20
5136978.90950015
  0
LWPOLYLINE
  5
2014D
  8
0
100
AcDbEntity
100
AcDbPolyline
 70
0
 90
5
 10
-9756552.45672162
 20
5136979.07090364
 10
-9756543.29296964
 20
5136979.22997208
 10
-9756543.12426777
 20
5136971.31242254
 10
-9756552.28708223
 20
5136971.26976138
 10
-9756552.45672162
 20
5136979.07090364
  0
LWPOLYLINE
  5
2014E
  8
0
100
AcDbEntity
100
AcDbPolyline
 70
0
 90
5
 10
-9756400.19724129
 20
5136964.87152292
 10
-9756400.13641366
 20
5136972.47052073
 10
-9756390.60779831
 20
5136972.39367056
 10
-9756390.66863349
 20
5136964.79467294
 10
-9756400.19724129
 20
5136964.87152292
  0
LWPOLYLINE
  5
2014F
  8
0
100
AcDbEntity
100
AcDbPolyline
 70
0
 90
17
 10
-9756384.61395513
 20
5136971.03506712
 10
-9756383.70025244
 20
5136971.02769685
 10
-9756383.55503777
 20
5136972.86088536
 10
-9756356.27133385
 20
5136973.03384108
 10
-9756356.27972867
 20
5136971.98570313
 10
-9756354.58285217
 20
5136971.97201036
 10
-9756354.62797527
 20
5136966.33827081
 10
-9756355.67220635
 20
5136966.34669714
 10
-9756355.68060122
 20
5136965.29855991
 10
-9756372.26196469
 20
5136964.90824399
 10
-9756372.25252249
 20
5136966.08739837
 10
-9756379.42951319
 20
5136966.40734815
 10
-9756379.31367081
 20
5136964.57205502
 10
-9756383.4884966
 20
5136964.86778312
 10
-9756383.46122313
 20
5136968.27422957
 10
-9756384.50545447
 20
5136968.28265275
 10
-9756384.61395513
 20
5136971.03506712
  0
LWPOLYLINE
  5
20150
  8
0
100
AcDbEntity
100
AcDbPolyline
 70
0
 90
5
 10
-9756418.34914349
 20
5136963.96969013
 10
-9756418.28833024
 20
5136971.5686875
 10
-9756408.75971546
 20
5136971.4918555
 10
-9756408.82053626
 20
5136963.89285833
 10
-9756418.34914349
 20
5136963.96969013
  0
LWPOLYLINE
  5
20151
  8
0
100
AcDbEntity
100
AcDbPolyline
 70
0
 90
5
 10
-9756452.81924658
 20
5136962.93729659
 10
-9756452.75007635
 20
5136971.58443164
 10
-9756431.47385323
 20
5136971.41293911
 10
-9756431.54304262
 20
5136962.76580456
 10
-9756452.81924658
 20
5136962.93729659
  0
LWPOLYLINE
  5
20152
  8
0
100
AcDbEntity
100
AcDbPolyline
 70
0
 90
5
 10
-9756535.24832069
 20
5136969.96846062
 10
-9756525.50657184
 20
5136969.89002959
 10
-9756525.5670401
 20
5136962.32357586
 10
-9756535.07869538
 20
5136962.16732553
 10
-9756535.24832069
 20
5136969.96846062
  0
LWPOLYLINE
  5
20153
  8
0
100
AcDbEntity
100
AcDbPolyline
 70
0
 90
13
 10
-9756509.26474145
 20
5136970.45773122
 10
-9756506.3654114
 20
5136970.43438178
 10
-9756506.24106356
 20
5136971.48111109
 10
-9756491.74348139
 20
5136971.48075748
 10
-9756491.66380519
 20
5136966.9399499
 10
-9756489.3452728
 20
5136966.80485917
 10
-9756489.14217888
 20
5136963.19437503
 10
-9756491.69265663
 20
5136963.3313341
 10
-9756491.35776701
 20
5136961.69883456
 10
-9756506.08728059
 20
5136961.70105661
 10
-9756506.19394854
 20
5136962.86605991
 10
-9756509.326153
 20
5136962.77487034
 10
-9756509.26474145
 20
5136970.45773122
  0
LWPOLYLINE
  5
20154
  8
0
100
AcDbEntity
100
AcDbPolyline
 70
0
 90
5
 10
-9756552.39588165
 20
5136959.54711205
 10
-9756543.47963681
 20
5136959.4753437
 10
-9756543.73409182
 20
5136951.88920408
 10
-9756552.8472694
 20
5136951.57341947
 10
-9756552.39588165
 20
5136959.54711205
  0
LWPOLYLINE
  5
20155
  8
0
100
AcDbEntity
100
AcDbPolyline
 70
0
 90
9
 10
-9756588.40609599
 20
5136950.60581073
 10
-9756588.61365839
 20
5136968.18605365
 10
-9756562.28495517
 20
5136968.32344881
 10
-9756562.07346523
 20
5136965.76062819
 10
-9756560.10285142
 20
5136965.62835463
 10
-9756560.15771319
 20
5136958.76034511
 10
-9756564.21863037
 20
5136958.56019727
 10
-9756564.28092756
 20
5136950.76093824
 10
-9756588.40609599
 20
5136950.60581073
  0
LWPOLYLINE
  5
20156
  8
0
100
AcDbEntity
100
AcDbPolyline
 70
0
 90
5
 10
-9756551.7183757
 20
5136969.8682097
 10
-9756543.13356846
 20
5136970.14835215
 10
-9756543.08642031
 20
5136961.533302
 10
-9756551.55245685
 20
5136961.60144711
 10
-9756551.7183757
 20
5136969.8682097
  0
LWPOLYLINE
  5
20157
  8
0
100
AcDbEntity
100
AcDbPolyline
 70
0
 90
5
 10
-9756668.63267031
 20
5136968.26472182
 10
-9756657.77809917
 20
5136968.17748282
 10
-9756657.25558612
 20
5136960.77965716
 10
-9756668.11170081
 20
5136960.67234005
 10
-9756668.63267031
 20
5136968.26472182
  0
LWPOLYLINE
  5
20158
  8
0
100
AcDbEntity
100
AcDbPolyline
 70
0
 90
8
 10
-9756651.18471943
 20
5136968.51362365
 10
-9756625.78656574
 20
5136969.08770762
 10
-9756625.43306406
 20
5136964.8043438
 10
-9756626.40532734
 20
5136964.42302355
 10
-9756626.23323474
 20
5136961.69767275
 10
-9756627.20860319
 20
5136960.92723945
 10
-9756650.66686831
 20
5136960.53212778
 10
-9756651.18471943
 20
5136968.51362365
  0
LWPOLYLINE
  5
20159
  8
0
100
AcDbEntity
100
AcDbPolyline
 70
0
 90
5
 10
-9756400.67272743
 20
5136954.39331442
 10
-9756400.60770533
 20
5136962.51637247
 10
-9756391.07909986
 20
5136962.43952295
 10
-9756391.14413002
 20
5136954.3164651
 10
-9756400.67272743
 20
5136954.39331442
  0
LWPOLYLINE
  5
2015A
  8
0
100
AcDbEntity
100
AcDbPolyline
 70
0
 90
9
 10
-9756379.85571782
 20
5136962.08694144
 10
-9756377.11671047
 20
5136961.80279484
 10
-9756377.10726888
 20
5136962.98194886
 10
-9756355.3068538
 20
5136963.0681088
 10
-9756354.85294742
 20
5136954.54778682
 10
-9756377.17545805
 20
5136954.46583974
 10
-9756377.53767061
 20
5136958.13747555
 10
-9756379.36612255
 20
5136958.02120009
 10
-9756379.85571782
 20
5136962.08694144
  0
LWPOLYLINE
  5
2015B
  8
0
100
AcDbEntity
100
AcDbPolyline
 70
0
 90
5
 10
-9756416.99301353
 20
5136954.00081553
 10
-9756416.93219935
 20
5136961.59980504
 10
-9756408.70888281
 20
5136961.53349752
 10
-9756408.76970351
 20
5136953.93450818
 10
-9756416.99301353
 20
5136954.00081553
  0
LWPOLYLINE
  5
2015C
  8
0
100
AcDbEntity
100
AcDbPolyline
 70
0
 90
5
 10
-9756452.50102251
 20
5136953.76294535
 10
-9756452.44023644
 20
5136961.36193519
 10
-9756431.16403599
 20
5136961.19044237
 10
-9756431.2248389
 20
5136953.59145297
 10
-9756452.50102251
 20
5136953.76294535
  0
LWPOLYLINE
  5
2015D
  8
0
100
AcDbEntity
100
AcDbPolyline
 70
0
 90
7
 10
-9756514.39248653
 20
5136960.79771039
 10
-9756488.60979702
 20
5136960.97919351
 10
-9756488.63935283
 20
5136957.28262084
 10
-9756491.35299164
 20
5136957.30447987
 10
-9756491.5888217
 20
5136952.05301926
 10
-9756514.07480107
 20
5136952.03955014
 10
-9756514.39248653
 20
5136960.79771039
  0
LWPOLYLINE
  5
2015E
  8
0
100
AcDbEntity
100
AcDbPolyline
 70
0
 90
5
 10
-9756533.40506777
 20
5136958.8105348
 10
-9756525.06720843
 20
5136959.13254358
 10
-9756524.73707459
 20
5136951.93083557
 10
-9756533.6533121
 20
5136952.00262134
 10
-9756533.40506777
 20
5136958.8105348
  0
LWPOLYLINE
  5
2015F
  8
0
100
AcDbEntity
100
AcDbPolyline
 70
0
 90
5
 10
-9756668.13187591
 20
5136958.14310518
 10
-9756623.93365501
 20
5136958.37150849
 10
-9756623.80970084
 20
5136949.61491172
 10
-9756667.81405016
 20
5136949.38495105
 10
-9756668.13187591
 20
5136958.14310518
  0
LWPOLYLINE
  5
20160
  8
0
100
AcDbEntity
100
AcDbPolyline
 70
0
 90
5
 10
-9756400.8808628
 20
5136944.69911317
 10
-9756400.82108474
 20
5136952.16707816
 10
-9756396.51363756
 20
5136952.13233933
 10
-9756396.57341898
 20
5136944.66437442
 10
-9756400.8808628
 20
5136944.69911317
  0
LWPOLYLINE
  5
20161
  8
0
100
AcDbEntity
100
AcDbPolyline
 70
0
 90
7
 10
-9756382.54496878
 20
5136952.28172184
 10
-9756354.86553983
 20
5136952.97558293
 10
-9756354.49494116
 20
5136950.3520838
 10
-9756356.19391253
 20
5136950.10374262
 10
-9756355.97377988
 20
5136944.99197671
 10
-9756382.60476107
 20
5136944.81375702
 10
-9756382.54496878
 20
5136952.28172184
  0
LWPOLYLINE
  5
20162
  8
0
100
AcDbEntity
100
AcDbPolyline
 70
0
 90
5
 10
-9756417.21056904
 20
5136943.12746232
 10
-9756417.15290073
 20
5136950.33339241
 10
-9756408.53800781
 20
5136950.26392759
 10
-9756408.59568259
 20
5136943.05799767
 10
-9756417.21056904
 20
5136943.12746232
  0
LWPOLYLINE
  5
20163
  8
0
100
AcDbEntity
100
AcDbPolyline
 70
0
 90
5
 10
-9756455.72174335
 20
5136942.78276868
 10
-9756455.65257606
 20
5136951.42988575
 10
-9756432.41846702
 20
5136951.24261726
 10
-9756432.48765524
 20
5136942.59550074
 10
-9756455.72174335
 20
5136942.78276868
  0
LWPOLYLINE
  5
20164
  8
0
100
AcDbEntity
100
AcDbPolyline
 70
0
 90
9
 10
-9756535.02567713
 20
5136950.06798142
 10
-9756525.91561018
 20
5136949.99463634
 10
-9756524.9713314
 20
5136946.87393309
 10
-9756522.84385342
 20
5136946.27309712
 10
-9756523.05478808
 20
5136944.13453972
 10
-9756525.18693007
 20
5136944.15170699
 10
-9756525.58547595
 20
5136942.79293517
 10
-9756534.70019994
 20
5136942.28261201
 10
-9756535.02567713
 20
5136950.06798142
  0
LWPOLYLINE
  5
20165
  8
0
100
AcDbEntity
100
AcDbPolyline
 70
0
 90
9
 10
-9756514.34327444
 20
5136942.70241199
 10
-9756514.50444968
 20
5136946.78965256
 10
-9756512.56613828
 20
5136946.77404379
 10
-9756512.33809528
 20
5136951.05272061
 10
-9756489.07834895
 20
5136950.86538389
 10
-9756488.9094067
 20
5136947.75092237
 10
-9756491.43387819
 20
5136947.18755127
 10
-9756491.66659689
 20
5136942.32520839
 10
-9756514.34327444
 20
5136942.70241199
  0
LWPOLYLINE
  5
20166
  8
0
100
AcDbEntity
100
AcDbPolyline
 70
0
 90
6
 10
-9756586.98487474
 20
5136948.92958749
 10
-9756561.01149351
 20
5136948.72059475
 10
-9756561.07521144
 20
5136940.74379082
 10
-9756586.27512957
 20
5136940.75637798
 10
-9756586.62517673
 20
5136945.42445618
 10
-9756586.98487474
 20
5136948.92958749
  0
LWPOLYLINE
  5
20167
  8
0
100
AcDbEntity
100
AcDbPolyline
 70
0
 90
4
 10
-9756586.85629361
 20
5136940.75666748
 10
-9756586.27512957
 20
5136940.75637798
 10
-9756586.27480047
 20
5136940.75198932
 10
-9756586.85629361
 20
5136940.75666748
  0
LWPOLYLINE
  5
20168
  8
0
100
AcDbEntity
100
AcDbPolyline
 70
0
 90
5
 10
-9756552.47825816
 20
5136949.23562365
 10
-9756544.33423883
 20
5136949.55920916
 10
-9756543.81025972
 20
5136942.35594855
 10
-9756552.33727225
 20
5136942.61915228
 10
-9756552.47825816
 20
5136949.23562365
  0
LWPOLYLINE
  5
20169
  8
0
100
AcDbEntity
100
AcDbPolyline
 70
0
 90
5
 10
-9756667.63729021
 20
5136947.24327396
 10
-9756659.69021087
 20
5136947.17940325
 10
-9756659.95078198
 20
5136938.81504477
 10
-9756667.89630247
 20
5136939.07347126
 10
-9756667.63729021
 20
5136947.24327396
  0
LWPOLYLINE
  5
2016A
  8
0
100
AcDbEntity
100
AcDbPolyline
 70
0
 90
5
 10
-9756641.64993743
 20
5136948.78550779
 10
-9756622.07298401
 20
5136948.62810233
 10
-9756621.7567534
 20
5136939.6753996
 10
-9756641.52751959
 20
5136939.83436365
 10
-9756641.64993743
 20
5136948.78550779
  0
LWPOLYLINE
  5
2016B
  8
0
100
AcDbEntity
100
AcDbPolyline
 70
0
 90
5
 10
-9756400.44684272
 20
5136933.68949094
 10
-9756400.37447955
 20
5136942.72964953
 10
-9756390.19325087
 20
5136942.64753612
 10
-9756390.26562363
 20
5136933.60737778
 10
-9756400.44684272
 20
5136933.68949094
  0
LWPOLYLINE
  5
2016C
  8
0
100
AcDbEntity
100
AcDbPolyline
 70
0
 90
7
 10
-9756378.4488268
 20
5136942.15972583
 10
-9756357.04004467
 20
5136942.24904893
 10
-9756356.84614511
 20
5136933.86186861
 10
-9756375.90749462
 20
5136933.49155868
 10
-9756376.02228696
 20
5136935.4578627
 10
-9756378.37389751
 20
5136935.21478288
 10
-9756378.4488268
 20
5136942.15972583
  0
LWPOLYLINE
  5
2016D
  8
0
100
AcDbEntity
100
AcDbPolyline
 70
0
 90
5
 10
-9756417.28815891
 20
5136933.4322194
 10
-9756417.22629674
 20
5136941.16220959
 10
-9756409.39458337
 20
5136941.09906027
 10
-9756409.45645185
 20
5136933.36907025
 10
-9756417.28815891
 20
5136933.4322194
  0
LWPOLYLINE
  5
2016E
  8
0
100
AcDbEntity
100
AcDbPolyline
 70
0
 90
8
 10
-9756455.08272435
 20
5136941.07429
 10
-9756427.01279354
 20
5136941.63418771
 10
-9756426.82512309
 20
5136932.46090837
 10
-9756454.76240264
 20
5136932.161993
 10
-9756456.57408126
 20
5136934.14197073
 10
-9756456.55312177
 20
5136936.76230608
 10
-9756455.36998128
 20
5136937.80097329
 10
-9756455.08272435
 20
5136941.07429
  0
LWPOLYLINE
  5
2016F
  8
0
100
AcDbEntity
100
AcDbPolyline
 70
0
 90
5
 10
-9756534.3280842
 20
5136940.33392997
 10
-9756525.21958132
 20
5136940.06602831
 10
-9756525.2864385
 20
5136931.70012021
 10
-9756534.39648807
 20
5136931.77346556
 10
-9756534.3280842
 20
5136940.33392997
  0
LWPOLYLINE
  5
20170
  8
0
100
AcDbEntity
100
AcDbPolyline
 70
0
 90
12
 10
-9756517.0740141
 20
5136940.58414635
 10
-9756508.15623231
 20
5136940.70690136
 10
-9756507.38868416
 20
5136939.72787698
 10
-9756502.15524733
 20
5136939.68572856
 10
-9756501.17520522
 20
5136941.03981556
 10
-9756488.76846464
 20
5136941.1344515
 10
-9756489.00274007
 20
5136936.07755574
 10
-9756490.74566278
 20
5136936.28616393
 10
-9756490.57516468
 20
5136933.36626306
 10
-9756491.93975817
 20
5136932.40441269
 10
-9756516.56716082
 20
5136931.24077594
 10
-9756517.0740141
 20
5136940.58414635
  0
LWPOLYLINE
  5
20171
  8
0
100
AcDbEntity
100
AcDbPolyline
 70
0
 90
5
 10
-9756551.97292429
 20
5136939.69769033
 10
-9756542.66903589
 20
5136939.62280136
 10
-9756542.3528796
 20
5136930.67010508
 10
-9756551.65675931
 20
5136930.74499419
 10
-9756551.97292429
 20
5136939.69769033
  0
LWPOLYLINE
  5
20172
  8
0
100
AcDbEntity
100
AcDbPolyline
 70
0
 90
7
 10
-9756585.70728969
 20
5136938.99630618
 10
-9756557.79562546
 20
5136938.7717109
 10
-9756557.80805873
 20
5136937.21526245
 10
-9756559.16487548
 20
5136937.22618216
 10
-9756559.21460762
 20
5136931.00039083
 10
-9756585.77098695
 20
5136931.01950989
 10
-9756585.70728969
 20
5136938.99630618
  0
LWPOLYLINE
  5
20173
  8
0
100
AcDbEntity
100
AcDbPolyline
 70
0
 90
5
 10
-9756667.71643881
 20
5136937.32090861
 10
-9756660.54469169
 20
5136937.26326966
 10
-9756660.4005272
 20
5136931.03591924
 10
-9756667.1846079
 20
5136931.09044272
 10
-9756667.71643881
 20
5136937.32090861
  0
LWPOLYLINE
  5
20174
  8
0
100
AcDbEntity
100
AcDbPolyline
 70
0
 90
5
 10
-9756648.32557719
 20
5136938.13789569
 10
-9756623.70593353
 20
5136938.32909341
 10
-9756623.77270483
 20
5136929.96318526
 10
-9756648.58926251
 20
5136929.38443359
 10
-9756648.32557719
 20
5136938.13789569
  0
LWPOLYLINE
  5
20175
  8
0
100
AcDbEntity
100
AcDbPolyline
 70
0
 90
7
 10
-9756379.18224504
 20
5136932.07669927
 10
-9756354.37764775
 20
5136932.40067251
 10
-9756354.40388195
 20
5136929.12525554
 10
-9756356.36180763
 20
5136929.14105473
 10
-9756356.66064049
 20
5136924.42656275
 10
-9756378.85360179
 20
5136924.21254144
 10
-9756379.18224504
 20
5136932.07669927
  0
LWPOLYLINE
  5
20176
  8
0
100
AcDbEntity
100
AcDbPolyline
 70
0
 90
5
 10
-9756416.323619
 20
5136923.46653351
 10
-9756416.26280472
 20
5136931.06549902
 10
-9756408.30057119
 20
5136931.00129651
 10
-9756408.36139177
 20
5136923.40233116
 10
-9756416.323619
 20
5136923.46653351
  0
LWPOLYLINE
  5
20177
  8
0
100
AcDbEntity
100
AcDbPolyline
 70
0
 90
5
 10
-9756452.22205191
 20
5136923.3628379
 10
-9756452.16126606
 20
5136930.96180385
 10
-9756424.22818366
 20
5136930.73664479
 10
-9756424.28899163
 20
5136923.13767942
 10
-9756452.22205191
 20
5136923.3628379
  0
LWPOLYLINE
  5
20178
  8
0
100
AcDbEntity
100
AcDbPolyline
 70
0
 90
11
 10
-9756514.25052114
 20
5136930.05471059
 10
-9756490.98615908
 20
5136930.45104708
 10
-9756490.60471955
 20
5136929.66970093
 10
-9756489.8293964
 20
5136929.66345555
 10
-9756490.04189354
 20
5136927.33034681
 10
-9756491.78637019
 20
5136927.34439878
 10
-9756491.24532108
 20
5136922.28126488
 10
-9756512.18214061
 20
5136922.06075315
 10
-9756512.16503474
 20
5136924.2008663
 10
-9756514.29717226
 20
5136924.21803592
 10
-9756514.25052114
 20
5136930.05471059
  0
LWPOLYLINE
  5
20179
  8
0
100
AcDbEntity
100
AcDbPolyline
 70
0
 90
5
 10
-9756590.8261239
 20
5136929.11449389
 10
-9756565.8203961
 20
5136929.10786755
 10
-9756565.69649507
 20
5136920.35129707
 10
-9756591.2867989
 20
5136919.97348995
 10
-9756590.8261239
 20
5136929.11449389
  0
LWPOLYLINE
  5
2017A
  8
0
100
AcDbEntity
100
AcDbPolyline
 70
0
 90
5
 10
-9756551.66453071
 20
5136929.7722147
 10
-9756542.16993008
 20
5136929.30665356
 10
-9756542.6353148
 20
5136919.5819852
 10
-9756551.35769195
 20
5136919.65219357
 10
-9756551.66453071
 20
5136929.7722147
  0
LWPOLYLINE
  5
2017B
  8
0
100
AcDbEntity
100
AcDbPolyline
 70
0
 90
5
 10
-9756667.02491975
 20
5136926.80865485
 10
-9756657.7194897
 20
5136926.92843434
 10
-9756657.3970178
 20
5136918.75397535
 10
-9756667.08854925
 20
5136918.83186739
 10
-9756667.02491975
 20
5136926.80865485
  0
LWPOLYLINE
  5
2017C
  8
0
100
AcDbEntity
100
AcDbPolyline
 70
0
 90
5
 10
-9756651.31996911
 20
5136927.26613206
 10
-9756625.73119937
 20
5136927.4495447
 10
-9756625.79331042
 20
5136919.66731305
 10
-9756650.80367203
 20
5136919.09011454
 10
-9756651.31996911
 20
5136927.26613206
  0
LWPOLYLINE
  5
2017D
  8
0
100
AcDbEntity
100
AcDbPolyline
 70
0
 90
5
 10
-9756399.30726135
 20
5136912.97834313
 10
-9756399.23804372
 20
5136921.62543263
 10
-9756390.36212029
 20
5136921.55384648
 10
-9756390.43134592
 20
5136912.90675719
 10
-9756399.30726135
 20
5136912.97834313
  0
LWPOLYLINE
  5
2017E
  8
0
100
AcDbEntity
100
AcDbPolyline
 70
0
 90
5
 10
-9756377.36908804
 20
5136913.98061677
 10
-9756377.3050959
 20
5136921.97262396
 10
-9756356.02898579
 20
5136921.80096491
 10
-9756356.09299565
 20
5136913.80895819
 10
-9756377.36908804
 20
5136913.98061677
  0
LWPOLYLINE
  5
2017F
  8
0
100
AcDbEntity
100
AcDbPolyline
 70
0
 90
5
 10
-9756417.32014922
 20
5136913.12359506
 10
-9756417.24780229
 20
5136922.1637347
 10
-9756407.58870829
 20
5136922.08584998
 10
-9756407.66106431
 20
5136913.04571058
 10
-9756417.32014922
 20
5136913.12359506
  0
LWPOLYLINE
  5
20180
  8
0
100
AcDbEntity
100
AcDbPolyline
 70
0
 90
8
 10
-9756454.06412053
 20
5136921.54333277
 10
-9756429.52375266
 20
5136921.47655576
 10
-9756429.592943
 20
5136912.8294659
 10
-9756453.74275222
 20
5136912.76207021
 10
-9756455.4312347
 20
5136913.82387686
 10
-9756455.55023508
 20
5136915.26611009
 10
-9756453.96712843
 20
5136917.34975124
 10
-9756454.06412053
 20
5136921.54333277
  0
LWPOLYLINE
  5
20181
  8
0
100
AcDbEntity
100
AcDbPolyline
 70
0
 90
5
 10
-9756399.00377216
 20
5136901.96980966
 10
-9756398.93140817
 20
5136911.00993857
 10
-9756390.1860227
 20
5136910.93940511
 10
-9756390.25839493
 20
5136901.89927642
 10
-9756399.00377216
 20
5136901.96980966
  0
LWPOLYLINE
  5
20182
  8
0
100
AcDbEntity
100
AcDbPolyline
 70
0
 90
5
 10
-9756380.45620574
 20
5136903.39250742
 10
-9756380.3890693
 20
5136911.77755518
 10
-9756355.98030629
 20
5136911.58062554
 10
-9756356.04746406
 20
5136903.19557834
 10
-9756380.45620574
 20
5136903.39250742
  0
LWPOLYLINE
  5
20183
  8
0
100
AcDbEntity
100
AcDbPolyline
 70
0
 90
5
 10
-9756417.14192487
 20
5136902.77119577
 10
-9756417.07796601
 20
5136910.76319429
 10
-9756408.07152418
 20
5136910.6905724
 10
-9756408.13549054
 20
5136902.69857407
 10
-9756417.14192487
 20
5136902.77119577
  0
LWPOLYLINE
  5
20184
  8
0
100
AcDbEntity
100
AcDbPolyline
 70
0
 90
5
 10
-9756451.74757634
 20
5136901.08478134
 10
-9756451.67526205
 20
5136910.12491032
 10
-9756425.96121861
 20
5136909.91764042
 10
-9756426.03355712
 20
5136900.87751207
 10
-9756451.74757634
 20
5136901.08478134
  0
LWPOLYLINE
  5
20185
  8
0
100
AcDbEntity
100
AcDbPolyline
 70
0
 90
5
 10
-9756377.5327393
 20
5136893.54207106
 10
-9756377.46769855
 20
5136901.66507765
 10
-9756352.40632139
 20
5136901.46287444
 10
-9756352.47138335
 20
5136893.33986841
 10
-9756377.5327393
 20
5136893.54207106
  0
LWPOLYLINE
  5
20186
  8
0
100
AcDbEntity
100
AcDbPolyline
 70
0
 90
5
 10
-9756398.81717764
 20
5136892.66555151
 10
-9756398.75634994
 20
5136900.26449256
 10
-9756390.53308624
 20
5136900.1981703
 10
-9756390.59392045
 20
5136892.59922941
 10
-9756398.81717764
 20
5136892.66555151
  0
LWPOLYLINE
  5
20187
  8
0
100
AcDbEntity
100
AcDbPolyline
 70
0
 90
12
 10
-9756454.62757675
 20
5136900.05979349
 10
-9756430.08621547
 20
5136900.12403492
 10
-9756430.14492172
 20
5136892.78712589
 10
-9756442.41873741
 20
5136892.36196438
 10
-9756444.25975372
 20
5136890.6734831
 10
-9756446.34819977
 20
5136890.6903157
 10
-9756447.90510158
 20
5136891.88208536
 10
-9756454.82622403
 20
5136891.54479046
 10
-9756456.37788721
 20
5136893.39163981
 10
-9756456.22639992
 20
5136896.01091223
 10
-9756454.65272855
 20
5136896.9154031
 10
-9756454.62757675
 20
5136900.05979349
  0
LWPOLYLINE
  5
20188
  8
0
100
AcDbEntity
100
AcDbPolyline
 70
0
 90
13
 10
-9756423.6903434
 20
5136900.07247259
 10
-9756422.64716783
 20
5136899.93303757
 10
-9756422.64087726
 20
5136900.71913526
 10
-9756419.50820506
 20
5136900.69387833
 10
-9756419.50191423
 20
5136901.47997609
 10
-9756406.71331459
 20
5136900.98378401
 10
-9756406.91829625
 20
5136891.68268458
 10
-9756419.31844525
 20
5136891.78267009
 10
-9756419.30586358
 20
5136893.35486423
 10
-9756422.70168605
 20
5136893.12019351
 10
-9756422.93653128
 20
5136896.3977034
 10
-9756423.85022694
 20
5136896.40506978
 10
-9756423.6903434
 20
5136900.07247259
  0
LWPOLYLINE
  5
20189
  8
0
100
AcDbEntity
100
AcDbPolyline
 70
0
 90
5
 10
-9756398.87372279
 20
5136882.44019831
 10
-9756398.81280167
 20
5136890.05082594
 10
-9756388.41426452
 20
5136889.96695864
 10
-9756388.47519389
 20
5136882.35633123
 10
-9756398.87372279
 20
5136882.44019831
  0
LWPOLYLINE
  5
2018A
  8
0
100
AcDbEntity
100
AcDbPolyline
 70
0
 90
5
 10
-9756378.93450406
 20
5136883.3666752
 10
-9756378.87356711
 20
5136890.97730327
 10
-9756356.77667474
 20
5136890.79902542
 10
-9756356.8376292
 20
5136883.18839781
 10
-9756378.93450406
 20
5136883.3666752
  0
LWPOLYLINE
  5
2018B
  8
0
100
AcDbEntity
100
AcDbPolyline
 70
0
 90
9
 10
-9756453.66300104
 20
5136890.09414543
 10
-9756407.45194275
 20
5136890.24571714
 10
-9756407.51590932
 20
5136882.25373572
 10
-9756417.96022676
 20
5136882.07590221
 10
-9756418.33188884
 20
5136884.56836442
 10
-9756424.33616714
 20
5136884.6167732
 10
-9756424.09922487
 20
5136881.60129939
 10
-9756453.60164136
 20
5136881.44603132
 10
-9756453.66300104
 20
5136890.09414543
  0
LWPOLYLINE
  5
2018C
  8
0
100
AcDbEntity
100
AcDbPolyline
 70
0
 90
5
 10
-9756667.15389128
 20
5136886.33956043
 10
-9756659.59297024
 20
5136886.47336106
 10
-9756659.26584152
 20
5136878.88260102
 10
-9756666.63603062
 20
5136878.35813317
 10
-9756667.15389128
 20
5136886.33956043
  0
LWPOLYLINE
  5
2018D
  8
0
100
AcDbEntity
100
AcDbPolyline
 70
0
 90
5
 10
-9756398.73193271
 20
5136873.08825974
 10
-9756398.66927101
 20
5136880.91632638
 10
-9756390.00383162
 20
5136880.84643778
 10
-9756390.06650039
 20
5136873.01837132
 10
-9756398.73193271
 20
5136873.08825974
  0
LWPOLYLINE
  5
2018E
  8
0
100
AcDbEntity
100
AcDbPolyline
 70
0
 90
9
 10
-9756376.08704658
 20
5136878.4625864
 10
-9756374.78176964
 20
5136878.45205648
 10
-9756374.49448723
 20
5136881.7253504
 10
-9756352.95846037
 20
5136881.42056408
 10
-9756352.72363937
 20
5136878.14305779
 10
-9756357.55526235
 20
5136877.91999685
 10
-9756357.59828409
 20
5136872.54834384
 10
-9756376.13215607
 20
5136872.82890109
 10
-9756376.08704658
 20
5136878.4625864
  0
LWPOLYLINE
  5
2018F
  8
0
100
AcDbEntity
100
AcDbPolyline
 70
0
 90
9
 10
-9756454.26685605
 20
5136879.87909861
 10
-9756444.47727619
 20
5136879.80020015
 10
-9756444.35827786
 20
5136878.35797209
 10
-9756440.96455741
 20
5136878.33061825
 10
-9756440.68463481
 20
5136880.68680216
 10
-9756427.10975001
 20
5136880.57737423
 10
-9756427.31051784
 20
5136871.80035736
 10
-9756454.20130384
 20
5136871.75505723
 10
-9756454.26685605
 20
5136879.87909861
  0
LWPOLYLINE
  5
20190
  8
0
100
AcDbEntity
100
AcDbPolyline
 70
0
 90
5
 10
-9756399.03559815
 20
5136862.21770256
 10
-9756398.97293685
 20
5136870.04576042
 10
-9756388.79105712
 20
5136869.96364103
 10
-9756388.85372672
 20
5136862.1355834
 10
-9756399.03559815
 20
5136862.21770256
  0
LWPOLYLINE
  5
20191
  8
0
100
AcDbEntity
100
AcDbPolyline
 70
0
 90
5
 10
-9756378.01498464
 20
5136862.91799448
 10
-9756377.95230619
 20
5136870.74605259
 10
-9756353.90573881
 20
5136870.55204047
 10
-9756353.96843687
 20
5136862.72398288
 10
-9756378.01498464
 20
5136862.91799448
  0
LWPOLYLINE
  5
20192
  8
0
100
AcDbEntity
100
AcDbPolyline
 70
0
 90
5
 10
-9756416.59004014
 20
5136861.4894177
 10
-9756416.52391277
 20
5136869.75236749
 10
-9756406.99194022
 20
5136869.67550766
 10
-9756407.05807579
 20
5136861.41255808
 10
-9756416.59004014
 20
5136861.4894177
  0
LWPOLYLINE
  5
20193
  8
0
100
AcDbEntity
100
AcDbPolyline
 70
0
 90
7
 10
-9756450.82749837
 20
5136869.2384051
 10
-9756423.54408834
 20
5136869.41155464
 10
-9756423.57973422
 20
5136864.95701627
 10
-9756427.23555323
 20
5136864.85546498
 10
-9756427.26700393
 20
5136860.92499166
 10
-9756450.8945726
 20
5136860.85339311
 10
-9756450.82749837
 20
5136869.2384051
  0
LWPOLYLINE
  5
20194
  8
0
100
AcDbEntity
100
AcDbPolyline
 70
0
 90
5
 10
-9756398.4674997
 20
5136851.99250638
 10
-9756398.40483809
 20
5136859.82055594
 10
-9756388.65624022
 20
5136859.74193083
 10
-9756388.71890979
 20
5136851.91388147
 10
-9756398.4674997
 20
5136851.99250638
  0
LWPOLYLINE
  5
20195
  8
0
100
AcDbEntity
100
AcDbPolyline
 70
0
 90
13
 10
-9756377.93286922
 20
5136859.87202431
 10
-9756375.19284201
 20
5136859.71889617
 10
-9756375.18340041
 20
5136860.89803774
 10
-9756355.08217281
 20
5136860.73585588
 10
-9756354.95689208
 20
5136860.07972398
 10
-9756353.52213961
 20
5136859.9371222
 10
-9756353.66945681
 20
5136857.84192421
 10
-9756355.75894469
 20
5136857.72776085
 10
-9756355.80196723
 20
5136852.35611907
 10
-9756374.73157844
 20
5136852.11577535
 10
-9756374.59580574
 20
5136852.76980047
 10
-9756377.72951106
 20
5136852.66405626
 10
-9756377.93286922
 20
5136859.87202431
  0
LWPOLYLINE
  5
20196
  8
0
100
AcDbEntity
100
AcDbPolyline
 70
0
 90
5
 10
-9756415.36853661
 20
5136851.69387444
 10
-9756415.30936922
 20
5136859.08703221
 10
-9756407.51049125
 20
5136859.02414676
 10
-9756407.56966464
 20
5136851.63098916
 10
-9756415.36853661
 20
5136851.69387444
  0
LWPOLYLINE
  5
20197
  8
0
100
AcDbEntity
100
AcDbPolyline
 70
0
 90
5
 10
-9756450.05948359
 20
5136851.01985274
 10
-9756449.99240878
 20
5136859.40485619
 10
-9756425.9753581
 20
5136859.21126419
 10
-9756426.04245388
 20
5136850.82626129
 10
-9756450.05948359
 20
5136851.01985274
  0
LWPOLYLINE
  5
20198
  8
0
100
AcDbEntity
100
AcDbPolyline
 70
0
 90
5
 10
-9756397.03808382
 20
5136841.10799599
 10
-9756396.97193995
 20
5136849.37092806
 10
-9756388.52316433
 20
5136849.30278576
 10
-9756388.58931548
 20
5136841.03985388
 10
-9756397.03808382
 20
5136841.10799599
  0
LWPOLYLINE
  5
20199
  8
0
100
AcDbEntity
100
AcDbPolyline
 70
0
 90
5
 10
-9756376.44556338
 20
5136842.46411416
 10
-9756376.37940175
 20
5136850.72704706
 10
-9756351.89961404
 20
5136850.52953556
 10
-9756351.96579674
 20
5136842.26660321
 10
-9756376.44556338
 20
5136842.46411416
  0
LWPOLYLINE
  5
2019A
  8
0
100
AcDbEntity
100
AcDbPolyline
 70
0
 90
7
 10
-9756450.59626544
 20
5136849.18984204
 10
-9756419.78867505
 20
5136849.3345776
 10
-9756419.94226833
 20
5136846.45328739
 10
-9756417.72330474
 20
5136846.43539677
 10
-9756417.63995922
 20
5136840.53864632
 10
-9756450.40752533
 20
5136840.14766614
 10
-9756450.59626544
 20
5136849.18984204
  0
LWPOLYLINE
  5
2019B
  8
0
100
AcDbEntity
100
AcDbPolyline
 70
0
 90
7
 10
-9756382.13656551
 20
5136840.25232614
 10
-9756349.89110732
 20
5136840.64728479
 10
-9756349.9215401
 20
5136836.84783729
 10
-9756351.6183927
 20
5136836.86153044
 10
-9756351.65617044
 20
5136832.14497698
 10
-9756382.07631913
 20
5136831.47324145
 10
-9756382.13656551
 20
5136840.25232614
  0
LWPOLYLINE
  5
2019C
  8
0
100
AcDbEntity
100
AcDbPolyline
 70
0
 90
5
 10
-9756450.2023947
 20
5136830.44618168
 10
-9756450.13281792
 20
5136839.14399639
 10
-9756422.83680067
 20
5136838.92397022
 10
-9756422.90640219
 20
5136830.22615615
 10
-9756450.2023947
 20
5136830.44618168
  0
LWPOLYLINE
  5
2019D
  8
0
100
AcDbEntity
100
AcDbPolyline
 70
0
 90
7
 10
-9756398.68681538
 20
5136827.41445384
 10
-9756384.19936695
 20
5136827.16658217
 10
-9756384.08981869
 20
5136824.54522401
 10
-9756385.5266642
 20
5136824.42579012
 10
-9756385.43809394
 20
5136819.18412887
 10
-9756397.84234376
 20
5136818.76007994
 10
-9756398.68681538
 20
5136827.41445384
  0
LWPOLYLINE
  5
2019E
  8
0
100
AcDbEntity
100
AcDbPolyline
 70
0
 90
7
 10
-9756379.34783898
 20
5136829.87894643
 10
-9756349.58767628
 20
5136829.63883269
 10
-9756349.48233509
 20
5136826.49341249
 10
-9756351.44023982
 20
5136826.50921231
 10
-9756351.47906694
 20
5136821.6616487
 10
-9756379.41602404
 20
5136821.3629545
 10
-9756379.34783898
 20
5136829.87894643
  0
LWPOLYLINE
  5
2019F
  8
0
100
AcDbEntity
100
AcDbPolyline
 70
0
 90
9
 10
-9756450.76080629
 20
5136828.62041512
 10
-9756406.11741707
 20
5136828.65359031
 10
-9756406.17823792
 20
5136821.05470542
 10
-9756415.83827873
 20
5136821.00157452
 10
-9756415.85820026
 20
5136818.51228591
 10
-9756431.52142728
 20
5136818.63856386
 10
-9756431.51618585
 20
5136819.29363978
 10
-9756450.96783907
 20
5136819.05735352
 10
-9756450.76080629
 20
5136828.62041512
  0
LWPOLYLINE
  5
201A0
  8
0
100
AcDbEntity
100
AcDbPolyline
 70
0
 90
18
 10
-9756289.75487988
 20
5136801.22989825
 10
-9756280.50929497
 20
5136800.92022128
 10
-9756280.38633218
 20
5136787.05399424
 10
-9756282.72746006
 20
5136787.07290342
 10
-9756282.75100808
 20
5136784.13554661
 10
-9756280.52787921
 20
5136784.00008867
 10
-9756280.26807928
 20
5136772.6003165
 10
-9756283.54471148
 20
5136772.74428327
 10
-9756285.08057067
 20
5136770.99416216
 10
-9756286.95252799
 20
5136771.12678267
 10
-9756288.57718712
 20
5136772.90242961
 10
-9756288.41680586
 20
5136778.30621523
 10
-9756290.15852277
 20
5136780.08280861
 10
-9756290.08694369
 20
5136789.01237245
 10
-9756288.90319365
 20
5136790.64783938
 10
-9756288.85327575
 20
5136796.87504114
 10
-9756289.78972787
 20
5136796.88260407
 10
-9756289.75487988
 20
5136801.22989825
  0
LWPOLYLINE
  5
201A1
  8
0
100
AcDbEntity
100
AcDbPolyline
 70
0
 90
5
 10
-9756299.54431273
 20
5136806.71405053
 10
-9756299.47745055
 20
5136815.05616594
 10
-9756291.40053561
 20
5136814.9909406
 10
-9756291.46740481
 20
5136806.64882538
 10
-9756299.54431273
 20
5136806.71405053
  0
LWPOLYLINE
  5
201A2
  8
0
100
AcDbEntity
100
AcDbPolyline
 70
0
 90
18
 10
-9756297.10307484
 20
5136804.57929878
 10
-9756290.1986185
 20
5136804.28853622
 10
-9756290.52974007
 20
5136792.1885009
 10
-9756292.87086925
 20
5136792.20740761
 10
-9756294.28967347
 20
5136790.45633619
 10
-9756294.30380017
 20
5136788.69392134
 10
-9756290.55893668
 20
5136788.54617661
 10
-9756290.45197034
 20
5136772.6825671
 10
-9756294.19776943
 20
5136772.71281746
 10
-9756295.73174318
 20
5136771.19768282
 10
-9756299.24531274
 20
5136770.99105242
 10
-9756299.00959993
 20
5136785.79437491
 10
-9756299.82240262
 20
5136786.62345157
 10
-9756299.7367067
 20
5136797.31543773
 10
-9756296.45724056
 20
5136797.52395934
 10
-9756296.42898788
 20
5136801.04879259
 10
-9756297.13132729
 20
5136801.05446424
 10
-9756297.10307484
 20
5136804.57929878
  0
LWPOLYLINE
  5
201A3
  8
0
100
AcDbEntity
100
AcDbPolyline
 70
0
 90
5
 10
-9756310.83387693
 20
5136771.08462395
 10
-9756310.47419312
 20
5136815.96747512
 10
-9756300.52436924
 20
5136815.88713555
 10
-9756300.88409957
 20
5136771.00428561
 10
-9756310.83387693
 20
5136771.08462395
  0
LWPOLYLINE
  5
201A4
  8
0
100
AcDbEntity
100
AcDbPolyline
 70
0
 90
9
 10
-9756321.01024251
 20
5136815.93503455
 10
-9756311.29547355
 20
5136815.73910156
 10
-9756311.13197849
 20
5136806.92511702
 10
-9756315.69907063
 20
5136806.72698575
 10
-9756315.74520516
 20
5136800.96975519
 10
-9756311.17905733
 20
5136801.05039191
 10
-9756311.30116018
 20
5136771.20589843
 10
-9756321.13482318
 20
5136771.16778682
 10
-9756321.01024251
 20
5136815.93503455
  0
LWPOLYLINE
  5
201A5
  8
0
100
AcDbEntity
100
AcDbPolyline
 70
0
 90
5
 10
-9756415.48428093
 20
5136810.16008182
 10
-9756415.42511421
 20
5136817.55320783
 10
-9756406.10982808
 20
5136817.47809476
 10
-9756406.16900197
 20
5136810.08496894
 10
-9756415.48428093
 20
5136810.16008182
  0
LWPOLYLINE
  5
201A6
  8
0
100
AcDbEntity
100
AcDbPolyline
 70
0
 90
7
 10
-9756424.76075869
 20
5136798.93053779
 10
-9756406.08657243
 20
5136798.90923992
 10
-9756405.51992195
 20
5136772.8328097
 10
-9756414.26518184
 20
5136772.9033268
 10
-9756414.63054797
 20
5136776.18184852
 10
-9756424.67897747
 20
5136776.52490954
 10
-9756424.76075869
 20
5136798.93053779
  0
LWPOLYLINE
  5
201A7
  8
0
100
AcDbEntity
100
AcDbPolyline
 70
0
 90
4
 10
-9756406.0923059
 20
5136799.17308579
 10
-9756405.83334992
 20
5136798.90895087
 10
-9756406.08657243
 20
5136798.90923992
 10
-9756406.0923059
 20
5136799.17308579
  0
LWPOLYLINE
  5
201A8
  8
0
100
AcDbEntity
100
AcDbPolyline
 70
0
 90
5
 10
-9756444.40879468
 20
5136769.29362099
 10
-9756444.17917648
 20
5136797.99625739
 10
-9756433.78073818
 20
5136797.91244143
 10
-9756434.01038748
 20
5136769.20980583
 10
-9756444.40879468
 20
5136769.29362099
  0
LWPOLYLINE
  5
201A9
  8
0
100
AcDbEntity
100
AcDbPolyline
 70
0
 90
5
 10
-9756668.42588031
 20
5137089.79226376
 10
-9756668.3658212
 20
5137097.32142025
 10
-9756660.74931932
 20
5137097.26020591
 10
-9756660.80938441
 20
5137089.73104958
 10
-9756668.42588031
 20
5137089.79226376
  0
LWPOLYLINE
  5
201AA
  8
0
100
AcDbEntity
100
AcDbPolyline
 70
0
 90
7
 10
-9756653.12357589
 20
5137098.35731772
 10
-9756624.15501342
 20
5137098.47193856
 10
-9756624.10710194
 20
5137090.01518879
 10
-9756648.34417936
 20
5137089.86253404
 10
-9756648.6552632
 20
5137094.26697696
 10
-9756652.92696721
 20
5137094.06963387
 10
-9756653.12357589
 20
5137098.35731772
  0
LWPOLYLINE
  5
201AB
  8
0
100
AcDbEntity
100
AcDbPolyline
 70
0
 90
5
 10
-9756268.6562738
 20
5137085.17674215
 10
-9756268.59163051
 20
5137093.23848441
 10
-9756260.33682598
 20
5137093.17179327
 10
-9756260.40147621
 20
5137085.11005119
 10
-9756268.6562738
 20
5137085.17674215
  0
LWPOLYLINE
  5
201AC
  8
0
100
AcDbEntity
100
AcDbPolyline
 70
0
 90
5
 10
-9756244.93464863
 20
5137094.05512239
 10
-9756219.27512812
 20
5137094.183658
 10
-9756219.0060573
 20
5137086.00724183
 10
-9756244.88955669
 20
5137085.76854116
 10
-9756244.93464863
 20
5137094.05512239
  0
LWPOLYLINE
  5
201AD
  8
0
100
AcDbEntity
100
AcDbPolyline
 70
0
 90
15
 10
-9756731.05194615
 20
5137094.92898556
 10
-9756727.70437854
 20
5137095.01794435
 10
-9756727.80316121
 20
5137097.10386902
 10
-9756700.10309461
 20
5137097.34474798
 10
-9756700.25821106
 20
5137092.36484747
 10
-9756698.41271081
 20
5137092.23418122
 10
-9756698.44596124
 20
5137088.06418809
 10
-9756708.60313511
 20
5137087.91409926
 10
-9756708.59759411
 20
5137088.60909799
 10
-9756715.17640017
 20
5137088.546099
 10
-9756715.87804299
 20
5137087.39332902
 10
-9756727.99704047
 20
5137087.25897602
 10
-9756728.10136274
 20
5137088.64990021
 10
-9756730.52479327
 20
5137088.66936099
 10
-9756731.05194615
 20
5137094.92898556
  0
LWPOLYLINE
  5
201AE
  8
0
100
AcDbEntity
100
AcDbPolyline
 70
0
 90
9
 10
-9756323.68876034
 20
5137080.91818497
 10
-9756300.93050457
 20
5137080.95838566
 10
-9756300.26837652
 20
5137080.05723244
 10
-9756297.03428728
 20
5137079.91913987
 10
-9756297.0971115
 20
5137072.08134518
 10
-9756300.88985144
 20
5137072.11197316
 10
-9756300.9140824
 20
5137069.08882544
 10
-9756323.45100209
 20
5137068.82288665
 10
-9756323.68876034
 20
5137080.91818497
  0
LWPOLYLINE
  5
201AF
  8
0
100
AcDbEntity
100
AcDbPolyline
 70
0
 90
9
 10
-9756291.52968048
 20
5137084.68964517
 10
-9756291.24733894
 20
5137092.07777344
 10
-9756288.0123482
 20
5137092.05164627
 10
-9756287.88015201
 20
5137094.62602529
 10
-9756286.2068805
 20
5137094.61251077
 10
-9756285.93710124
 20
5137100.43308342
 10
-9756276.78987826
 20
5137100.35919854
 10
-9756276.581804
 20
5137084.56891112
 10
-9756291.52968048
 20
5137084.68964517
  0
LWPOLYLINE
  5
201B0
  8
0
100
AcDbEntity
100
AcDbPolyline
 70
0
 90
9
 10
-9756325.14849253
 20
5137065.8132477
 10
-9756286.43038672
 20
5137066.73234247
 10
-9756286.7679806
 20
5137080.28413055
 10
-9756278.73628946
 20
5137080.21925749
 10
-9756278.86938557
 20
5137077.53291395
 10
-9756276.75080987
 20
5137077.40382508
 10
-9756275.78947604
 20
5137044.25129174
 10
-9756324.55155357
 20
5137042.85345272
 10
-9756325.14849253
 20
5137065.8132477
  0
LWPOLYLINE
  5
201B1
  8
0
100
AcDbEntity
100
AcDbPolyline
 70
0
 90
5
 10
-9756658.46912335
 20
5137079.28659512
 10
-9756658.40166373
 20
5137087.74240808
 10
-9756627.0124768
 20
5137087.49005939
 10
-9756627.07996407
 20
5137079.03424715
 10
-9756658.46912335
 20
5137079.28659512
  0
LWPOLYLINE
  5
201B2
  8
0
100
AcDbEntity
100
AcDbPolyline
 70
0
 90
7
 10
-9756247.69540302
 20
5137083.66367409
 10
-9756219.6915363
 20
5137083.99721788
 10
-9756219.82734417
 20
5137080.97496867
 10
-9756218.71272997
 20
5137080.85398255
 10
-9756218.75225971
 20
5137075.92736826
 10
-9756247.87071687
 20
5137075.71481004
 10
-9756247.69540302
 20
5137083.66367409
  0
LWPOLYLINE
  5
201B3
  8
0
100
AcDbEntity
100
AcDbPolyline
 70
0
 90
6
 10
-9756730.36415636
 20
5137079.86419361
 10
-9756677.26845342
 20
5137080.82776501
 10
-9756677.0442013
 20
5137065.53503566
 10
-9756729.91032248
 20
5137064.46031821
 10
-9756730.1130458
 20
5137067.93061921
 10
-9756730.36415636
 20
5137079.86419361
  0
LWPOLYLINE
  5
201B4
  8
0
100
AcDbEntity
100
AcDbPolyline
 70
0
 90
4
 10
-9756730.14074286
 20
5137064.45563334
 10
-9756729.91032248
 20
5137064.46031821
 10
-9756729.90994054
 20
5137064.45377996
 10
-9756730.14074286
 20
5137064.45563334
  0
LWPOLYLINE
  5
201B5
  8
0
100
AcDbEntity
100
AcDbPolyline
 70
0
 90
5
 10
-9756668.93285681
 20
5137069.64010216
 10
-9756668.87372236
 20
5137077.05340998
 10
-9756659.64161838
 20
5137076.97921085
 10
-9756659.70075996
 20
5137069.56590322
 10
-9756668.93285681
 20
5137069.64010216
  0
LWPOLYLINE
  5
201B6
  8
0
100
AcDbEntity
100
AcDbPolyline
 70
0
 90
7
 10
-9756645.21183506
 20
5137077.44242167
 10
-9756628.82115288
 20
5137077.77400324
 10
-9756628.7686149
 20
5137069.89643596
 10
-9756646.19789449
 20
5137069.57320403
 10
-9756646.17109125
 20
5137072.93235826
 10
-9756645.01707878
 20
5137072.92308112
 10
-9756645.21183506
 20
5137077.44242167
  0
LWPOLYLINE
  5
201B7
  8
0
100
AcDbEntity
100
AcDbPolyline
 70
0
 90
5
 10
-9756268.64078942
 20
5137073.19520864
 10
-9756216.31071131
 20
5137074.3399706
 10
-9756216.04883086
 20
5137065.26782428
 10
-9756268.48951276
 20
5137064.23593386
 10
-9756268.64078942
 20
5137073.19520864
  0
LWPOLYLINE
  5
201B8
  8
0
100
AcDbEntity
100
AcDbPolyline
 70
0
 90
5
 10
-9756669.60225946
 20
5137058.06145719
 10
-9756669.52741826
 20
5137067.44391463
 10
-9756658.67970695
 20
5137067.35673067
 10
-9756658.75455876
 20
5137057.9742735
 10
-9756669.60225946
 20
5137058.06145719
  0
LWPOLYLINE
  5
201B9
  8
0
100
AcDbEntity
100
AcDbPolyline
 70
0
 90
13
 10
-9756649.6082998
 20
5137061.60764112
 10
-9756649.90182356
 20
5137068.21289539
 10
-9756640.66695547
 20
5137068.48617662
 10
-9756640.79622137
 20
5137066.7496115
 10
-9756639.18245364
 20
5137066.50495687
 10
-9756638.59435572
 20
5137067.89031215
 10
-9756623.2423004
 20
5137068.23023408
 10
-9756623.15648407
 20
5137064.52265518
 10
-9756628.00240754
 20
5137064.67746211
 10
-9756627.9304564
 20
5137059.23239309
 10
-9756647.6649655
 20
5137059.27521514
 10
-9756647.53200403
 20
5137061.47511017
 10
-9756649.6082998
 20
5137061.60764112
  0
LWPOLYLINE
  5
201BA
  8
0
100
AcDbEntity
100
AcDbPolyline
 70
0
 90
5
 10
-9756268.49579749
 20
5137063.45215542
 10
-9756216.39426522
 20
5137063.9269095
 10
-9756216.35908049
 20
5137054.40870361
 10
-9756268.57211204
 20
5137053.93485085
 10
-9756268.49579749
 20
5137063.45215542
  0
LWPOLYLINE
  5
201BB
  8
0
100
AcDbEntity
100
AcDbPolyline
 70
0
 90
5
 10
-9756687.9435066
 20
5137088.09565138
 10
-9756687.87145405
 20
5137097.13063861
 10
-9756677.36991344
 20
5137097.04625694
 10
-9756677.44197588
 20
5137088.01126997
 10
-9756687.9435066
 20
5137088.09565138
  0
LWPOLYLINE
  5
201BC
  8
0
100
AcDbEntity
100
AcDbPolyline
 70
0
 90
13
 10
-9756654.14498506
 20
5137057.12634112
 10
-9756623.44553124
 20
5137057.2270463
 10
-9756621.83916191
 20
5137056.05572721
 10
-9756621.86597355
 20
5137052.69657899
 10
-9756623.03015331
 20
5137051.43169952
 10
-9756621.7653652
 20
5137050.84232834
 10
-9756621.55397863
 20
5137048.40798689
 10
-9756637.3666817
 20
5137048.18761193
 10
-9756639.3183302
 20
5137049.47754346
 10
-9756641.28014658
 20
5137049.4933156
 10
-9756641.29585975
 20
5137047.52416088
 10
-9756654.34078695
 20
5137047.04982584
 10
-9756654.14498506
 20
5137057.12634112
  0
LWPOLYLINE
  5
201BD
  8
0
100
AcDbEntity
100
AcDbPolyline
 70
0
 90
5
 10
-9756730.59588732
 20
5137050.79014774
 10
-9756677.0378174
 20
5137051.86584253
 10
-9756676.69354569
 20
5137037.15139415
 10
-9756730.25061025
 20
5137036.19153461
 10
-9756730.59588732
 20
5137050.79014774
  0
LWPOLYLINE
  5
201BE
  8
0
100
AcDbEntity
100
AcDbPolyline
 70
0
 90
9
 10
-9756268.24194827
 20
5137053.37230617
 10
-9756233.09801121
 20
5137053.76017932
 10
-9756233.10878997
 20
5137052.41656072
 10
-9756228.20054901
 20
5137052.37688949
 10
-9756228.18887127
 20
5137053.8324763
 10
-9756215.80491947
 20
5137053.95632176
 10
-9756215.54573515
 20
5137044.54829022
 10
-9756267.98091691
 20
5137044.18821233
 10
-9756268.24194827
 20
5137053.37230617
  0
LWPOLYLINE
  5
201BF
  8
0
100
AcDbEntity
100
AcDbPolyline
 70
0
 90
5
 10
-9756668.26651377
 20
5137037.43119286
 10
-9756668.19813947
 20
5137046.00280197
 10
-9756658.27365982
 20
5137045.92303742
 10
-9756658.34204298
 20
5137037.35142853
 10
-9756668.26651377
 20
5137037.43119286
  0
LWPOLYLINE
  5
201C0
  8
0
100
AcDbEntity
100
AcDbPolyline
 70
0
 90
9
 10
-9756649.28625091
 20
5137044.11319502
 10
-9756645.9396248
 20
5137044.0862922
 10
-9756646.03191956
 20
5137046.98303481
 10
-9756626.64271408
 20
5137047.05882613
 10
-9756626.79509413
 20
5137042.42645075
 10
-9756624.94775563
 20
5137042.52743616
 10
-9756625.1010609
 20
5137037.77923049
 10
-9756649.34077901
 20
5137037.27907521
 10
-9756649.28625091
 20
5137044.11319502
  0
LWPOLYLINE
  5
201C1
  8
0
100
AcDbEntity
100
AcDbPolyline
 70
0
 90
5
 10
-9756254.40343646
 20
5136998.39267087
 10
-9756254.25078101
 20
5137017.42717955
 10
-9756214.87344617
 20
5137017.10892684
 10
-9756215.02617971
 20
5136998.07442021
 10
-9756254.40343646
 20
5136998.39267087
  0
LWPOLYLINE
  5
201C2
  8
0
100
AcDbEntity
100
AcDbPolyline
 70
0
 90
7
 10
-9756319.18575609
 20
5137016.38398597
 10
-9756317.17964102
 20
5137016.1438398
 10
-9756317.07616567
 20
5137015.13522899
 10
-9756295.32022566
 20
5137015.40745851
 10
-9756295.28047487
 20
5137006.44913832
 10
-9756318.82209839
 20
5137006.07935064
 10
-9756319.18575609
 20
5137016.38398597
  0
LWPOLYLINE
  5
201C3
  8
0
100
AcDbEntity
100
AcDbPolyline
 70
0
 90
7
 10
-9756287.84634124
 20
5137015.34709837
 10
-9756284.61227401
 20
5137015.20900274
 10
-9756284.59611682
 20
5137017.22442315
 10
-9756275.33832037
 20
5137017.03766951
 10
-9756275.31205417
 20
5137006.3998325
 10
-9756287.91455751
 20
5137006.83754997
 10
-9756287.84634124
 20
5137015.34709837
  0
LWPOLYLINE
  5
201C4
  8
0
100
AcDbEntity
100
AcDbPolyline
 70
0
 90
5
 10
-9756670.18056129
 20
5137000.03035007
 10
-9756670.10110192
 20
5137009.99191208
 10
-9756660.06125898
 20
5137009.91122265
 10
-9756660.14072876
 20
5136999.94966092
 10
-9756670.18056129
 20
5137000.03035007
  0
LWPOLYLINE
  5
201C5
  8
0
100
AcDbEntity
100
AcDbPolyline
 70
0
 90
5
 10
-9756317.45538597
 20
5136995.65465346
 10
-9756317.38270989
 20
5137004.72403085
 10
-9756290.94526715
 20
5137004.51055357
 10
-9756291.01796821
 20
5136995.44117683
 10
-9756317.45538597
 20
5136995.65465346
  0
LWPOLYLINE
  5
201C6
  8
0
100
AcDbEntity
100
AcDbPolyline
 70
0
 90
5
 10
-9756686.91176861
 20
5137000.39647261
 10
-9756686.83509784
 20
5137010.01053877
 10
-9756677.60305804
 20
5137009.9363582
 10
-9756677.67973805
 20
5137000.32229229
 10
-9756686.91176861
 20
5137000.39647261
  0
LWPOLYLINE
  5
201C7
  8
0
100
AcDbEntity
100
AcDbPolyline
 70
0
 90
5
 10
-9756729.50651453
 20
5136999.23269666
 10
-9756729.42711676
 20
5137009.19425896
 10
-9756690.99875279
 20
5137008.88559536
 10
-9756691.07819043
 20
5136998.92403409
 10
-9756729.50651453
 20
5136999.23269666
  0
LWPOLYLINE
  5
201C8
  8
0
100
AcDbEntity
100
AcDbPolyline
 70
0
 90
5
 10
-9756265.42155961
 20
5136987.7321121
 10
-9756265.36050644
 20
5136995.34590283
 10
-9756257.55198725
 20
5136995.2828156
 10
-9756257.61304661
 20
5136987.66902503
 10
-9756265.42155961
 20
5136987.7321121
  0
LWPOLYLINE
  5
201C9
  8
0
100
AcDbEntity
100
AcDbPolyline
 70
0
 90
8
 10
-9756251.51749652
 20
5136996.57775464
 10
-9756219.05366938
 20
5136996.65130543
 10
-9756219.08780788
 20
5136992.39653908
 10
-9756217.75459549
 20
5136991.71391304
 10
-9756217.77975058
 20
5136988.57882348
 10
-9756218.23044327
 20
5136988.02259318
 10
-9756251.14313597
 20
5136987.61674804
 10
-9756251.51749652
 20
5136996.57775464
  0
LWPOLYLINE
  5
201CA
  8
0
100
AcDbEntity
100
AcDbPolyline
 70
0
 90
16
 10
-9756651.94637826
 20
5136999.99963536
 10
-9756643.289502
 20
5137000.16172391
 10
-9756643.07164106
 20
5136998.53821986
 10
-9756637.87862528
 20
5136998.49647065
 10
-9756636.36640415
 20
5136999.99022575
 10
-9756626.32564784
 20
5137000.02533301
 10
-9756626.23890619
 20
5136996.43361228
 10
-9756624.63162212
 20
5136995.37813312
 10
-9756624.5337872
 20
5136993.17639759
 10
-9756626.04416011
 20
5136991.91430932
 10
-9756631.58522185
 20
5136991.72718462
 10
-9756633.09744239
 20
5136990.23343155
 10
-9756636.44404965
 20
5136990.26033854
 10
-9756637.36078128
 20
5136991.07858452
 10
-9756651.78951079
 20
5136990.73122037
 10
-9756651.94637826
 20
5136999.99963536
  0
LWPOLYLINE
  5
201CB
  8
0
100
AcDbEntity
100
AcDbPolyline
 70
0
 90
5
 10
-9756283.50884764
 20
5136985.86267477
 10
-9756283.44691121
 20
5136993.58843183
 10
-9756274.85754139
 20
5136993.51905186
 10
-9756274.91948473
 20
5136985.79329497
 10
-9756283.50884764
 20
5136985.86267477
  0
LWPOLYLINE
  5
201CC
  8
0
100
AcDbEntity
100
AcDbPolyline
 70
0
 90
7
 10
-9756321.48555142
 20
5136993.89559291
 10
-9756302.07670231
 20
5136993.62691112
 10
-9756302.14041856
 20
5136985.67721885
 10
-9756321.65990459
 20
5136986.05876812
 10
-9756321.43680424
 20
5136986.05696703
 10
-9756321.39912241
 20
5136990.75960147
 10
-9756321.48555142
 20
5136993.89559291
  0
LWPOLYLINE
  5
201CD
  8
0
100
AcDbEntity
100
AcDbPolyline
 70
0
 90
11
 10
-9756241.44994577
 20
5136986.08274745
 10
-9756220.58557414
 20
5136986.47398533
 10
-9756220.59186268
 20
5136985.69021326
 10
-9756218.80706022
 20
5136985.67578553
 10
-9756218.82862141
 20
5136982.98856751
 10
-9756220.39122148
 20
5136982.88922438
 10
-9756220.32009776
 20
5136977.84979092
 10
-9756234.49054876
 20
5136977.51642998
 10
-9756234.47617758
 20
5136979.30790761
 10
-9756241.17008071
 20
5136979.25003142
 10
-9756241.44994577
 20
5136986.08274745
  0
LWPOLYLINE
  5
201CE
  8
0
100
AcDbEntity
100
AcDbPolyline
 70
0
 90
5
 10
-9756668.60385737
 20
5136980.67250486
 10
-9756668.54102805
 20
5136988.54907214
 10
-9756659.07820875
 20
5136988.47301916
 10
-9756659.14104583
 20
5136980.59645208
 10
-9756668.60385737
 20
5136980.67250486
  0
LWPOLYLINE
  5
201CF
  8
0
100
AcDbEntity
100
AcDbPolyline
 70
0
 90
7
 10
-9756642.8040033
 20
5136988.68971889
 10
-9756624.44704625
 20
5136989.5846794
 10
-9756624.13320296
 20
5136985.52777913
 10
-9756621.82704819
 20
5136985.277556
 10
-9756621.50858349
 20
5136981.79981659
 10
-9756642.28708022
 20
5136981.15600869
 10
-9756642.8040033
 20
5136988.68971889
  0
LWPOLYLINE
  5
201D0
  8
0
100
AcDbEntity
100
AcDbPolyline
 70
0
 90
5
 10
-9756284.35702015
 20
5136977.47142659
 10
-9756284.29239168
 20
5136985.53307929
 10
-9756275.2568284
 20
5136985.4600959
 10
-9756275.32146447
 20
5136977.39844339
 10
-9756284.35702015
 20
5136977.47142659
  0
LWPOLYLINE
  5
201D1
  8
0
100
AcDbEntity
100
AcDbPolyline
 70
0
 90
5
 10
-9756322.30378429
 20
5136975.31440066
 10
-9756322.23201031
 20
5136984.27179161
 10
-9756301.59523154
 20
5136984.10517081
 10
-9756301.66702478
 20
5136975.14778036
 10
-9756322.30378429
 20
5136975.31440066
  0
LWPOLYLINE
  5
201D2
  8
0
100
AcDbEntity
100
AcDbPolyline
 70
0
 90
5
 10
-9756265.81704405
 20
5136966.23618475
 10
-9756265.74162617
 20
5136975.64143563
 10
-9756252.35562085
 20
5136975.5332832
 10
-9756252.43105184
 20
5136966.12803266
 10
-9756265.81704405
 20
5136966.23618475
  0
LWPOLYLINE
  5
201D3
  8
0
100
AcDbEntity
100
AcDbPolyline
 70
0
 90
9
 10
-9756239.63442556
 20
5136975.99035759
 10
-9756220.22561662
 20
5136975.72150991
 10
-9756220.11855841
 20
5136975.16077161
 10
-9756218.89240645
 20
5136975.03888524
 10
-9756218.8051127
 20
5136972.0148666
 10
-9756219.92061264
 20
5136972.02388394
 10
-9756220.0716907
 20
5136967.09822681
 10
-9756239.70537835
 20
5136967.14494293
 10
-9756239.63442556
 20
5136975.99035759
  0
LWPOLYLINE
  5
201D4
  8
0
100
AcDbEntity
100
AcDbPolyline
 70
0
 90
7
 10
-9756668.62048864
 20
5136978.58753225
 10
-9756654.77247483
 20
5136978.47623239
 10
-9756654.70605341
 20
5136972.33622161
 10
-9756656.78325412
 20
5136972.35291786
 10
-9756656.6798674
 20
5136970.84617803
 10
-9756668.68239379
 20
5136970.82680479
 10
-9756668.62048864
 20
5136978.58753225
  0
LWPOLYLINE
  5
201D5
  8
0
100
AcDbEntity
100
AcDbPolyline
 70
0
 90
8
 10
-9756645.76387226
 20
5136979.33053106
 10
-9756622.68569778
 20
5136978.91330112
 10
-9756620.61959024
 20
5136977.50661599
 10
-9756620.6408546
 20
5136974.84248551
 10
-9756622.37462908
 20
5136974.50891005
 10
-9756622.28604001
 20
5136971.14886219
 10
-9756645.25249273
 20
5136971.10183805
 10
-9756645.76387226
 20
5136979.33053106
  0
LWPOLYLINE
  5
201D6
  8
0
100
AcDbEntity
100
AcDbPolyline
 70
0
 90
5
 10
-9756317.35760477
 20
5136966.09255852
 10
-9756317.29479865
 20
5136973.9302676
 10
-9756295.65409203
 20
5136973.75552899
 10
-9756295.71691582
 20
5136965.91782037
 10
-9756317.35760477
 20
5136966.09255852
  0
LWPOLYLINE
  5
201D7
  8
0
100
AcDbEntity
100
AcDbPolyline
 70
0
 90
5
 10
-9756283.32858934
 20
5136966.60158976
 10
-9756283.26665305
 20
5136974.32733144
 10
-9756274.90040054
 20
5136974.25975379
 10
-9756274.96234356
 20
5136966.53401229
 10
-9756283.32858934
 20
5136966.60158976
  0
LWPOLYLINE
  5
201D8
  8
0
100
AcDbEntity
100
AcDbPolyline
 70
0
 90
5
 10
-9756264.66810711
 20
5136956.48512856
 10
-9756264.60615594
 20
5136964.21086188
 10
-9756254.7897637
 20
5136964.13155098
 10
-9756254.85172277
 20
5136956.40581787
 10
-9756264.66810711
 20
5136956.48512856
  0
LWPOLYLINE
  5
201D9
  8
0
100
AcDbEntity
100
AcDbPolyline
 70
0
 90
5
 10
-9756244.70158732
 20
5136956.21182567
 10
-9756244.63692585
 20
5136964.27346005
 10
-9756219.0919974
 20
5136964.06699682
 10
-9756219.15668032
 20
5136956.00536301
 10
-9756244.70158732
 20
5136956.21182567
  0
LWPOLYLINE
  5
201DA
  8
0
100
AcDbEntity
100
AcDbPolyline
 70
0
 90
5
 10
-9756318.3316511
 20
5136955.91075082
 10
-9756318.26077096
 20
5136964.75615652
 10
-9756298.40488379
 20
5136964.59583356
 10
-9756298.47578222
 20
5136955.75042834
 10
-9756318.3316511
 20
5136955.91075082
  0
LWPOLYLINE
  5
201DB
  8
0
100
AcDbEntity
100
AcDbPolyline
 70
0
 90
5
 10
-9756288.77094783
 20
5136955.67205342
 10
-9756288.69465507
 20
5136965.18926165
 10
-9756274.97401396
 20
5136965.0784385
 10
-9756275.05032033
 20
5136955.56123063
 10
-9756288.77094783
 20
5136955.67205342
  0
LWPOLYLINE
  5
201DC
  8
0
100
AcDbEntity
100
AcDbPolyline
 70
0
 90
5
 10
-9756265.65028866
 20
5136945.2956341
 10
-9756265.57936014
 20
5136954.1410292
 10
-9756256.32072715
 20
5136954.066226
 10
-9756256.3916642
 20
5136945.22083112
 10
-9756265.65028866
 20
5136945.2956341
  0
LWPOLYLINE
  5
201DD
  8
0
100
AcDbEntity
100
AcDbPolyline
 70
0
 90
5
 10
-9756246.34141552
 20
5136946.48331301
 10
-9756246.27585753
 20
5136954.65690638
 10
-9756221.17715376
 20
5136954.45405486
 10
-9756221.24273312
 20
5136946.28046206
 10
-9756246.34141552
 20
5136946.48331301
  0
LWPOLYLINE
  5
201DE
  8
0
100
AcDbEntity
100
AcDbPolyline
 70
0
 90
5
 10
-9756317.74489654
 20
5136945.60437879
 10
-9756317.68298826
 20
5136953.33010419
 10
-9756289.46089044
 20
5136953.10221593
 10
-9756289.52282144
 20
5136945.37649112
 10
-9756317.74489654
 20
5136945.60437879
  0
LWPOLYLINE
  5
201DF
  8
0
100
AcDbEntity
100
AcDbPolyline
 70
0
 90
5
 10
-9756282.59686619
 20
5136946.55226923
 10
-9756282.53403197
 20
5136954.38996196
 10
-9756274.61399604
 20
5136954.32598832
 10
-9756274.67683673
 20
5136946.48829577
 10
-9756282.59686619
 20
5136946.55226923
  0
LWPOLYLINE
  5
201E0
  8
0
100
AcDbEntity
100
AcDbPolyline
 70
0
 90
7
 10
-9756243.65070632
 20
5136944.79854479
 10
-9756217.66187701
 20
5136944.82349866
 10
-9756217.56461653
 20
5136942.35513266
 10
-9756219.32143337
 20
5136942.25183053
 10
-9756219.35914261
 20
5136937.55198521
 10
-9756243.59490625
 20
5136937.16034898
 10
-9756243.65070632
 20
5136944.79854479
  0
LWPOLYLINE
  5
201E1
  8
0
100
AcDbEntity
100
AcDbPolyline
 70
0
 90
5
 10
-9756284.46329699
 20
5136935.6104633
 10
-9756284.40678097
 20
5136942.66023159
 10
-9756274.8080011
 20
5136942.58269916
 10
-9756274.86452418
 20
5136935.53293105
 10
-9756284.46329699
 20
5136935.6104633
  0
LWPOLYLINE
  5
201E2
  8
0
100
AcDbEntity
100
AcDbPolyline
 70
0
 90
7
 10
-9756317.52580549
 20
5136943.98520453
 10
-9756300.0860003
 20
5136943.60938345
 10
-9756300.14721353
 20
5136935.97213373
 10
-9756303.65801828
 20
5136936.11798709
 10
-9756303.55131875
 20
5136934.8245848
 10
-9756317.59642011
 20
5136935.17299321
 10
-9756317.52580549
 20
5136943.98520453
  0
LWPOLYLINE
  5
201E3
  8
0
100
AcDbEntity
100
AcDbPolyline
 70
0
 90
8
 10
-9756265.97658025
 20
5136934.40359852
 10
-9756233.77898217
 20
5136934.96595377
 10
-9756232.84817206
 20
5136934.25340866
 10
-9756231.08947162
 20
5136934.59170535
 10
-9756218.09412813
 20
5136934.72167022
 10
-9756218.16106293
 20
5136926.37945286
 10
-9756265.81218373
 20
5136925.7070014
 10
-9756265.97658025
 20
5136934.40359852
  0
LWPOLYLINE
  5
201E4
  8
0
100
AcDbEntity
100
AcDbPolyline
 70
0
 90
7
 10
-9756321.46875581
 20
5136934.02921813
 10
-9756306.48624876
 20
5136933.79075012
 10
-9756306.39273216
 20
5136930.85240343
 10
-9756302.88098758
 20
5136930.82404721
 10
-9756302.57878201
 20
5136924.71141931
 10
-9756321.77630726
 20
5136924.86641789
 10
-9756321.46875581
 20
5136934.02921813
  0
LWPOLYLINE
  5
201E5
  8
0
100
AcDbEntity
100
AcDbPolyline
 70
0
 90
5
 10
-9756316.58684104
 20
5136915.07173093
 10
-9756316.51999197
 20
5136923.41394009
 10
-9756294.98130866
 20
5136923.24002477
 10
-9756295.04817645
 20
5136914.8978161
 10
-9756316.58684104
 20
5136915.07173093
  0
LWPOLYLINE
  5
201E6
  8
0
100
AcDbEntity
100
AcDbPolyline
 70
0
 90
5
 10
-9756241.9679546
 20
5136906.47877881
 10
-9756241.90763795
 20
5136913.99850858
 10
-9756214.04785083
 20
5136913.77332595
 10
-9756214.10818931
 20
5136906.25359675
 10
-9756241.9679546
 20
5136906.47877881
  0
LWPOLYLINE
  5
201E7
  8
0
100
AcDbEntity
100
AcDbPolyline
 70
0
 90
5
 10
-9756282.82773731
 20
5136905.98636527
 10
-9756282.76368489
 20
5136913.97607855
 10
-9756274.33551314
 20
5136913.90800081
 10
-9756274.39957258
 20
5136905.91828772
 10
-9756282.82773731
 20
5136905.98636527
  0
LWPOLYLINE
  5
201E8
  8
0
100
AcDbEntity
100
AcDbPolyline
 70
0
 90
5
 10
-9756322.28847219
 20
5136904.77746232
 10
-9756322.2253941
 20
5136912.64967937
 10
-9756294.83383835
 20
5136912.42851301
 10
-9756294.89693891
 20
5136904.55629654
 10
-9756322.28847219
 20
5136904.77746232
  0
LWPOLYLINE
  5
201E9
  8
0
100
AcDbEntity
100
AcDbPolyline
 70
0
 90
5
 10
-9756264.87902936
 20
5136896.08860526
 10
-9756264.81873081
 20
5136903.60832727
 10
-9756257.32703092
 20
5136903.54780013
 10
-9756257.38733534
 20
5136896.02807827
 10
-9756264.87902936
 20
5136896.08860526
  0
LWPOLYLINE
  5
201EA
  8
0
100
AcDbEntity
100
AcDbPolyline
 70
0
 90
8
 10
-9756239.64564727
 20
5136904.10994475
 10
-9756225.24753662
 20
5136903.99357587
 10
-9756224.31484481
 20
5136903.51602363
 10
-9756221.84531868
 20
5136904.90610176
 10
-9756214.93985024
 20
5136904.73277663
 10
-9756215.01432951
 20
5136895.45062042
 10
-9756239.94667828
 20
5136895.76964546
 10
-9756239.64564727
 20
5136904.10994475
  0
LWPOLYLINE
  5
201EB
  8
0
100
AcDbEntity
100
AcDbPolyline
 70
0
 90
5
 10
-9756317.9221862
 20
5136894.51942896
 10
-9756317.85063103
 20
5136903.44909895
 10
-9756289.40558146
 20
5136903.21941204
 10
-9756289.47716309
 20
5136894.28974275
 10
-9756317.9221862
 20
5136894.51942896
  0
LWPOLYLINE
  5
201EC
  8
0
100
AcDbEntity
100
AcDbPolyline
 70
0
 90
5
 10
-9756264.85713013
 20
5136884.22061017
 10
-9756264.78929441
 20
5136892.68028746
 10
-9756254.25410349
 20
5136892.59516967
 10
-9756254.32194849
 20
5136884.13549262
 10
-9756264.85713013
 20
5136884.22061017
  0
LWPOLYLINE
  5
201ED
  8
0
100
AcDbEntity
100
AcDbPolyline
 70
0
 90
5
 10
-9756317.18846074
 20
5136883.82071969
 10
-9756317.12255421
 20
5136892.04540632
 10
-9756297.10569105
 20
5136891.88378255
 10
-9756297.17161474
 20
5136883.65909637
 10
-9756317.18846074
 20
5136883.82071969
  0
LWPOLYLINE
  5
201EE
  8
0
100
AcDbEntity
100
AcDbPolyline
 70
0
 90
7
 10
-9756264.04809098
 20
5136882.92154029
 10
-9756256.20617685
 20
5136882.74068002
 10
-9756256.1324636
 20
5136877.33494519
 10
-9756254.96188871
 20
5136877.32548721
 10
-9756254.97790748
 20
5136875.32806594
 10
-9756263.87615925
 20
5136875.16495227
 10
-9756264.04809098
 20
5136882.92154029
  0
LWPOLYLINE
  5
201EF
  8
0
100
AcDbEntity
100
AcDbPolyline
 70
0
 90
8
 10
-9756244.2531126
 20
5136884.28913811
 10
-9756213.35274336
 20
5136883.68687375
 10
-9756213.54051008
 20
5136874.87566544
 10
-9756238.70880519
 20
5136874.96159442
 10
-9756238.71540255
 20
5136874.13912702
 10
-9756244.56827493
 20
5136874.18642546
 10
-9756244.5531964
 20
5136876.06635108
 10
-9756244.2531126
 20
5136884.28913811
  0
LWPOLYLINE
  5
201F0
  8
0
100
AcDbEntity
100
AcDbPolyline
 70
0
 90
5
 10
-9756281.66983629
 20
5136875.19118606
 10
-9756281.61520292
 20
5136882.00591938
 10
-9756273.30411681
 20
5136881.93878672
 10
-9756273.35875608
 20
5136875.12405356
 10
-9756281.66983629
 20
5136875.19118606
  0
LWPOLYLINE
  5
201F1
  8
0
100
AcDbEntity
100
AcDbPolyline
 70
0
 90
5
 10
-9756317.3789567
 20
5136874.65702215
 10
-9756317.31869959
 20
5136882.17672824
 10
-9756295.78010878
 20
5136882.00281641
 10
-9756295.84038277
 20
5136874.48311076
 10
-9756317.3789567
 20
5136874.65702215
  0
LWPOLYLINE
  5
201F2
  8
0
100
AcDbEntity
100
AcDbPolyline
 70
0
 90
5
 10
-9756264.42541522
 20
5136865.06413966
 10
-9756264.36323242
 20
5136872.8188282
 10
-9756254.8815802
 20
5136872.74222264
 10
-9756254.94377066
 20
5136864.98753431
 10
-9756264.42541522
 20
5136865.06413966
  0
LWPOLYLINE
  5
201F3
  8
0
100
AcDbEntity
100
AcDbPolyline
 70
0
 90
5
 10
-9756244.75695513
 20
5136865.25772967
 10
-9756244.69946846
 20
5136872.42494145
 10
-9756220.1174096
 20
5136872.22626426
 10
-9756220.17491462
 20
5136865.05905295
 10
-9756244.75695513
 20
5136865.25772967
  0
LWPOLYLINE
  5
201F4
  8
0
100
AcDbEntity
100
AcDbPolyline
 70
0
 90
9
 10
-9756318.68824338
 20
5136871.96502452
 10
-9756298.55624811
 20
5136871.56746889
 10
-9756298.68648996
 20
5136869.92347981
 10
-9756295.64299735
 20
5136869.89890238
 10
-9756295.68631925
 20
5136864.49412012
 10
-9756298.7288684
 20
5136864.63619274
 10
-9756298.86381881
 20
5136862.40472878
 10
-9756318.52850708
 20
5136862.6810079
 10
-9756318.68824338
 20
5136871.96502452
  0
LWPOLYLINE
  5
201F5
  8
0
100
AcDbEntity
100
AcDbPolyline
 70
0
 90
5
 10
-9756264.16563318
 20
5136853.66427166
 10
-9756264.09685518
 20
5136862.24141741
 10
-9756254.49815612
 20
5136862.16386597
 10
-9756254.5669427
 20
5136853.58672044
 10
-9756264.16563318
 20
5136853.66427166
  0
LWPOLYLINE
  5
201F6
  8
0
100
AcDbEntity
100
AcDbPolyline
 70
0
 90
7
 10
-9756246.29566347
 20
5136863.15511267
 10
-9756214.2191324
 20
5136863.24836515
 10
-9756214.24458735
 20
5136860.07599526
 10
-9756217.52407639
 20
5136859.86750084
 10
-9756217.20872867
 20
5136855.399847
 10
-9756246.12751582
 20
5136854.9285599
 10
-9756246.29566347
 20
5136863.15511267
  0
LWPOLYLINE
  5
201F7
  8
0
100
AcDbEntity
100
AcDbPolyline
 70
0
 90
5
 10
-9756281.49198348
 20
5136853.56922746
 10
-9756281.42227901
 20
5136862.26386861
 10
-9756272.99415269
 20
5136862.19579051
 10
-9756273.0638648
 20
5136853.50114956
 10
-9756281.49198348
 20
5136853.56922746
  0
LWPOLYLINE
  5
201F8
  8
0
100
AcDbEntity
100
AcDbPolyline
 70
0
 90
5
 10
-9756320.01510381
 20
5136852.47026955
 10
-9756319.94637573
 20
5136861.04741515
 10
-9756298.75900413
 20
5136860.87634591
 10
-9756298.82775114
 20
5136852.29920082
 10
-9756320.01510381
 20
5136852.47026955
  0
LWPOLYLINE
  5
201F9
  8
0
100
AcDbEntity
100
AcDbPolyline
 70
0
 90
8
 10
-9756243.91473769
 20
5136853.50064619
 10
-9756212.18846772
 20
5136853.71422496
 10
-9756210.79603804
 20
5136852.17543298
 10
-9756210.81300872
 20
5136850.06052204
 10
-9756211.9911226
 20
5136849.13002511
 10
-9756211.67954898
 20
5136844.19239619
 10
-9756243.87401577
 20
5136843.98260276
 10
-9756243.91473769
 20
5136853.50064619
  0
LWPOLYLINE
  5
201FA
  8
0
100
AcDbEntity
100
AcDbPolyline
 70
0
 90
5
 10
-9756320.56429918
 20
5136842.36947681
 10
-9756320.49557176
 20
5136850.94661346
 10
-9756293.68947807
 20
5136850.73017194
 10
-9756293.75822944
 20
5136842.15303593
 10
-9756320.56429918
 20
5136842.36947681
  0
LWPOLYLINE
  5
201FB
  8
0
100
AcDbEntity
100
AcDbPolyline
 70
0
 90
5
 10
-9756263.85191955
 20
5136834.39131251
 10
-9756263.78879457
 20
5136842.2634714
 10
-9756255.9459714
 20
5136842.20010697
 10
-9756256.00910281
 20
5136834.32794825
 10
-9756263.85191955
 20
5136834.39131251
  0
LWPOLYLINE
  5
201FC
  8
0
100
AcDbEntity
100
AcDbPolyline
 70
0
 90
5
 10
-9756243.36412357
 20
5136834.57827981
 10
-9756243.31040594
 20
5136841.27548907
 10
-9756219.43076916
 20
5136841.08248717
 10
-9756219.48450345
 20
5136834.38527835
 10
-9756243.36412357
 20
5136834.57827981
  0
LWPOLYLINE
  5
201FD
  8
0
100
AcDbEntity
100
AcDbPolyline
 70
0
 90
5
 10
-9756282.94256696
 20
5136833.25299696
 10
-9756282.88322538
 20
5136840.65517543
 10
-9756273.6357187
 20
5136840.58048002
 10
-9756273.69506741
 20
5136833.17830174
 10
-9756282.94256696
 20
5136833.25299696
  0
LWPOLYLINE
  5
201FE
  8
0
100
AcDbEntity
100
AcDbPolyline
 70
0
 90
7
 10
-9756315.66390797
 20
5136840.33237161
 10
-9756302.66869211
 20
5136840.46245189
 10
-9756302.67528393
 20
5136839.63998732
 10
-9756292.96237516
 20
5136839.20904505
 10
-9756293.0132327
 20
5136832.86432113
 10
-9756315.84028122
 20
5136832.93113799
 10
-9756315.66390797
 20
5136840.33237161
  0
LWPOLYLINE
  5
201FF
  8
0
100
AcDbEntity
100
AcDbPolyline
 70
0
 90
5
 10
-9756235.03027365
 20
5136822.76069004
 10
-9756234.94544734
 20
5136833.33522
 10
-9756209.77820435
 20
5136833.13178771
 10
-9756209.86305838
 20
5136822.55725847
 10
-9756235.03027365
 20
5136822.76069004
  0
LWPOLYLINE
  5
20200
  8
0
100
AcDbEntity
100
AcDbPolyline
 70
0
 90
5
 10
-9756282.55346149
 20
5136823.37965268
 10
-9756282.48281654
 20
5136832.19176154
 10
-9756272.18180554
 20
5136832.10855569
 10
-9756272.25245995
 20
5136823.29644708
 10
-9756282.55346149
 20
5136823.37965268
  0
LWPOLYLINE
  5
20201
  8
0
100
AcDbEntity
100
AcDbPolyline
 70
0
 90
5
 10
-9756315.26817788
 20
5136831.2814849
 10
-9756284.23961263
 20
5136832.0884484
 10
-9756283.84014479
 20
5136823.50754733
 10
-9756315.10656211
 20
5136822.23249677
 10
-9756315.26817788
 20
5136831.2814849
  0
LWPOLYLINE
  5
20202
  8
0
100
AcDbEntity
100
AcDbPolyline
 70
0
 90
12
 10
-9756280.03378681
 20
5136816.42666571
 10
-9756271.72087339
 20
5136816.59452199
 10
-9756270.91488675
 20
5136771.11474494
 10
-9756272.33086565
 20
5136769.71616285
 10
-9756274.43693489
 20
5136769.85067692
 10
-9756275.83501507
 20
5136770.68448193
 10
-9756279.46093121
 20
5136771.06627481
 10
-9756279.91716465
 20
5136787.16770663
 10
-9756278.6295443
 20
5136787.15730627
 10
-9756278.83257211
 20
5136791.03650961
 10
-9756279.88796401
 20
5136790.81003032
 10
-9756280.03378681
 20
5136816.42666571
  0
LWPOLYLINE
  5
20203
  8
0
100
AcDbEntity
100
AcDbPolyline
 70
0
 90
13
 10
-9756263.39242799
 20
5136789.50176006
 10
-9756237.16707848
 20
5136789.87736258
 10
-9756236.90374868
 20
5136793.51779498
 10
-9756234.09250854
 20
5136793.73007907
 10
-9756233.58940928
 20
5136798.07358718
 10
-9756232.4188441
 20
5136798.0641266
 10
-9756232.38679774
 20
5136802.05893745
 10
-9756233.9085331
 20
5136802.07123619
 10
-9756233.82747607
 20
5136812.17576516
 10
-9756212.51655963
 20
5136812.82602211
 10
-9756212.13665314
 20
5136772.63727886
 10
-9756263.65080753
 20
5136771.87857449
 10
-9756263.39242799
 20
5136789.50176006
  0
LWPOLYLINE
  5
20204
  8
0
100
AcDbEntity
100
AcDbPolyline
 70
0
 90
5
 10
-9757042.67142788
 20
5136690.80995036
 10
-9757042.34679603
 20
5136731.70852116
 10
-9757022.26894501
 20
5136731.54793696
 10
-9757022.59366241
 20
5136690.64936838
 10
-9757042.67142788
 20
5136690.80995036
  0
LWPOLYLINE
  5
20205
  8
0
100
AcDbEntity
100
AcDbPolyline
 70
0
 90
5
 10
-9757052.28333248
 20
5136707.48436568
 10
-9757052.12809331
 20
5136727.04456422
 10
-9757043.27022187
 20
5136726.97373263
 10
-9757043.42547909
 20
5136707.41353456
 10
-9757052.28333248
 20
5136707.48436568
  0
LWPOLYLINE
  5
20206
  8
0
100
AcDbEntity
100
AcDbPolyline
 70
0
 90
5
 10
-9757062.63866107
 20
5136704.89969476
 10
-9757062.46462873
 20
5136726.8308237
 10
-9757053.01623256
 20
5136726.75527998
 10
-9757053.19028649
 20
5136704.82415159
 10
-9757062.63866107
 20
5136704.89969476
  0
LWPOLYLINE
  5
20207
  8
0
100
AcDbEntity
100
AcDbPolyline
 70
0
 90
7
 10
-9757074.89151462
 20
5136723.66992469
 10
-9757070.16731795
 20
5136723.63216019
 10
-9757070.15320859
 20
5136725.41036145
 10
-9757065.42665941
 20
5136725.66896149
 10
-9757065.28425797
 20
5136706.40277107
 10
-9757075.02789609
 20
5136706.48066247
 10
-9757074.89151462
 20
5136723.66992469
  0
LWPOLYLINE
  5
20208
  8
0
100
AcDbEntity
100
AcDbPolyline
 70
0
 90
5
 10
-9757073.37389784
 20
5136691.64819622
 10
-9757073.30570596
 20
5136700.2428103
 10
-9757063.26681264
 20
5136700.16255671
 10
-9757063.33501351
 20
5136691.56794286
 10
-9757073.37389784
 20
5136691.64819622
  0
LWPOLYLINE
  5
20209
  8
0
100
AcDbEntity
100
AcDbPolyline
 70
0
 90
6
 10
-9757089.64522577
 20
5136724.97339119
 10
-9757079.31104395
 20
5136724.89079428
 10
-9757079.31809777
 20
5136724.00169364
 10
-9757079.1639121
 20
5136706.21733797
 10
-9757089.49807382
 20
5136706.29993467
 10
-9757089.64522577
 20
5136724.97339119
  0
LWPOLYLINE
  5
2020A
  8
0
100
AcDbEntity
100
AcDbPolyline
 70
0
 90
5
 10
-9757085.47961167
 20
5136691.74495827
 10
-9757085.40672847
 20
5136700.93230494
 10
-9757078.91097333
 20
5136700.88038559
 10
-9757078.98386274
 20
5136691.69303908
 10
-9757085.47961167
 20
5136691.74495827
  0
LWPOLYLINE
  5
2020B
  8
0
100
AcDbEntity
100
AcDbPolyline
 70
0
 90
5
 10
-9757104.26351298
 20
5136706.12154419
 10
-9757104.11308082
 20
5136725.08900804
 10
-9757093.1883739
 20
5136725.00170755
 10
-9757093.33882765
 20
5136706.03424427
 10
-9757104.26351298
 20
5136706.12154419
  0
LWPOLYLINE
  5
2020C
  8
0
100
AcDbEntity
100
AcDbPolyline
 70
0
 90
5
 10
-9757100.83790168
 20
5136691.27492697
 10
-9757100.7650332
 20
5136700.46227346
 10
-9757093.08823183
 20
5136700.40092614
 10
-9757093.16110766
 20
5136691.21357984
 10
-9757100.83790168
 20
5136691.27492697
  0
LWPOLYLINE
  5
2020D
  8
0
100
AcDbEntity
100
AcDbPolyline
 70
0
 90
15
 10
-9757115.91652471
 20
5136726.07247365
 10
-9757111.78285127
 20
5136726.03944763
 10
-9757110.29713806
 20
5136727.21312003
 10
-9757109.11608837
 20
5136727.20368351
 10
-9757107.94679065
 20
5136725.71241205
 10
-9757107.68208347
 20
5136721.85728349
 10
-9757106.53159008
 20
5136717.99507882
 10
-9757107.74789453
 20
5136713.5590162
 10
-9757107.27018992
 20
5136699.32871333
 10
-9757114.9493408
 20
5136699.09368308
 10
-9757114.84123313
 20
5136712.72653432
 10
-9757112.47913731
 20
5136712.70766232
 10
-9757112.45093435
 20
5136716.26406143
 10
-9757116.2893415
 20
5136716.29472818
 10
-9757115.91652471
 20
5136726.07247365
  0
LWPOLYLINE
  5
2020E
  8
0
100
AcDbEntity
100
AcDbPolyline
 70
0
 90
15
 10
-9757125.66018373
 20
5136726.15031362
 10
-9757122.70520982
 20
5136726.42309377
 10
-9757120.33371055
 20
5136727.58969157
 10
-9757118.85739835
 20
5136727.57789745
 10
-9757117.39518677
 20
5136725.78790128
 10
-9757117.43748854
 20
5136720.4532978
 10
-9757116.57755323
 20
5136717.18618709
 10
-9757117.7868027
 20
5136713.63922317
 10
-9757117.2855823
 20
5136702.37258233
 10
-9757125.55525877
 20
5136702.14226122
 10
-9757125.7917747
 20
5136709.55377824
 10
-9757123.72494149
 20
5136709.53726765
 10
-9757123.394431
 20
5136713.98040669
 10
-9757126.93992509
 20
5136713.71234384
 10
-9757125.66018373
 20
5136726.15031362
  0
LWPOLYLINE
  5
2020F
  8
0
100
AcDbEntity
100
AcDbPolyline
 70
0
 90
16
 10
-9757136.88955302
 20
5136725.05446739
 10
-9757132.75587985
 20
5136725.02145047
 10
-9757131.85599483
 20
5136726.7925769
 10
-9757129.49389547
 20
5136726.77370906
 10
-9757128.03168201
 20
5136724.98371465
 10
-9757128.06692855
 20
5136720.53821183
 10
-9757127.19054105
 20
5136719.34566904
 10
-9757127.2093394
 20
5136716.97473533
 10
-9757128.69504897
 20
5136715.80106149
 10
-9757128.19851519
 20
5136703.94168599
 10
-9757135.87531989
 20
5136704.00300507
 10
-9757135.81423235
 20
5136711.70853154
 10
-9757134.92374737
 20
5136712.29418962
 10
-9757134.90965006
 20
5136714.07238901
 10
-9757136.96003786
 20
5136716.16346357
 10
-9757136.88955302
 20
5136725.05446739
  0
LWPOLYLINE
  5
20210
  8
0
100
AcDbEntity
100
AcDbPolyline
 70
0
 90
5
 10
-9757135.69753422
 20
5136689.18234389
 10
-9757135.63644675
 20
5136696.88785855
 10
-9757131.20752422
 20
5136696.85248286
 10
-9757131.26861525
 20
5136689.1469683
 10
-9757135.69753422
 20
5136689.18234389
  0
LWPOLYLINE
  5
20211
  8
0
100
AcDbEntity
100
AcDbPolyline
 70
0
 90
5
 10
-9757145.14589487
 20
5136689.25780495
 10
-9757145.0707196
 20
5136698.74151642
 10
-9757136.80339585
 20
5136698.67548829
 10
-9757136.87857928
 20
5136689.19177704
 10
-9757145.14589487
 20
5136689.25780495
  0
LWPOLYLINE
  5
20212
  8
0
100
AcDbEntity
100
AcDbPolyline
 70
0
 90
16
 10
-9757156.96974365
 20
5136724.91844283
 10
-9757153.13133276
 20
5136724.88779242
 10
-9757152.82432536
 20
5136726.36726941
 10
-9757149.87405027
 20
5136726.04732404
 10
-9757148.99765954
 20
5136724.85478255
 10
-9757148.4541176
 20
5136718.92272991
 10
-9757146.98955257
 20
5136717.42910654
 10
-9757147.01304438
 20
5136714.46543998
 10
-9757148.20818744
 20
5136712.69667226
 10
-9757148.01158957
 20
5136700.24692692
 10
-9757155.98835101
 20
5136699.71785532
 10
-9757155.92962858
 20
5136707.12701226
 10
-9757154.45331943
 20
5136707.11522371
 10
-9757154.12517221
 20
5136711.26199633
 10
-9757157.07779179
 20
5136711.28557333
 10
-9757156.96974365
 20
5136724.91844283
  0
LWPOLYLINE
  5
20213
  8
0
100
AcDbEntity
100
AcDbPolyline
 70
0
 90
5
 10
-9757166.86136213
 20
5136706.32514127
 10
-9757166.7180994
 20
5136724.40350692
 10
-9757158.45075321
 20
5136724.33749718
 10
-9757158.59403151
 20
5136706.25913194
 10
-9757166.86136213
 20
5136706.32514127
  0
LWPOLYLINE
  5
20214
  8
0
100
AcDbEntity
100
AcDbPolyline
 70
0
 90
5
 10
-9757166.41175291
 20
5136688.53846055
 10
-9757166.32015864
 20
5136700.09673474
 10
-9757158.34809501
 20
5136700.03308265
 10
-9757158.43969887
 20
5136688.47480871
 10
-9757166.41175291
 20
5136688.53846055
  0
LWPOLYLINE
  5
20215
  8
0
100
AcDbEntity
100
AcDbPolyline
 70
0
 90
5
 10
-9757181.64088972
 20
5136704.36843277
 10
-9757181.44129996
 20
5136729.55960288
 10
-9757169.63079879
 20
5136729.4653192
 10
-9757169.83041954
 20
5136704.27414989
 10
-9757181.64088972
 20
5136704.36843277
  0
LWPOLYLINE
  5
20216
  8
0
100
AcDbEntity
100
AcDbPolyline
 70
0
 90
5
 10
-9757176.44359124
 20
5136689.50770279
 10
-9757176.3614021
 20
5136699.88051355
 10
-9757167.79881527
 20
5136699.81215525
 10
-9757167.88101367
 20
5136689.43934473
 10
-9757176.44359124
 20
5136689.50770279
  0
LWPOLYLINE
  5
20217
  8
0
100
AcDbEntity
100
AcDbPolyline
 70
0
 90
5
 10
-9757197.94367203
 20
5136696.49616011
 10
-9757197.69482542
 20
5136727.91101656
 10
-9757187.65590082
 20
5136727.83089353
 10
-9757187.90478029
 20
5136696.41603792
 10
-9757197.94367203
 20
5136696.49616011
  0
LWPOLYLINE
  5
20218
  8
0
100
AcDbEntity
100
AcDbPolyline
 70
0
 90
5
 10
-9757207.32866365
 20
5136704.57344747
 10
-9757207.16904591
 20
5136724.72637971
 10
-9757199.787486
 20
5136724.66747413
 10
-9757199.94711924
 20
5136704.51454229
 10
-9757207.32866365
 20
5136704.57344747
  0
LWPOLYLINE
  5
20219
  8
0
100
AcDbEntity
100
AcDbPolyline
 70
0
 90
5
 10
-9757224.13746433
 20
5136707.37502747
 10
-9757223.97318816
 20
5136728.1207003
 10
-9757213.34373784
 20
5136728.03589313
 10
-9757213.50803698
 20
5136707.2902209
 10
-9757224.13746433
 20
5136707.37502747
  0
LWPOLYLINE
  5
2021A
  8
0
100
AcDbEntity
100
AcDbPolyline
 70
0
 90
5
 10
-9757223.6877489
 20
5136689.58834646
 10
-9757223.61499804
 20
5136698.77569347
 10
-9757207.96613303
 20
5136698.65083461
 10
-9757208.03889887
 20
5136689.463488
 10
-9757223.6877489
 20
5136689.58834646
  0
LWPOLYLINE
  5
2021B
  8
0
100
AcDbEntity
100
AcDbPolyline
 70
0
 90
5
 10
-9757265.32166999
 20
5136726.96855781
 10
-9757229.59021587
 20
5136727.27635367
 10
-9757229.66530812
 20
5136717.79261272
 10
-9757266.57777577
 20
5136717.49423366
 10
-9757265.32166999
 20
5136726.96855781
  0
LWPOLYLINE
  5
2021C
  8
0
100
AcDbEntity
100
AcDbPolyline
 70
0
 90
9
 10
-9757266.29189555
 20
5136716.30641238
 10
-9757252.11461964
 20
5136716.78613026
 10
-9757251.52644124
 20
5136716.48505408
 10
-9757245.03067354
 20
5136716.43324782
 10
-9757244.74714219
 20
5136714.94905937
 10
-9757240.90873466
 20
5136714.91844438
 10
-9757240.66978342
 20
5136707.80329169
 10
-9757266.65752227
 20
5136707.41776871
 10
-9757266.29189555
 20
5136716.30641238
  0
LWPOLYLINE
  5
2021D
  8
0
100
AcDbEntity
100
AcDbPolyline
 70
0
 90
5
 10
-9757245.16909622
 20
5136698.94762678
 10
-9757245.11278879
 20
5136706.06041797
 10
-9757228.8733876
 20
5136705.93088338
 10
-9757228.92970707
 20
5136698.81809251
 10
-9757245.16909622
 20
5136698.94762678
  0
LWPOLYLINE
  5
2021E
  8
0
100
AcDbEntity
100
AcDbPolyline
 70
0
 90
10
 10
-9757266.70208637
 20
5136701.78680757
 10
-9757258.43475811
 20
5136701.72088496
 10
-9757258.46994407
 20
5136697.27539174
 10
-9757257.30062656
 20
5136695.78414303
 10
-9757251.10248029
 20
5136695.43832961
 10
-9757248.72865798
 20
5136696.901322
 10
-9757238.39450329
 20
5136696.8188982
 10
-9757238.46958631
 20
5136687.33518697
 10
-9757266.53113506
 20
5136686.07705276
 10
-9757266.70208637
 20
5136701.78680757
  0
LWPOLYLINE
  5
2021F
  8
0
100
AcDbEntity
100
AcDbPolyline
 70
0
 90
5
 10
-9757051.22930042
 20
5136691.47115267
 10
-9757051.15873658
 20
5136700.36213236
 10
-9757043.77719756
 20
5136700.30310623
 10
-9757043.84776824
 20
5136691.41212672
 10
-9757051.22930042
 20
5136691.47115267
  0
LWPOLYLINE
  5
20220
  8
0
100
AcDbEntity
100
AcDbPolyline
 70
0
 90
5
 10
-9757056.6710092
 20
5136675.50990474
 10
-9757056.61456239
 20
5136682.62267617
 10
-9757048.93777592
 20
5136682.56129353
 10
-9757048.99422842
 20
5136675.44852225
 10
-9757056.6710092
 20
5136675.50990474
  0
LWPOLYLINE
  5
20221
  8
0
100
AcDbEntity
100
AcDbPolyline
 70
0
 90
5
 10
-9757072.62685013
 20
5136674.15554491
 10
-9757072.56336078
 20
5136682.15741226
 10
-9757065.47709648
 20
5136682.10076345
 10
-9757065.54059174
 20
5136674.09889625
 10
-9757072.62685013
 20
5136674.15554491
  0
LWPOLYLINE
  5
20222
  8
0
100
AcDbEntity
100
AcDbPolyline
 70
0
 90
5
 10
-9757084.69354846
 20
5136641.94617907
 10
-9757084.41847237
 20
5136676.62087068
 10
-9757075.26538608
 20
5136676.54770979
 10
-9757075.54049524
 20
5136641.87301904
 10
-9757084.69354846
 20
5136641.94617907
  0
LWPOLYLINE
  5
20223
  8
0
100
AcDbEntity
100
AcDbPolyline
 70
0
 90
5
 10
-9757094.13480939
 20
5136642.91078301
 10
-9757093.98435944
 20
5136661.87812251
 10
-9757085.71706824
 20
5136661.81205062
 10
-9757085.86753452
 20
5136642.84471154
 10
-9757094.13480939
 20
5136642.91078301
  0
LWPOLYLINE
  5
20224
  8
0
100
AcDbEntity
100
AcDbPolyline
 70
0
 90
5
 10
-9757104.47830505
 20
5136641.80790473
 10
-9757104.33022605
 20
5136660.47887751
 10
-9757095.76767553
 20
5136660.41045509
 10
-9757095.91577118
 20
5136641.73948275
 10
-9757104.47830505
 20
5136641.80790473
  0
LWPOLYLINE
  5
20225
  8
0
100
AcDbEntity
100
AcDbPolyline
 70
0
 90
5
 10
-9757104.86433592
 20
5136667.59635703
 10
-9757104.75621473
 20
5136681.22916361
 10
-9757095.3078627
 20
5136681.15366263
 10
-9757095.41599731
 20
5136667.5208564
 10
-9757104.86433592
 20
5136667.59635703
  0
LWPOLYLINE
  5
20226
  8
0
100
AcDbEntity
100
AcDbPolyline
 70
0
 90
5
 10
-9757114.56798271
 20
5136672.71241626
 10
-9757114.50452835
 20
5136680.71428304
 10
-9757108.59930851
 20
5136680.66710208
 10
-9757108.6627678
 20
5136672.66523543
 10
-9757114.56798271
 20
5136672.71241626
  0
LWPOLYLINE
  5
20227
  8
0
100
AcDbEntity
100
AcDbPolyline
 70
0
 90
7
 10
-9757124.92560742
 20
5136669.83132115
 10
-9757116.65830889
 20
5136669.76527599
 10
-9757116.29339709
 20
5136641.30953853
 10
-9757119.54595469
 20
5136640.74275696
 10
-9757119.23189494
 20
5136643.11131316
 10
-9757124.54892194
 20
5136642.85740548
 10
-9757124.92560742
 20
5136669.83132115
  0
LWPOLYLINE
  5
20228
  8
0
100
AcDbEntity
100
AcDbPolyline
 70
0
 90
5
 10
-9757125.49733019
 20
5136672.20696053
 10
-9757125.42683547
 20
5136681.09792375
 10
-9757116.56900521
 20
5136681.02716108
 10
-9757116.63950814
 20
5136672.13619808
 10
-9757125.49733019
 20
5136672.20696053
  0
LWPOLYLINE
  5
20229
  8
0
100
AcDbEntity
100
AcDbPolyline
 70
0
 90
6
 10
-9757134.62926735
 20
5136674.94736126
 10
-9757128.1335292
 20
5136674.89547579
 10
-9757126.68072294
 20
5136671.9200296
 10
-9757126.03697006
 20
5136641.38737657
 10
-9757134.30424429
 20
5136641.45341316
 10
-9757134.62926735
 20
5136674.94736126
  0
LWPOLYLINE
  5
2022A
  8
0
100
AcDbEntity
100
AcDbPolyline
 70
0
 90
7
 10
-9757146.16793166
 20
5136672.07567559
 10
-9757139.96745604
 20
5136672.02615619
 10
-9757139.79436289
 20
5136656.61281436
 10
-9757136.25123971
 20
5136656.58451578
 10
-9757136.08755046
 20
5136639.9857412
 10
-9757145.83347162
 20
5136639.76719464
 10
-9757146.16793166
 20
5136672.07567559
  0
LWPOLYLINE
  5
2022B
  8
0
100
AcDbEntity
100
AcDbPolyline
 70
0
 90
9
 10
-9757155.67499784
 20
5136664.74199581
 10
-9757150.95082946
 20
5136664.70427189
 10
-9757150.97197073
 20
5136662.03698646
 10
-9757147.13593418
 20
5136661.70996908
 10
-9757146.70750514
 20
5136641.25609021
 10
-9757152.31744135
 20
5136641.30088936
 10
-9757152.3315352
 20
5136639.52270329
 10
-9757155.28413269
 20
5136639.54628045
 10
-9757155.67499784
 20
5136664.74199581
  0
LWPOLYLINE
  5
2022C
  8
0
100
AcDbEntity
100
AcDbPolyline
 70
0
 90
5
 10
-9757166.19230379
 20
5136641.7080585
 10
-9757166.00441926
 20
5136665.41723895
 10
-9757157.1466028
 20
5136665.34651426
 10
-9757157.33450921
 20
5136641.63733439
 10
-9757166.19230379
 20
5136641.7080585
  0
LWPOLYLINE
  5
2022D
  8
0
100
AcDbEntity
100
AcDbPolyline
 70
0
 90
5
 10
-9757174.75483875
 20
5136641.77641732
 10
-9757174.63507602
 20
5136656.89101348
 10
-9757167.84408931
 20
5136656.83679823
 10
-9757167.96386273
 20
5136641.72220233
 10
-9757174.75483875
 20
5136641.77641732
  0
LWPOLYLINE
  5
2022E
  8
0
100
AcDbEntity
100
AcDbPolyline
 70
0
 90
5
 10
-9757185.70058412
 20
5136639.19634326
 10
-9757185.48692028
 20
5136666.16553454
 10
-9757177.21962397
 20
5136666.09954199
 10
-9757177.43331103
 20
5136639.13035131
 10
-9757185.70058412
 20
5136639.19634326
  0
LWPOLYLINE
  5
2022F
  8
0
100
AcDbEntity
100
AcDbPolyline
 70
0
 90
5
 10
-9757196.91575984
 20
5136639.87862098
 10
-9757196.68804177
 20
5136668.62600596
 10
-9757187.83022184
 20
5136668.55530976
 10
-9757188.05796643
 20
5136639.80792546
 10
-9757196.91575984
 20
5136639.87862098
  0
LWPOLYLINE
  5
20230
  8
0
100
AcDbEntity
100
AcDbPolyline
 70
0
 90
5
 10
-9757206.95928719
 20
5136639.3660039
 10
-9757206.75272501
 20
5136665.44610126
 10
-9757198.48542899
 20
5136665.38012717
 10
-9757198.69201363
 20
5136639.3000304
 10
-9757206.95928719
 20
5136639.3660039
  0
LWPOLYLINE
  5
20231
  8
0
100
AcDbEntity
100
AcDbPolyline
 70
0
 90
9
 10
-9757217.14786693
 20
5136657.82306793
 10
-9757213.60474278
 20
5136657.79479812
 10
-9757213.62117242
 20
5136655.72024395
 10
-9757212.14487103
 20
5136655.70846449
 10
-9757212.09558112
 20
5136661.93212827
 10
-9757207.96193455
 20
5136661.89914448
 10
-9757206.95928719
 20
5136639.3660039
 10
-9757216.40760006
 20
5136639.4413934
 10
-9757217.14786693
 20
5136657.82306793
  0
LWPOLYLINE
  5
20232
  8
0
100
AcDbEntity
100
AcDbPolyline
 70
0
 90
5
 10
-9757216.47754807
 20
5136667.89476871
 10
-9757216.38601454
 20
5136679.4530193
 10
-9757209.00448932
 20
5136679.39412148
 10
-9757209.09603173
 20
5136667.83587112
 10
-9757216.47754807
 20
5136667.89476871
  0
LWPOLYLINE
  5
20233
  8
0
100
AcDbEntity
100
AcDbPolyline
 70
0
 90
5
 10
-9757227.35098538
 20
5136637.15763625
 10
-9757227.13978535
 20
5136663.83045884
 10
-9757219.16775094
 20
5136663.76685818
 10
-9757219.37897311
 20
5136637.09403617
 10
-9757227.35098538
 20
5136637.15763625
  0
LWPOLYLINE
  5
20234
  8
0
100
AcDbEntity
100
AcDbPolyline
 70
0
 90
5
 10
-9757227.08815839
 20
5136670.35049333
 10
-9757227.01541112
 20
5136679.53782211
 10
-9757218.45284163
 20
5136679.46950966
 10
-9757218.5255971
 20
5136670.28218109
 10
-9757227.08815839
 20
5136670.35049333
  0
LWPOLYLINE
  5
20235
  8
0
100
AcDbEntity
100
AcDbPolyline
 70
0
 90
5
 10
-9757265.46736529
 20
5136671.2493567
 10
-9757265.40638226
 20
5136678.95485894
 10
-9757239.1281521
 20
5136678.7452919
 10
-9757239.18915622
 20
5136671.0397902
 10
-9757265.46736529
 20
5136671.2493567
  0
LWPOLYLINE
  5
20236
  8
0
100
AcDbEntity
100
AcDbPolyline
 70
0
 90
5
 10
-9757047.31204858
 20
5136664.17247906
 10
-9757047.24148156
 20
5136673.06343359
 10
-9757025.68744951
 20
5136672.8910535
 10
-9757025.75803649
 20
5136664.00009948
 10
-9757047.31204858
 20
5136664.17247906
  0
LWPOLYLINE
  5
20237
  8
0
100
AcDbEntity
100
AcDbPolyline
 70
0
 90
7
 10
-9757047.31910527
 20
5136663.28338406
 10
-9757025.17222146
 20
5136663.40264609
 10
-9757025.23810295
 20
5136655.10443025
 10
-9757043.24662061
 20
5136655.54484223
 10
-9757043.2325065
 20
5136657.32303088
 10
-9757047.36614982
 20
5136657.35608613
 10
-9757047.31910527
 20
5136663.28338406
  0
LWPOLYLINE
  5
20238
  8
0
100
AcDbEntity
100
AcDbPolyline
 70
0
 90
5
 10
-9757056.53568092
 20
5136655.35472002
 10
-9757056.47453037
 20
5136663.06020658
 10
-9757048.79775956
 20
5136662.99882411
 10
-9757048.85891626
 20
5136655.29333771
 10
-9757056.53568092
 20
5136655.35472002
  0
LWPOLYLINE
  5
20239
  8
0
100
AcDbEntity
100
AcDbPolyline
 70
0
 90
11
 10
-9757265.2729611
 20
5136658.50330066
 10
-9757239.87587549
 20
5136658.89352938
 10
-9757239.87118293
 20
5136659.48625932
 10
-9757228.64659424
 20
5136659.98949041
 10
-9757227.84998575
 20
5136648.72056121
 10
-9757236.70778804
 20
5136648.79121988
 10
-9757236.80398916
 20
5136636.64027692
 10
-9757262.78684421
 20
5136636.84749398
 10
-9757265.15595849
 20
5136635.97723553
 10
-9757265.43714532
 20
5136637.75777558
 10
-9757265.2729611
 20
5136658.50330066
  0
LWPOLYLINE
  5
2023A
  8
0
100
AcDbEntity
100
AcDbPolyline
 70
0
 90
7
 10
-9757057.15442433
 20
5136651.80306514
 10
-9757024.9593132
 20
5136653.02751569
 10
-9757025.02990053
 20
5136644.13657995
 10
-9757052.49847299
 20
5136643.17072181
 10
-9757052.49376888
 20
5136643.76345058
 10
-9757057.510834
 20
5136644.09994825
 10
-9757057.15442433
 20
5136651.80306514
  0
LWPOLYLINE
  5
2023B
  8
0
100
AcDbEntity
100
AcDbPolyline
 70
0
 90
5
 10
-9757046.91553174
 20
5136602.52166947
 10
-9757046.84026095
 20
5136612.00529413
 10
-9757025.28636603
 20
5136611.83291559
 10
-9757025.36165812
 20
5136602.34929149
 10
-9757046.91553174
 20
5136602.52166947
  0
LWPOLYLINE
  5
2023C
  8
0
100
AcDbEntity
100
AcDbPolyline
 70
0
 90
5
 10
-9757072.87108645
 20
5136568.94170298
 10
-9757072.55834967
 20
5136608.35794398
 10
-9757063.40532868
 20
5136608.28477286
 10
-9757063.71810305
 20
5136568.86853284
 10
-9757072.87108645
 20
5136568.94170298
  0
LWPOLYLINE
  5
2023D
  8
0
100
AcDbEntity
100
AcDbPolyline
 70
0
 90
5
 10
-9757082.75467099
 20
5136588.58186359
 10
-9757082.59949825
 20
5136608.14182274
 10
-9757074.03699477
 20
5136608.07338163
 10
-9757074.19218496
 20
5136588.51342293
 10
-9757082.75467099
 20
5136588.58186359
  0
LWPOLYLINE
  5
2023E
  8
0
100
AcDbEntity
100
AcDbPolyline
 70
0
 90
5
 10
-9757092.05812498
 20
5136569.68781997
 10
-9757091.98760098
 20
5136578.57868837
 10
-9757084.01563939
 20
5136578.51497589
 10
-9757084.08617078
 20
5136569.62410768
 10
-9757092.05812498
 20
5136569.68781997
  0
LWPOLYLINE
  5
2023F
  8
0
100
AcDbEntity
100
AcDbPolyline
 70
0
 90
5
 10
-9757092.48643585
 20
5136590.14154871
 10
-9757092.33363369
 20
5136609.40514801
 10
-9757083.47587015
 20
5136609.33435576
 10
-9757083.62869008
 20
5136590.07075692
 10
-9757092.48643585
 20
5136590.14154871
  0
LWPOLYLINE
  5
20240
  8
0
100
AcDbEntity
100
AcDbPolyline
 70
0
 90
5
 10
-9757102.387439
 20
5136570.36312438
 10
-9757102.30987309
 20
5136580.14308094
 10
-9757093.45213639
 20
5136580.07229845
 10
-9757093.52971132
 20
5136570.29234212
 10
-9757102.387439
 20
5136570.36312438
  0
LWPOLYLINE
  5
20241
  8
0
100
AcDbEntity
100
AcDbPolyline
 70
0
 90
5
 10
-9757102.24876038
 20
5136587.84850823
 10
-9757102.08422536
 20
5136608.59391991
 10
-9757093.81697993
 20
5136608.52785587
 10
-9757093.98153281
 20
5136587.78244466
 10
-9757102.24876038
 20
5136587.84850823
  0
LWPOLYLINE
  5
20242
  8
0
100
AcDbEntity
100
AcDbPolyline
 70
0
 90
5
 10
-9757113.75207697
 20
5136589.42232709
 10
-9757113.59696737
 20
5136608.98228908
 10
-9757105.32972143
 20
5136608.91623503
 10
-9757105.48484787
 20
5136589.35627348
 10
-9757113.75207697
 20
5136589.42232709
  0
LWPOLYLINE
  5
20243
  8
0
100
AcDbEntity
100
AcDbPolyline
 70
0
 90
5
 10
-9757112.72850537
 20
5136569.55660678
 10
-9757112.66505101
 20
5136577.55838817
 10
-9757105.28360558
 20
5136577.49941139
 10
-9757105.3470661
 20
5136569.49763015
 10
-9757112.72850537
 20
5136569.55660678
  0
LWPOLYLINE
  5
20244
  8
0
100
AcDbEntity
100
AcDbPolyline
 70
0
 90
8
 10
-9757122.76643897
 20
5136606.98086864
 10
-9757118.92102553
 20
5136607.83929523
 10
-9757117.73059041
 20
5136609.01531341
 10
-9757116.25429647
 20
5136609.00351922
 10
-9757114.78740299
 20
5136607.80627142
 10
-9757114.6566524
 20
5136587.05850204
 10
-9757122.63097141
 20
5136586.82582632
 10
-9757122.76643897
 20
5136606.98086864
  0
LWPOLYLINE
  5
20245
  8
0
100
AcDbEntity
100
AcDbPolyline
 70
0
 90
5
 10
-9757133.59311402
 20
5136582.17128826
 10
-9757133.40750113
 20
5136605.58395801
 10
-9757125.73077518
 20
5136605.52263836
 10
-9757125.9164068
 20
5136582.10996909
 10
-9757133.59311402
 20
5136582.17128826
  0
LWPOLYLINE
  5
20246
  8
0
100
AcDbEntity
100
AcDbPolyline
 70
0
 90
5
 10
-9757133.69884223
 20
5136568.83498273
 10
-9757133.63540536
 20
5136576.83676384
 10
-9757125.07292899
 20
5136576.76836911
 10
-9757125.136373
 20
5136568.76658818
 10
-9757133.69884223
 20
5136568.83498273
  0
LWPOLYLINE
  5
20247
  8
0
100
AcDbEntity
100
AcDbPolyline
 70
0
 90
5
 10
-9757142.69442801
 20
5136588.76436995
 10
-9757142.54407594
 20
5136607.73160497
 10
-9757134.27683062
 20
5136607.66557606
 10
-9757134.42719903
 20
5136588.69834146
 10
-9757142.69442801
 20
5136588.76436995
  0
LWPOLYLINE
  5
20248
  8
0
100
AcDbEntity
100
AcDbPolyline
 70
0
 90
5
 10
-9757153.64481883
 20
5136585.59162101
 10
-9757153.47099931
 20
5136607.52248312
 10
-9757144.90849525
 20
5136607.45410572
 10
-9757145.08233433
 20
5136585.52324412
 10
-9757153.64481883
 20
5136585.59162101
  0
LWPOLYLINE
  5
20249
  8
0
100
AcDbEntity
100
AcDbPolyline
 70
0
 90
5
 10
-9757152.59297783
 20
5136569.28225735
 10
-9757152.52250991
 20
5136578.17312639
 10
-9757145.43632131
 20
5136578.11653844
 10
-9757145.5067958
 20
5136569.22566957
 10
-9757152.59297783
 20
5136569.28225735
  0
LWPOLYLINE
  5
2024A
  8
0
100
AcDbEntity
100
AcDbPolyline
 70
0
 90
5
 10
-9757163.41651914
 20
5136582.11306841
 10
-9757163.21453866
 20
5136607.60028252
 10
-9757154.94729313
 20
5136607.53427155
 10
-9757155.14929556
 20
5136582.047058
 10
-9757163.41651914
 20
5136582.11306841
  0
LWPOLYLINE
  5
2024B
  8
0
100
AcDbEntity
100
AcDbPolyline
 70
0
 90
5
 10
-9757162.93403936
 20
5136568.47568529
 10
-9757162.85653518
 20
5136578.25564105
 10
-9757154.58931494
 20
5136578.18963022
 10
-9757154.66682754
 20
5136568.40967467
 10
-9757162.93403936
 20
5136568.47568529
  0
LWPOLYLINE
  5
2024C
  8
0
100
AcDbEntity
100
AcDbPolyline
 70
0
 90
5
 10
-9757173.14594307
 20
5136583.96903277
 10
-9757172.96747154
 20
5136606.49261862
 10
-9757164.99548555
 20
5136606.42897348
 10
-9757165.17397579
 20
5136583.90538812
 10
-9757173.14594307
 20
5136583.96903277
  0
LWPOLYLINE
  5
2024D
  8
0
100
AcDbEntity
100
AcDbPolyline
 70
0
 90
5
 10
-9757184.06109925
 20
5136585.2416893
 10
-9757183.8920452
 20
5136606.5798252
 10
-9757174.44376526
 20
5136606.50440402
 10
-9757174.61284031
 20
5136585.16626867
 10
-9757184.06109925
 20
5136585.2416893
  0
LWPOLYLINE
  5
2024E
  8
0
100
AcDbEntity
100
AcDbPolyline
 70
0
 90
5
 10
-9757183.60676565
 20
5136568.04795613
 10
-9757183.51754266
 20
5136579.30972417
 10
-9757174.06928957
 20
5136579.23430311
 10
-9757174.15852364
 20
5136567.97253535
 10
-9757183.60676565
 20
5136568.04795613
  0
LWPOLYLINE
  5
2024F
  8
0
100
AcDbEntity
100
AcDbPolyline
 70
0
 90
5
 10
-9757194.67865266
 20
5136586.80833982
 10
-9757194.52136043
 20
5136606.66466282
 10
-9757185.66359772
 20
5136606.59396562
 10
-9757185.82090827
 20
5136586.7376431
 10
-9757194.67865266
 20
5136586.80833982
  0
LWPOLYLINE
  5
20250
  8
0
100
AcDbEntity
100
AcDbPolyline
 70
0
 90
5
 10
-9757193.35261315
 20
5136567.82936184
 10
-9757193.29392138
 20
5136575.23841826
 10
-9757185.61721884
 20
5136575.1771473
 10
-9757185.67591653
 20
5136567.76809103
 10
-9757193.35261315
 20
5136567.82936184
  0
LWPOLYLINE
  5
20251
  8
0
100
AcDbEntity
100
AcDbPolyline
 70
0
 90
5
 10
-9757203.3045181
 20
5136578.87488169
 10
-9757203.0815172
 20
5136607.02935895
 10
-9757195.70004786
 20
5136606.97045182
 10
-9757195.9230704
 20
5136578.81597512
 10
-9757203.3045181
 20
5136578.87488169
  0
LWPOLYLINE
  5
20252
  8
0
100
AcDbEntity
100
AcDbPolyline
 70
0
 90
5
 10
-9757214.82896483
 20
5136577.7813146
 10
-9757214.60365076
 20
5136606.23215262
 10
-9757206.33640562
 20
5136606.16618626
 10
-9757206.56174419
 20
5136577.71534888
 10
-9757214.82896483
 20
5136577.7813146
  0
LWPOLYLINE
  5
20253
  8
0
100
AcDbEntity
100
AcDbPolyline
 70
0
 90
9
 10
-9757224.6447954
 20
5136606.01588164
 10
-9757216.08229154
 20
5136605.94756824
 10
-9757215.71943244
 20
5136577.19565703
 10
-9757216.31229514
 20
5136576.9040061
 10
-9757216.64979815
 20
5136571.57183949
 10
-9757220.49049501
 20
5136571.30610094
 10
-9757219.86008315
 20
5136576.33954951
 10
-9757224.2889508
 20
5136576.37488299
 10
-9757224.6447954
 20
5136606.01588164
  0
LWPOLYLINE
  5
20254
  8
0
100
AcDbEntity
100
AcDbPolyline
 70
0
 90
11
 10
-9757265.07648356
 20
5136608.70940673
 10
-9757230.52415864
 20
5136609.32298709
 10
-9757230.56404983
 20
5136604.28481
 10
-9757226.72568666
 20
5136604.2541901
 10
-9757226.49144121
 20
5136596.5463925
 10
-9757230.92031823
 20
5136596.58172307
 10
-9757230.90858561
 20
5136598.06353841
 10
-9757245.07864857
 20
5136598.47294553
 10
-9757244.79746661
 20
5136596.69241216
 10
-9757264.87973485
 20
5136596.25979619
 10
-9757265.07648356
 20
5136608.70940673
  0
LWPOLYLINE
  5
20255
  8
0
100
AcDbEntity
100
AcDbPolyline
 70
0
 90
5
 10
-9757056.79782622
 20
5136585.11416874
 10
-9757056.6708236
 20
5136601.11776222
 10
-9757020.94454518
 20
5136600.8320499
 10
-9757021.07160736
 20
5136584.82845797
 10
-9757056.79782622
 20
5136585.11416874
  0
LWPOLYLINE
  5
20256
  8
0
100
AcDbEntity
100
AcDbPolyline
 70
0
 90
11
 10
-9757263.79486671
 20
5136584.09950157
 10
-9757257.59444656
 20
5136584.05005975
 10
-9757255.80882348
 20
5136585.81410898
 10
-9757249.60840231
 20
5136585.76466194
 10
-9757248.43675363
 20
5136584.56979218
 10
-9757246.36994686
 20
5136584.55330869
 10
-9757244.01726645
 20
5136583.3490192
 10
-9757235.1642172
 20
5136582.68564315
 10
-9757235.21349124
 20
5136576.4620301
 10
-9757263.56528281
 20
5136575.79899579
 10
-9757263.79486671
 20
5136584.09950157
  0
LWPOLYLINE
  5
20257
  8
0
100
AcDbEntity
100
AcDbPolyline
 70
0
 90
5
 10
-9757045.37685335
 20
5136573.16759852
 10
-9757045.30863829
 20
5136581.76210685
 10
-9757023.75481135
 20
5136581.58972607
 10
-9757023.82304571
 20
5136572.99521824
 10
-9757045.37685335
 20
5136573.16759852
  0
LWPOLYLINE
  5
20258
  8
0
100
AcDbEntity
100
AcDbPolyline
 70
0
 90
5
 10
-9757264.22616299
 20
5136566.91283561
 10
-9757264.15579851
 20
5136575.80370433
 10
-9757226.06753786
 20
5136575.49992857
 10
-9757226.13793762
 20
5136566.60906077
 10
-9757264.22616299
 20
5136566.91283561
  0
LWPOLYLINE
  5
20259
  8
0
100
AcDbEntity
100
AcDbPolyline
 70
0
 90
5
 10
-9757054.607455
 20
5136563.46083765
 10
-9757054.54395228
 20
5136571.46261313
 10
-9757038.8952998
 20
5136571.33748028
 10
-9757038.95881557
 20
5136563.33570514
 10
-9757054.607455
 20
5136563.46083765
  0
LWPOLYLINE
  5
2025A
  8
0
100
AcDbEntity
100
AcDbPolyline
 70
0
 90
5
 10
-9757053.51109693
 20
5136552.78237094
 10
-9757053.44759345
 20
5136560.78413757
 10
-9757024.80763927
 20
5136560.55509859
 10
-9757024.87116662
 20
5136552.55333258
 10
-9757053.51109693
 20
5136552.78237094
  0
LWPOLYLINE
  5
2025B
  8
0
100
AcDbEntity
100
AcDbPolyline
 70
0
 90
5
 10
-9757071.45695792
 20
5136523.88060605
 10
-9757071.18419306
 20
5136558.25851167
 10
-9757061.73596268
 20
5136558.18297957
 10
-9757062.00876137
 20
5136523.80507483
 10
-9757071.45695792
 20
5136523.88060605
  0
LWPOLYLINE
  5
2025C
  8
0
100
AcDbEntity
100
AcDbPolyline
 70
0
 90
5
 10
-9757081.27701392
 20
5136551.52243549
 10
-9757081.20648023
 20
5136560.41328701
 10
-9757073.23453389
 20
5136560.34956577
 10
-9757073.30507496
 20
5136551.45871445
 10
-9757081.27701392
 20
5136551.52243549
  0
LWPOLYLINE
  5
2025D
  8
0
100
AcDbEntity
100
AcDbPolyline
 70
0
 90
5
 10
-9757082.07442392
 20
5136525.44737127
 10
-9757081.93335867
 20
5136543.22903457
 10
-9757072.48514289
 20
5136543.1535134
 10
-9757072.62622564
 20
5136525.37185056
 10
-9757082.07442392
 20
5136525.44737127
  0
LWPOLYLINE
  5
2025E
  8
0
100
AcDbEntity
100
AcDbPolyline
 70
0
 90
5
 10
-9757091.90861692
 20
5136551.31102492
 10
-9757091.83809308
 20
5136560.20187643
 10
-9757084.16140402
 20
5136560.14052392
 10
-9757084.23193498
 20
5136551.2496726
 10
-9757091.90861692
 20
5136551.31102492
  0
LWPOLYLINE
  5
2025F
  8
0
100
AcDbEntity
100
AcDbPolyline
 70
0
 90
5
 10
-9757092.11313485
 20
5136525.52760177
 10
-9757091.96033427
 20
5136544.79107235
 10
-9757083.39788715
 20
5136544.72264067
 10
-9757083.55070492
 20
5136525.45917054
 10
-9757092.11313485
 20
5136525.52760177
  0
LWPOLYLINE
  5
20260
  8
0
100
AcDbEntity
100
AcDbPolyline
 70
0
 90
5
 10
-9757101.87774406
 20
5136522.93821562
 10
-9757101.62859317
 20
5136554.3525026
 10
-9757093.06613737
 20
5136554.28407946
 10
-9757093.31531628
 20
5136522.8697932
 10
-9757101.87774406
 20
5136522.93821562
  0
LWPOLYLINE
  5
20261
  8
0
100
AcDbEntity
100
AcDbPolyline
 70
0
 90
5
 10
-9757112.26959973
 20
5136552.95562264
 10
-9757112.20614524
 20
5136560.9573903
 10
-9757104.82471259
 20
5136560.89841339
 10
-9757104.88817324
 20
5136552.8966459
 10
-9757112.26959973
 20
5136552.95562264
  0
LWPOLYLINE
  5
20262
  8
0
100
AcDbEntity
100
AcDbPolyline
 70
0
 90
9
 10
-9757112.6494622
 20
5136542.28896835
 10
-9757103.79176025
 20
5136542.21819609
 10
-9757103.63987921
 20
5136524.13781396
 10
-9757105.70902277
 20
5136523.85796744
 10
-9757105.71372347
 20
5136523.26524596
 10
-9757108.37102879
 20
5136523.28647787
 10
-9757108.36162772
 20
5136524.47192087
 10
-9757112.19995814
 20
5136524.50258789
 10
-9757112.6494622
 20
5136542.28896835
  0
LWPOLYLINE
  5
20263
  8
0
100
AcDbEntity
100
AcDbPolyline
 70
0
 90
5
 10
-9757122.62239582
 20
5136550.66728757
 10
-9757122.5542503
 20
5136559.26177715
 10
-9757114.5823043
 20
5136559.19809053
 10
-9757114.65045696
 20
5136550.60360113
 10
-9757122.62239582
 20
5136550.66728757
  0
LWPOLYLINE
  5
20264
  8
0
100
AcDbEntity
100
AcDbPolyline
 70
0
 90
5
 10
-9757122.53157501
 20
5136524.88150603
 10
-9757122.35768688
 20
5136546.81222919
 10
-9757113.20472373
 20
5136546.73910697
 10
-9757113.37863278
 20
5136524.80838436
 10
-9757122.53157501
 20
5136524.88150603
  0
LWPOLYLINE
  5
20265
  8
0
100
AcDbEntity
100
AcDbPolyline
 70
0
 90
5
 10
-9757132.36822644
 20
5136550.44875591
 10
-9757132.29539054
 20
5136559.63596915
 10
-9757124.32344408
 20
5136559.57229067
 10
-9757124.39628761
 20
5136550.38507763
 10
-9757132.36822644
 20
5136550.44875591
  0
LWPOLYLINE
  5
20266
  8
0
100
AcDbEntity
100
AcDbPolyline
 70
0
 90
7
 10
-9757132.69637686
 20
5136546.30205305
 10
-9757123.83867088
 20
5136546.23129936
 10
-9757124.00550626
 20
5136525.18965982
 10
-9757129.61537439
 20
5136525.23447112
 10
-9757129.92942743
 20
5136522.86594339
 10
-9757132.58673276
 20
5136522.88716854
 10
-9757132.69637686
 20
5136546.30205305
  0
LWPOLYLINE
  5
20267
  8
0
100
AcDbEntity
100
AcDbPolyline
 70
0
 90
5
 10
-9757143.87150356
 20
5136552.02253191
 10
-9757143.80807542
 20
5136560.02429926
 10
-9757138.78870139
 20
5136559.98421225
 10
-9757138.85213371
 20
5136551.982445
 10
-9757143.87150356
 20
5136552.02253191
  0
LWPOLYLINE
  5
20268
  8
0
100
AcDbEntity
100
AcDbPolyline
 70
0
 90
7
 10
-9757143.00687532
 20
5136549.34820363
 10
-9757134.73968029
 20
5136549.28217602
 10
-9757134.34652233
 20
5136524.38312202
 10
-9757137.59668987
 20
5136524.1127015
 10
-9757137.90839155
 20
5136522.04053446
 10
-9757142.33723346
 20
5136522.07590558
 10
-9757143.00687532
 20
5136549.34820363
  0
LWPOLYLINE
  5
20269
  8
0
100
AcDbEntity
100
AcDbPolyline
 70
0
 90
9
 10
-9757153.34086938
 20
5136549.43072805
 10
-9757144.77841714
 20
5136549.36235147
 10
-9757144.68283848
 20
5136524.16929457
 10
-9757145.86621238
 20
5136523.88236546
 10
-9757145.5850509
 20
5136522.1018431
 10
-9757147.94709997
 20
5136522.12070606
 10
-9757147.92595856
 20
5136524.78795288
 10
-9757153.53817558
 20
5136524.53638929
 10
-9757153.34086938
 20
5136549.43072805
  0
LWPOLYLINE
  5
2026A
  8
0
100
AcDbEntity
100
AcDbPolyline
 70
0
 90
7
 10
-9757163.89966365
 20
5136558.40644968
 10
-9757155.92771774
 20
5136558.34279767
 10
-9757154.13338571
 20
5136523.94838302
 10
-9757163.28632783
 20
5136524.02146553
 10
-9757163.13132155
 20
5136543.58129705
 10
-9757163.37960674
 20
5136549.51088391
 10
-9757163.89966365
 20
5136558.40644968
  0
LWPOLYLINE
  5
2026B
  8
0
100
AcDbEntity
100
AcDbPolyline
 70
0
 90
9
 10
-9757173.45826498
 20
5136544.55288375
 10
-9757170.50569661
 20
5136544.52931275
 10
-9757170.24096856
 20
5136540.67425795
 10
-9757164.92869622
 20
5136540.33546645
 10
-9757164.76965441
 20
5136523.14416989
 10
-9757165.96242156
 20
5136521.67179539
 10
-9757171.57228807
 20
5136521.71658194
 10
-9757173.03447913
 20
5136523.50653181
 10
-9757173.45826498
 20
5136544.55288375
  0
LWPOLYLINE
  5
2026C
  8
0
100
AcDbEntity
100
AcDbPolyline
 70
0
 90
5
 10
-9757183.34261846
 20
5136526.84899231
 10
-9757183.19469686
 20
5136545.51974588
 10
-9757174.9275045
 20
5136545.45375321
 10
-9757175.07544218
 20
5136526.78300005
 10
-9757183.34261846
 20
5136526.84899231
  0
LWPOLYLINE
  5
2026D
  8
0
100
AcDbEntity
100
AcDbPolyline
 70
0
 90
5
 10
-9757194.37924385
 20
5136550.05471886
 10
-9757194.31116259
 20
5136558.64920905
 10
-9757188.40601697
 20
5136558.60207891
 10
-9757188.47410352
 20
5136550.00758885
 10
-9757194.37924385
 20
5136550.05471886
  0
LWPOLYLINE
  5
2026E
  8
0
100
AcDbEntity
100
AcDbPolyline
 70
0
 90
5
 10
-9757194.87874268
 20
5136524.2736505
 10
-9757194.7097151
 20
5136545.6116523
 10
-9757186.14726561
 20
5136545.54331296
 10
-9757186.31631222
 20
5136524.20531165
 10
-9757194.87874268
 20
5136524.2736505
  0
LWPOLYLINE
  5
2026F
  8
0
100
AcDbEntity
100
AcDbPolyline
 70
0
 90
5
 10
-9757205.28966998
 20
5136551.92006954
 10
-9757205.23568223
 20
5136558.73639018
 10
-9757196.96847815
 20
5136558.67041643
 10
-9757197.02247176
 20
5136551.85409594
 10
-9757205.28966998
 20
5136551.92006954
  0
LWPOLYLINE
  5
20270
  8
0
100
AcDbEntity
100
AcDbPolyline
 70
0
 90
5
 10
-9757204.31755282
 20
5136525.53449329
 10
-9757204.16497743
 20
5136544.79796793
 10
-9757195.60252851
 20
5136544.7296371
 10
-9757195.75512108
 20
5136525.46616291
 10
-9757204.31755282
 20
5136525.53449329
  0
LWPOLYLINE
  5
20271
  8
0
100
AcDbEntity
100
AcDbPolyline
 70
0
 90
5
 10
-9757214.66091037
 20
5136524.43150738
 10
-9757214.52478478
 20
5136541.62045051
 10
-9757205.371825
 20
5136541.54741693
 10
-9757205.50796698
 20
5136524.35847422
 10
-9757214.66091037
 20
5136524.43150738
  0
LWPOLYLINE
  5
20272
  8
0
100
AcDbEntity
100
AcDbPolyline
 70
0
 90
7
 10
-9757263.70366716
 20
5136558.31362844
 10
-9757226.20129721
 20
5136558.60728673
 10
-9757225.96235963
 20
5136551.49224883
 10
-9757231.86750129
 20
5136551.53935562
 10
-9757231.88861951
 20
5136548.87210099
 10
-9757263.48346571
 20
5136548.82769832
 10
-9757263.70366716
 20
5136558.31362844
  0
LWPOLYLINE
  5
20273
  8
0
100
AcDbEntity
100
AcDbPolyline
 70
0
 90
5
 10
-9757263.78575918
 20
5136547.94096783
 10
-9757230.41702752
 20
5136548.2676015
 10
-9757230.48507629
 20
5136539.67311996
 10
-9757263.55852133
 20
5136539.34413178
 10
-9757263.78575918
 20
5136547.94096783
  0
LWPOLYLINE
  5
20274
  8
0
100
AcDbEntity
100
AcDbPolyline
 70
0
 90
8
 10
-9757043.48882422
 20
5136550.6275683
 10
-9757024.29241701
 20
5136551.06680145
 10
-9757022.83024978
 20
5136549.27682388
 10
-9757022.84436731
 20
5136547.49865517
 10
-9757024.33476879
 20
5136545.73229527
 10
-9757024.35123891
 20
5136543.6577659
 10
-9757043.25943144
 20
5136542.32708786
 10
-9757043.48882422
 20
5136550.6275683
  0
LWPOLYLINE
  5
20275
  8
0
100
AcDbEntity
100
AcDbPolyline
 70
0
 90
5
 10
-9757040.38214049
 20
5136532.81992034
 10
-9757040.31862637
 20
5136540.82167026
 10
-9757022.60322781
 20
5136540.67998306
 10
-9757022.6667567
 20
5136532.67823353
 10
-9757040.38214049
 20
5136532.81992034
  0
LWPOLYLINE
  5
20276
  8
0
100
AcDbEntity
100
AcDbPolyline
 70
0
 90
5
 10
-9757262.8369364
 20
5136518.59179962
 10
-9757262.76657143
 20
5136527.48262389
 10
-9757225.2690153
 20
5136527.18355691
 10
-9757225.339415
 20
5136518.29273353
 10
-9757262.8369364
 20
5136518.59179962
  0
LWPOLYLINE
  5
20277
  8
0
100
AcDbEntity
100
AcDbPolyline
 70
0
 90
11
 10
-9757262.98208089
 20
5136537.56125555
 10
-9757229.61338533
 20
5136537.88788643
 10
-9757229.65327633
 20
5136532.84974656
 10
-9757225.81494173
 20
5136532.81912681
 10
-9757225.84779476
 20
5136528.67007246
 10
-9757248.88013893
 20
5136528.55740656
 10
-9757248.85433367
 20
5136531.81737779
 10
-9757254.46420699
 20
5136531.86211564
 10
-9757254.4923561
 20
5136528.3057834
 10
-9757263.05479131
 20
5136528.37406104
 10
-9757262.98208089
 20
5136537.56125555
  0
LWPOLYLINE
  5
20278
  8
0
100
AcDbEntity
100
AcDbPolyline
 70
0
 90
5
 10
-9757049.03395621
 20
5136521.62667935
 10
-9757048.96104104
 20
5136530.81386377
 10
-9757023.27373978
 20
5136530.60843038
 10
-9757023.34667953
 20
5136521.42124659
 10
-9757049.03395621
 20
5136521.62667935
  0
LWPOLYLINE
  5
20279
  8
0
100
AcDbEntity
100
AcDbPolyline
 70
0
 90
5
 10
-9757333.69666336
 20
5136626.97434065
 10
-9757291.97095371
 20
5136627.68440881
 10
-9757291.87070601
 20
5136618.47433183
 10
-9757333.42464812
 20
5136617.58913647
 10
-9757333.69666336
 20
5136626.97434065
  0
LWPOLYLINE
  5
2027A
  8
0
100
AcDbEntity
100
AcDbPolyline
 70
0
 90
9
 10
-9757332.94587672
 20
5136590.56570132
 10
-9757291.39205162
 20
5136591.45089327
 10
-9757291.2986775
 20
5136581.37210949
 10
-9757321.59679321
 20
5136580.9185226
 10
-9757321.7520313
 20
5136583.17862939
 10
-9757324.34854208
 20
5136583.19931683
 10
-9757324.36640406
 20
5136580.94058921
 10
-9757332.67798443
 20
5136580.65928769
 10
-9757332.94587672
 20
5136590.56570132
  0
LWPOLYLINE
  5
2027B
  8
0
100
AcDbEntity
100
AcDbPolyline
 70
0
 90
5
 10
-9757318.30929107
 20
5136558.82493497
 10
-9757290.26292327
 20
5136559.12270023
 10
-9757290.15168042
 20
5136551.30267016
 10
-9757318.19802536
 20
5136551.00490525
 10
-9757318.30929107
 20
5136558.82493497
  0
LWPOLYLINE
  5
2027C
  8
0
100
AcDbEntity
100
AcDbPolyline
 70
0
 90
5
 10
-9757319.07726688
 20
5136549.27432438
 10
-9757291.20540169
 20
5136549.39972394
 10
-9757291.09965646
 20
5136540.88471161
 10
-9757318.97012284
 20
5136540.93305976
 10
-9757319.07726688
 20
5136549.27432438
  0
LWPOLYLINE
  5
2027D
  8
0
100
AcDbEntity
100
AcDbPolyline
 70
0
 90
9
 10
-9757314.21951584
 20
5136528.73212046
 10
-9757289.98280467
 20
5136528.88648149
 10
-9757290.04741094
 20
5136520.72036129
 10
-9757314.11237606
 20
5136520.39087355
 10
-9757314.09863442
 20
5136522.12834538
 10
-9757318.25439929
 20
5136521.98770061
 10
-9757318.22691748
 20
5136525.46264517
 10
-9757314.07252527
 20
5136525.4295427
 10
-9757314.21951584
 20
5136528.73212046
  0
LWPOLYLINE
  5
2027E
  8
0
100
AcDbEntity
100
AcDbPolyline
 70
0
 90
23
 10
-9756868.52119903
 20
5136732.60777581
 10
-9756815.47455411
 20
5136733.14462785
 10
-9756815.57668205
 20
5136720.31634665
 10
-9756819.41082057
 20
5136720.34709881
 10
-9756819.39550217
 20
5136722.27133993
 10
-9756823.55425897
 20
5136721.66323929
 10
-9756823.57212945
 20
5136719.41829149
 10
-9756831.55991746
 20
5136719.48235003
 10
-9756831.54204884
 20
5136721.72729789
 10
-9756836.01521125
 20
5136721.76316777
 10
-9756836.03307881
 20
5136719.51821989
 10
-9756845.94048847
 20
5136719.27693172
 10
-9756845.92262322
 20
5136721.52187959
 10
-9756849.43725084
 20
5136721.55005794
 10
-9756849.77717885
 20
5136718.98696486
 10
-9756855.2088747
 20
5136719.03051045
 10
-9756855.18590787
 20
5136721.91687207
 10
-9756859.02004732
 20
5136721.9476083
 10
-9756859.04046125
 20
5136719.38195346
 10
-9756865.75020358
 20
5136719.4357381
 10
-9756865.73489448
 20
5136721.3599792
 10
-9756868.29098734
 20
5136721.38046736
 10
-9756868.52119903
 20
5136732.60777581
  0
LWPOLYLINE
  5
2027F
  8
0
100
AcDbEntity
100
AcDbPolyline
 70
0
 90
7
 10
-9756782.54949698
 20
5136734.80485068
 10
-9756753.14672791
 20
5136735.53105195
 10
-9756753.24893921
 20
5136722.7027691
 10
-9756766.34891438
 20
5136722.80791837
 10
-9756766.33358533
 20
5136724.73215979
 10
-9756782.31683156
 20
5136723.89824553
 10
-9756782.54949698
 20
5136734.80485068
  0
LWPOLYLINE
  5
20280
  8
0
100
AcDbEntity
100
AcDbPolyline
 70
0
 90
5
 10
-9756866.68844699
 20
5136641.66720833
 10
-9756813.95926052
 20
5136642.52731715
 10
-9756813.72400738
 20
5136631.94152039
 10
-9756866.46334144
 20
5136629.79859776
 10
-9756866.68844699
 20
5136641.66720833
  0
LWPOLYLINE
  5
20281
  8
0
100
AcDbEntity
100
AcDbPolyline
 70
0
 90
5
 10
-9756803.10106347
 20
5136641.79876896
 10
-9756795.75235837
 20
5136641.73981447
 10
-9756795.79321927
 20
5136636.60854864
 10
-9756803.14192043
 20
5136636.66750303
 10
-9756803.10106347
 20
5136641.79876896
  0
LWPOLYLINE
  5
20282
  8
0
100
AcDbEntity
100
AcDbPolyline
 70
0
 90
5
 10
-9756804.46591867
 20
5136630.90508445
 10
-9756795.51967914
 20
5136630.83331447
 10
-9756795.8953712
 20
5136623.78039598
 10
-9756804.52209584
 20
5136623.84960243
 10
-9756804.46591867
 20
5136630.90508445
  0
LWPOLYLINE
  5
20283
  8
0
100
AcDbEntity
100
AcDbPolyline
 70
0
 90
27
 10
-9756870.13611698
 20
5136609.94314972
 10
-9756817.72661285
 20
5136610.80583917
 10
-9756817.09780936
 20
5136609.51790128
 10
-9756814.54174654
 20
5136609.49739992
 10
-9756814.28351473
 20
5136601.79796488
 10
-9756816.52006791
 20
5136601.81590363
 10
-9756816.55836423
 20
5136597.00536151
 10
-9756819.75343862
 20
5136597.03098735
 10
-9756819.73556775
 20
5136599.27590673
 10
-9756825.80365781
 20
5136599.64529572
 10
-9756825.82152725
 20
5136597.40037624
 10
-9756832.85069135
 20
5136597.45674484
 10
-9756832.8353761
 20
5136599.38096155
 10
-9756838.26955644
 20
5136599.10381276
 10
-9756838.28231825
 20
5136597.50029884
 10
-9756847.22852743
 20
5136597.5720281
 10
-9756847.53017054
 20
5136599.81950933
 10
-9756852.63973949
 20
5136600.18119641
 10
-9756852.66015454
 20
5136597.61557391
 10
-9756859.05795918
 20
5136596.70469202
 10
-9756859.03754584
 20
5136599.27031432
 10
-9756861.59360616
 20
5136599.29080369
 10
-9756861.61401881
 20
5136596.72518138
 10
-9756866.72868954
 20
5136596.44545528
 10
-9756866.70827825
 20
5136599.01107754
 10
-9756869.90335361
 20
5136599.03668657
 10
-9756870.13611698
 20
5136609.94314972
  0
LWPOLYLINE
  5
20284
  8
0
100
AcDbEntity
100
AcDbPolyline
 70
0
 90
23
 10
-9756867.40714047
 20
5136671.82113682
 10
-9756813.72436491
 20
5136672.03215191
 10
-9756813.50953744
 20
5136658.88068427
 10
-9756817.66571399
 20
5136658.59329469
 10
-9756817.64784238
 20
5136660.83822835
 10
-9756822.12097629
 20
5136660.87410425
 10
-9756822.46090927
 20
5136658.31102827
 10
-9756829.80962742
 20
5136658.36996239
 10
-9756829.79175865
 20
5136660.61489605
 10
-9756837.45998824
 20
5136660.67638653
 10
-9756837.47785522
 20
5136658.43145282
 10
-9756844.18755467
 20
5136658.48525188
 10
-9756844.17224146
 20
5136660.40948078
 10
-9756848.32586582
 20
5136660.44278261
 10
-9756848.34628232
 20
5136657.87714414
 10
-9756856.33401948
 20
5136657.94118099
 10
-9756856.31615691
 20
5136660.18611467
 10
-9756860.15027171
 20
5136660.21685
 10
-9756860.16813337
 20
5136657.9719163
 10
-9756864.32175681
 20
5136658.00521114
 10
-9756864.63106024
 20
5136659.29059142
 10
-9756866.86762702
 20
5136659.30851859
 10
-9756867.40714047
 20
5136671.82113682
  0
LWPOLYLINE
  5
20285
  8
0
100
AcDbEntity
100
AcDbPolyline
 70
0
 90
25
 10
-9756920.80610175
 20
5136667.11738733
 10
-9756910.90129703
 20
5136667.03804751
 10
-9756910.04910696
 20
5136613.47020483
 10
-9756920.59287249
 20
5136613.55466289
 10
-9756920.57757476
 20
5136615.47888312
 10
-9756922.49462346
 20
5136615.49423788
 10
-9756923.07245074
 20
5136623.19624086
 10
-9756920.83589213
 20
5136623.17832703
 10
-9756920.80274708
 20
5136627.3474755
 10
-9756922.71979815
 20
5136627.36283026
 10
-9756922.65605913
 20
5136635.38042857
 10
-9756920.73900646
 20
5136635.36507376
 10
-9756920.388902
 20
5136639.21096411
 10
-9756923.26448215
 20
5136639.2339963
 10
-9756923.19819386
 20
5136647.57230892
 10
-9756921.28113876
 20
5136647.55695418
 10
-9756921.25309295
 20
5136651.08470397
 10
-9756923.48965806
 20
5136651.10261782
 10
-9756923.42846888
 20
5136658.79953096
 10
-9756920.87239242
 20
5136658.7790579
 10
-9756920.85454495
 20
5136661.02399204
 10
-9756923.41062201
 20
5136661.04446512
 10
-9756923.3825769
 20
5136664.57221985
 10
-9756921.46806802
 20
5136664.23616006
 10
-9756920.80610175
 20
5136667.11738733
  0
LWPOLYLINE
  5
20286
  8
0
100
AcDbEntity
100
AcDbPolyline
 70
0
 90
21
 10
-9756891.02282107
 20
5136675.53837829
 10
-9756880.47898804
 20
5136675.45388629
 10
-9756879.85272296
 20
5136673.84523848
 10
-9756876.65762264
 20
5136673.81963233
 10
-9756876.39933976
 20
5136666.12014723
 10
-9756878.95541796
 20
5136666.14063227
 10
-9756878.98347942
 20
5136662.61287727
 10
-9756875.78838284
 20
5136662.5872709
 10
-9756875.86236597
 20
5136653.28683214
 10
-9756878.7379501
 20
5136653.30987784
 10
-9756878.75835843
 20
5136650.74424112
 10
-9756875.56581696
 20
5136650.39793021
 10
-9756875.63724895
 20
5136641.41820741
 10
-9756878.51282953
 20
5136641.44125312
 10
-9756878.54344202
 20
5136637.59280301
 10
-9756875.34835378
 20
5136637.56719665
 10
-9756875.09262379
 20
5136629.54703655
 10
-9756879.24878605
 20
5136629.25962083
 10
-9756879.26664312
 20
5136627.01469424
 10
-9756890.1299314
 20
5136627.10174682
 10
-9756891.02282107
 20
5136675.53837829
  0
LWPOLYLINE
  5
20287
  8
0
100
AcDbEntity
100
AcDbPolyline
 70
0
 90
23
 10
-9756922.52892657
 20
5136731.7575986
 10
-9756911.98503115
 20
5136731.67314035
 10
-9756911.12263299
 20
5136679.38776156
 10
-9756923.90304268
 20
5136679.4901336
 10
-9756923.87244807
 20
5136683.33860071
 10
-9756920.9968547
 20
5136683.31556847
 10
-9756920.94841133
 20
5136689.40897781
 10
-9756923.82400653
 20
5136689.4320101
 10
-9756923.77046576
 20
5136696.16683547
 10
-9756921.53389015
 20
5136696.1489215
 10
-9756921.48799662
 20
5136701.92163265
 10
-9756923.72457358
 20
5136701.93954666
 10
-9756924.30495591
 20
5136709.32091196
 10
-9756922.06837724
 20
5136709.30299805
 10
-9756921.70297245
 20
5136715.07315789
 10
-9756924.25906391
 20
5136715.093631
 10
-9756924.20297356
 20
5136722.14918119
 10
-9756921.96639189
 20
5136722.13126721
 10
-9756921.62138372
 20
5136725.33577798
 10
-9756924.49189057
 20
5136726.00022438
 10
-9756924.46894454
 20
5136728.88658846
 10
-9756922.2323613
 20
5136728.86867451
 10
-9756922.52892657
 20
5136731.7575986
  0
LWPOLYLINE
  5
20288
  8
0
100
AcDbEntity
100
AcDbPolyline
 70
0
 90
17
 10
-9756892.48459851
 20
5136732.79981887
 10
-9756880.66010354
 20
5136733.02579243
 10
-9756880.67796072
 20
5136730.78084174
 10
-9756877.48284144
 20
5136730.75523554
 10
-9756876.64421
 20
5136715.67432681
 10
-9756879.51981283
 20
5136715.69737262
 10
-9756879.5580786
 20
5136710.88677327
 10
-9756876.68247722
 20
5136710.8637275
 10
-9756877.06831789
 20
5136702.52792172
 10
-9756879.94646781
 20
5136702.23026107
 10
-9756880.30169305
 20
5136697.74293509
 10
-9756876.46756312
 20
5136697.71220759
 10
-9756876.85340334
 20
5136689.37641315
 10
-9756880.04850884
 20
5136689.40201932
 10
-9756880.06381495
 20
5136687.47778453
 10
-9756891.89080442
 20
5136686.93110645
 10
-9756892.48459851
 20
5136732.79981887
  0
LWPOLYLINE
  5
20289
  8
0
100
AcDbEntity
100
AcDbPolyline
 70
0
 90
25
 10
-9756994.13018537
 20
5136728.48209542
 10
-9756935.01283714
 20
5136728.97103283
 10
-9756935.73343475
 20
5136718.71352608
 10
-9756936.69196944
 20
5136718.72120217
 10
-9756937.03697233
 20
5136715.516693
 10
-9756943.74926185
 20
5136715.24971593
 10
-9756944.04838212
 20
5136717.81792852
 10
-9756950.43861289
 20
5136717.86909506
 10
-9756950.45645368
 20
5136715.6241476
 10
-9756957.80521748
 20
5136715.68298377
 10
-9756957.78737841
 20
5136717.92793128
 10
-9756964.17506119
 20
5136718.29979543
 10
-9756964.19799522
 20
5136715.4134343
 10
-9756971.54675905
 20
5136715.47225987
 10
-9756971.53147117
 20
5136717.39650057
 10
-9756977.28267891
 20
5136717.44253405
 10
-9756977.30051342
 20
5136715.19758657
 10
-9756984.64927726
 20
5136715.25640203
 10
-9756984.95095602
 20
5136717.50390662
 10
-9756987.50704843
 20
5136717.52436277
 10
-9756987.52742799
 20
5136714.95870848
 10
-9756991.68107708
 20
5136714.99194824
 10
-9756991.66324594
 20
5136717.23689573
 10
-9756993.58031521
 20
5136717.25223655
 10
-9756994.13018537
 20
5136728.48209542
  0
LWPOLYLINE
  5
2028A
  8
0
100
AcDbEntity
100
AcDbPolyline
 70
0
 90
5
 10
-9756805.86206115
 20
5136696.3442687
 10
-9756752.17403992
 20
5136697.19634809
 10
-9756751.6985583
 20
5136676.66605539
 10
-9756805.38901818
 20
5136675.493274
 10
-9756805.86206115
 20
5136696.3442687
  0
LWPOLYLINE
  5
2028B
  8
0
100
AcDbEntity
100
AcDbPolyline
 70
0
 90
5
 10
-9756868.43386711
 20
5136703.42089851
 10
-9756814.74580833
 20
5136704.27333084
 10
-9756814.19614928
 20
5136693.04349186
 10
-9756867.88669667
 20
5136691.87035708
 10
-9756868.43386711
 20
5136703.42089851
  0
LWPOLYLINE
  5
2028C
  8
0
100
AcDbEntity
100
AcDbPolyline
 70
0
 90
5
 10
-9756805.40178571
 20
5136673.88974751
 10
-9756780.7995173
 20
5136673.6923603
 10
-9756780.87103835
 20
5136664.71261747
 10
-9756805.15377406
 20
5136664.90744102
 10
-9756805.40178571
 20
5136673.88974751
  0
LWPOLYLINE
  5
2028D
  8
0
100
AcDbEntity
100
AcDbPolyline
 70
0
 90
9
 10
-9756772.80665899
 20
5136674.26967039
 10
-9756763.85782467
 20
5136674.51857522
 10
-9756762.26538464
 20
5136673.86434232
 10
-9756760.34832487
 20
5136673.8489551
 10
-9756758.1015348
 20
5136675.11382391
 10
-9756750.43585016
 20
5136674.73156407
 10
-9756750.824354
 20
5136666.07509065
 10
-9756773.51465232
 20
5136665.6157604
 10
-9756772.80665899
 20
5136674.26967039
  0
LWPOLYLINE
  5
2028E
  8
0
100
AcDbEntity
100
AcDbPolyline
 70
0
 90
5
 10
-9756805.48094424
 20
5136663.94788921
 10
-9756750.83968594
 20
5136664.15086096
 10
-9756750.91123486
 20
5136655.1711275
 10
-9756805.87705835
 20
5136654.32930878
 10
-9756805.48094424
 20
5136663.94788921
  0
LWPOLYLINE
  5
2028F
  8
0
100
AcDbEntity
100
AcDbPolyline
 70
0
 90
5
 10
-9756773.60917106
 20
5136653.7496835
 10
-9756750.92145612
 20
5136653.88830911
 10
-9756750.99044948
 20
5136645.22928946
 10
-9756773.6806985
 20
5136644.76995931
 10
-9756773.60917106
 20
5136653.7496835
  0
LWPOLYLINE
  5
20290
  8
0
100
AcDbEntity
100
AcDbPolyline
 70
0
 90
7
 10
-9756779.75903262
 20
5136643.85656253
 10
-9756753.87880657
 20
5136643.6488515
 10
-9756753.5848498
 20
5136640.43924488
 10
-9756756.77993826
 20
5136640.46489211
 10
-9756756.50897665
 20
5136634.36895082
 10
-9756779.83566281
 20
5136634.23543952
 10
-9756779.75903262
 20
5136643.85656253
  0
LWPOLYLINE
  5
20291
  8
0
100
AcDbEntity
100
AcDbPolyline
 70
0
 90
5
 10
-9756774.09472518
 20
5136632.90647207
 10
-9756750.77059762
 20
5136632.71926546
 10
-9756750.5251931
 20
5136623.41629275
 10
-9756773.84929804
 20
5136623.60349956
 10
-9756774.09472518
 20
5136632.90647207
  0
LWPOLYLINE
  5
20292
  8
0
100
AcDbEntity
100
AcDbPolyline
 70
0
 90
7
 10
-9756804.5728443
 20
5136577.34512755
 10
-9756768.14140961
 20
5136578.01497893
 10
-9756767.78358225
 20
5136582.82294691
 10
-9756748.61061125
 20
5136582.98977395
 10
-9756747.90507174
 20
5136551.23261135
 10
-9756804.15598388
 20
5136549.43896175
 10
-9756804.5728443
 20
5136577.34512755
  0
LWPOLYLINE
  5
20293
  8
0
100
AcDbEntity
100
AcDbPolyline
 70
0
 90
25
 10
-9756993.07137034
 20
5136660.63997773
 10
-9756933.95189086
 20
5136661.44961426
 10
-9756934.03856358
 20
5136650.54565257
 10
-9756935.95561932
 20
5136650.56100475
 10
-9756935.97346322
 20
5136648.31607298
 10
-9756943.96119373
 20
5136648.38003621
 10
-9756943.94080285
 20
5136650.94567262
 10
-9756949.37246115
 20
5136650.98916383
 10
-9756949.39539926
 20
5136648.10282287
 10
-9756957.38567821
 20
5136647.84607034
 10
-9756957.3627425
 20
5136650.73241127
 10
-9756962.15538219
 20
5136650.77077927
 10
-9756962.17576821
 20
5136648.20514282
 10
-9756970.16349903
 20
5136648.26908408
 10
-9756970.46517244
 20
5136650.5165735
 10
-9756976.5358494
 20
5136650.56516421
 10
-9756976.55877935
 20
5136647.67882323
 10
-9756983.90494396
 20
5136648.05834285
 10
-9756983.8896588
 20
5136649.98257018
 10
-9756986.7626951
 20
5136650.32628785
 10
-9756986.78052711
 20
5136648.08135592
 10
-9756989.65356294
 20
5136648.42507264
 10
-9756989.64082628
 20
5136650.02859547
 10
-9756992.83337213
 20
5136650.37486818
 10
-9756993.07137034
 20
5136660.63997773
  0
LWPOLYLINE
  5
20294
  8
0
100
AcDbEntity
100
AcDbPolyline
 70
0
 90
5
 10
-9756992.37520751
 20
5136627.59975456
 10
-9756933.58053851
 20
5136627.77053712
 10
-9756933.34770279
 20
5136616.86405468
 10
-9756991.82789125
 20
5136616.04930937
 10
-9756992.37520751
 20
5136627.59975456
  0
LWPOLYLINE
  5
20295
  8
0
100
AcDbEntity
100
AcDbPolyline
 70
0
 90
5
 10
-9756993.44293161
 20
5136694.31916914
 10
-9756935.28177696
 20
5136695.13648491
 10
-9756934.72687884
 20
5136684.54807347
 10
-9756993.84904783
 20
5136683.41772592
 10
-9756993.44293161
 20
5136694.31916914
  0
LWPOLYLINE
  5
20296
  8
0
100
AcDbEntity
100
AcDbPolyline
 70
0
 90
5
 10
-9756803.32003422
 20
5136534.03763003
 10
-9756793.09586371
 20
5136533.95560715
 10
-9756793.15460178
 20
5136526.57949563
 10
-9756803.700823
 20
5136526.34338096
 10
-9756803.32003422
 20
5136534.03763003
  0
LWPOLYLINE
  5
20297
  8
0
100
AcDbEntity
100
AcDbPolyline
 70
0
 90
9
 10
-9756779.01974958
 20
5136536.08771231
 10
-9756769.11508272
 20
5136536.0082275
 10
-9756769.09209099
 20
5136538.89453402
 10
-9756763.01893219
 20
5136539.16651317
 10
-9756762.72242036
 20
5136536.27764219
 10
-9756748.97857852
 20
5136536.80876416
 10
-9756749.38496387
 20
5136525.90751166
 10
-9756779.09893287
 20
5136526.14599617
 10
-9756779.01974958
 20
5136536.08771231
  0
LWPOLYLINE
  5
20298
  8
0
100
AcDbEntity
100
AcDbPolyline
 70
0
 90
5
 10
-9756832.04743749
 20
5136537.79596845
 10
-9756814.15002503
 20
5136538.29387657
 10
-9756813.92498562
 20
5136526.42539231
 10
-9756832.13932851
 20
5136526.25074747
 10
-9756832.04743749
 20
5136537.79596845
  0
LWPOLYLINE
  5
20299
  8
0
100
AcDbEntity
100
AcDbPolyline
 70
0
 90
5
 10
-9756928.34180611
 20
5136563.26322638
 10
-9756921.95167854
 20
5136563.21204687
 10
-9756921.98737214
 20
5136558.72222451
 10
-9756927.73848425
 20
5136558.76828619
 10
-9756928.34180611
 20
5136563.26322638
  0
LWPOLYLINE
  5
2029A
  8
0
100
AcDbEntity
100
AcDbPolyline
 70
0
 90
34
 10
-9756905.33299022
 20
5136603.81071594
 10
-9756893.83071258
 20
5136603.71856108
 10
-9756893.87662168
 20
5136597.94590884
 10
-9756887.48902215
 20
5136597.57400301
 10
-9756887.52218144
 20
5136593.40486764
 10
-9756884.96612257
 20
5136593.38438525
 10
-9756884.68232651
 20
5136588.89198886
 10
-9756887.23838419
 20
5136588.9124713
 10
-9756887.29705067
 20
5136581.53631655
 10
-9756884.74354576
 20
5136581.19513191
 10
-9756884.76650293
 20
5136578.30881213
 10
-9756886.68864554
 20
5136577.6827697
 10
-9756886.43290717
 20
5136569.6626595
 10
-9756884.51586776
 20
5136569.64729764
 10
-9756884.2295217
 20
5136565.47561399
 10
-9756886.4660667
 20
5136565.49353617
 10
-9756886.84934107
 20
5136557.47855661
 10
-9756884.29584256
 20
5136557.13737277
 10
-9756884.00694611
 20
5136553.28639583
 10
-9756886.56044358
 20
5136553.62757961
 10
-9756886.94371729
 20
5136545.61260988
 10
-9756884.38767115
 20
5136545.59212757
 10
-9756884.39277273
 20
5136544.95072546
 10
-9756884.09622416
 20
5136542.06185617
 10
-9756886.65226936
 20
5136542.08233854
 10
-9756887.04319452
 20
5136533.10527637
 10
-9756884.16764636
 20
5136533.08223382
 10
-9756883.87619979
 20
5136529.55196699
 10
-9756886.43224166
 20
5136529.57244936
 10
-9756886.46285017
 20
5136525.72404371
 10
-9756897.0090692
 20
5136525.48782573
 10
-9756898.0378705
 20
5136597.01708014
 10
-9756904.74752778
 20
5136597.07083578
 10
-9756905.33299022
 20
5136603.81071594
  0
LWPOLYLINE
  5
2029B
  8
0
100
AcDbEntity
100
AcDbPolyline
 70
0
 90
32
 10
-9756986.51088603
 20
5136601.57419774
 10
-9756976.28409229
 20
5136601.81307315
 10
-9756974.66410444
 20
5136524.1853616
 10
-9756985.8467834
 20
5136524.27486023
 10
-9756985.17720425
 20
5136528.11815216
 10
-9756987.41628832
 20
5136527.81534994
 10
-9756987.38317292
 20
5136531.98445782
 10
-9756985.46614068
 20
5136531.96911641
 10
-9756984.77363394
 20
5136538.698719
 10
-9756987.01017313
 20
5136538.71661746
 10
-9756986.98469956
 20
5136541.92362697
 10
-9756985.70667673
 20
5136541.91339933
 10
-9756985.31329596
 20
5136551.21117595
 10
-9756987.23033205
 20
5136551.22651747
 10
-9756987.19976376
 20
5136555.07493399
 10
-9756985.92173918
 20
5136555.06470634
 10
-9756985.54364247
 20
5136562.43828532
 10
-9756987.75980843
 20
5136565.02179753
 10
-9756985.8249377
 20
5136567.25136873
 10
-9756986.39771853
 20
5136575.59473413
 10
-9756987.67574584
 20
5136575.60496177
 10
-9756987.9697792
 20
5136578.81454039
 10
-9756986.0527376
 20
5136578.79919894
 10
-9756985.97886253
 20
5136588.09956798
 10
-9756987.895906
 20
5136588.11490949
 10
-9756988.19248712
 20
5136591.00378964
 10
-9756986.27544308
 20
5136590.98844818
 10
-9756986.2423267
 20
5136595.15758328
 10
-9756988.47633171
 20
5136595.49618441
 10
-9756988.46104766
 20
5136597.4204013
 10
-9756986.54400234
 20
5136597.40505987
 10
-9756986.51088603
 20
5136601.57419774
  0
LWPOLYLINE
  5
2029C
  8
0
100
AcDbEntity
100
AcDbPolyline
 70
0
 90
13
 10
-9756948.27353808
 20
5136548.02818655
 10
-9756937.729844
 20
5136547.94376043
 10
-9756937.85219607
 20
5136532.55011631
 10
-9756929.54505668
 20
5136532.48359088
 10
-9756929.52976104
 20
5136534.40779502
 10
-9756924.09816892
 20
5136534.36429368
 10
-9756923.7633667
 20
5136536.28593917
 10
-9756909.38562036
 20
5136536.17077306
 10
-9756909.79182354
 20
5136525.26951261
 10
-9756961.56439524
 20
5136524.08050365
 10
-9756961.79471363
 20
5136535.30758181
 10
-9756948.05597864
 20
5136535.19758953
 10
-9756948.27353808
 20
5136548.02818655
  0
LWPOLYLINE
  5
2029D
  8
0
100
AcDbEntity
100
AcDbPolyline
 70
0
 90
22
 10
-9756875.71926497
 20
5137020.54476984
 10
-9756803.6203233
 20
5137020.74061656
 10
-9756803.29878139
 20
5136915.86439031
 10
-9756759.91383798
 20
5136844.69815501
 10
-9756754.13110143
 20
5136844.65173643
 10
-9756753.65913709
 20
5136807.11070137
 10
-9756770.24241555
 20
5136806.46984539
 10
-9756772.53392432
 20
5136809.19710441
 10
-9756772.72216602
 20
5136833.96544721
 10
-9756785.83277007
 20
5136833.68367426
 10
-9756830.74145018
 20
5136907.18384113
 10
-9756830.96680295
 20
5136927.30889875
 10
-9756843.30341574
 20
5136927.40782323
 10
-9756846.35369452
 20
5136931.68912712
 10
-9756846.97999769
 20
5136949.88251552
 10
-9756853.91935886
 20
5136949.93815113
 10
-9756856.97888673
 20
5136953.05857464
 10
-9756856.82801097
 20
5136972.01974772
 10
-9756870.31508761
 20
5136972.90183629
 10
-9756869.89570221
 20
5136977.15534167
 10
-9756875.67851986
 20
5136977.20169142
 10
-9756875.71926497
 20
5137020.54476984
  0
LWPOLYLINE
  5
2029E
  8
0
100
AcDbEntity
100
AcDbPolyline
 70
0
 90
9
 10
-9756855.61657827
 20
5136855.46168321
 10
-9756836.35428996
 20
5136867.93004685
 10
-9756835.36743918
 20
5136866.51959884
 10
-9756833.36184512
 20
5136867.70568849
 10
-9756831.98535778
 20
5136865.08994329
 10
-9756833.39054914
 20
5136864.0994016
 10
-9756831.61485731
 20
5136861.48045604
 10
-9756851.48072824
 20
5136848.41586424
 10
-9756855.61657827
 20
5136855.46168321
  0
LWPOLYLINE
  5
2029F
  8
0
100
AcDbEntity
100
AcDbPolyline
 70
0
 90
8
 10
-9756912.91521076
 20
5136854.31796533
 10
-9756892.65498489
 20
5136866.77844722
 10
-9756891.27848144
 20
5136864.16271068
 10
-9756889.08285309
 20
5136864.1451168
 10
-9756888.10077546
 20
5136862.13362707
 10
-9756888.11671069
 20
5136860.13013513
 10
-9756908.57971666
 20
5136847.2705726
 10
-9756912.91521076
 20
5136854.31796533
  0
LWPOLYLINE
  5
202A0
  8
0
100
AcDbEntity
100
AcDbPolyline
 70
0
 90
5
 10
-9756848.69426867
 20
5136847.39171584
 10
-9756834.45713161
 20
5136855.49239143
 10
-9756830.91531974
 20
5136849.0524122
 10
-9756844.55523832
 20
5136840.74659732
 10
-9756848.69426867
 20
5136847.39171584
  0
LWPOLYLINE
  5
202A1
  8
0
100
AcDbEntity
100
AcDbPolyline
 70
0
 90
5
 10
-9756828.02839145
 20
5136860.65024665
 10
-9756817.19722249
 20
5136867.17532478
 10
-9756813.06299096
 20
5136859.92913168
 10
-9756823.69455213
 20
5136853.40246226
 10
-9756828.02839145
 20
5136860.65024665
  0
LWPOLYLINE
  5
202A2
  8
0
100
AcDbEntity
100
AcDbPolyline
 70
0
 90
5
 10
-9756958.78077598
 20
5136860.09504298
 10
-9756951.3604544
 20
5136864.44359727
 10
-9756946.82532495
 20
5136857.39461608
 10
-9756954.45002184
 20
5136852.44661942
 10
-9756958.78077598
 20
5136860.09504298
  0
LWPOLYLINE
  5
202A3
  8
0
100
AcDbEntity
100
AcDbPolyline
 70
0
 90
5
 10
-9756907.99046859
 20
5136846.06368202
 10
-9756887.5306515
 20
5136858.52254341
 10
-9756883.19676792
 20
5136851.27478725
 10
-9756903.46015933
 20
5136838.41364777
 10
-9756907.99046859
 20
5136846.06368202
  0
LWPOLYLINE
  5
202A4
  8
0
100
AcDbEntity
100
AcDbPolyline
 70
0
 90
7
 10
-9756815.95950722
 20
5136847.12920948
 10
-9756807.13872571
 20
5136851.86713592
 10
-9756792.18594266
 20
5136824.49801373
 10
-9756798.40709892
 20
5136820.34034211
 10
-9756806.87511435
 20
5136834.83428601
 10
-9756809.47153468
 20
5136834.65475234
 10
-9756815.95950722
 20
5136847.12920948
  0
LWPOLYLINE
  5
202A5
  8
0
100
AcDbEntity
100
AcDbPolyline
 70
0
 90
7
 10
-9756838.75561642
 20
5136842.10262562
 10
-9756824.31568704
 20
5136850.602379
 10
-9756822.55435415
 20
5136846.18029557
 10
-9756819.94676632
 20
5136847.76227513
 10
-9756818.17427111
 20
5136844.7426339
 10
-9756834.02576257
 20
5136834.45096156
 10
-9756838.75561642
 20
5136842.10262562
  0
LWPOLYLINE
  5
202A6
  8
0
100
AcDbEntity
100
AcDbPolyline
 70
0
 90
5
 10
-9756818.28614955
 20
5136855.76342665
 10
-9756813.07096641
 20
5136858.92738603
 10
-9756809.5259774
 20
5136852.88809467
 10
-9756814.93757055
 20
5136850.12643807
 10
-9756818.28614955
 20
5136855.76342665
  0
LWPOLYLINE
  5
202A7
  8
0
100
AcDbEntity
100
AcDbPolyline
 70
0
 90
5
 10
-9756953.25559202
 20
5136852.03633273
 10
-9756946.83647102
 20
5136855.99217221
 10
-9756942.69896102
 20
5136849.14674075
 10
-9756948.92006913
 20
5136844.98895973
 10
-9756953.25559202
 20
5136852.03633273
  0
LWPOLYLINE
  5
202A8
  8
0
100
AcDbEntity
100
AcDbPolyline
 70
0
 90
5
 10
-9757044.5549796
 20
5136842.54843766
 10
-9757030.71403579
 20
5136851.05329473
 10
-9757026.37686548
 20
5136844.20630604
 10
-9757040.22098381
 20
5136835.3007638
 10
-9757044.5549796
 20
5136842.54843766
  0
LWPOLYLINE
  5
202A9
  8
0
100
AcDbEntity
100
AcDbPolyline
 70
0
 90
5
 10
-9756984.26197256
 20
5136843.57402073
 10
-9756963.8003571
 20
5136856.65229828
 10
-9756959.08294693
 20
5136849.19441106
 10
-9756979.09328866
 20
5136835.6559198
 10
-9756984.26197256
 20
5136843.57402073
  0
LWPOLYLINE
  5
202AA
  8
0
100
AcDbEntity
100
AcDbPolyline
 70
0
 90
5
 10
-9756894.65217531
 20
5136841.54886104
 10
-9756882.41429508
 20
5136849.26489921
 10
-9756877.4832069
 20
5136841.81199986
 10
-9756890.31988732
 20
5136834.10077221
 10
-9756894.65217531
 20
5136841.54886104
  0
LWPOLYLINE
  5
202AB
  8
0
100
AcDbEntity
100
AcDbPolyline
 70
0
 90
5
 10
-9756932.89296785
 20
5136852.27400113
 10
-9756926.06985539
 20
5136856.82767688
 10
-9756922.72280513
 20
5136850.99037593
 10
-9756929.14511786
 20
5136846.63385698
 10
-9756932.89296785
 20
5136852.27400113
  0
LWPOLYLINE
  5
202AC
  8
0
100
AcDbEntity
100
AcDbPolyline
 70
0
 90
5
 10
-9756947.94116536
 20
5136842.57678237
 10
-9756940.31965791
 20
5136847.12407097
 10
-9756936.57976803
 20
5136840.48218875
 10
-9756943.8020679
 20
5136835.93170963
 10
-9756947.94116536
 20
5136842.57678237
  0
LWPOLYLINE
  5
202AD
  8
0
100
AcDbEntity
100
AcDbPolyline
 70
0
 90
5
 10
-9757037.42337456
 20
5136835.67911279
 10
-9757023.58561588
 20
5136843.78325571
 10
-9757018.65282932
 20
5136836.53078132
 10
-9757032.89137584
 20
5136828.22949591
 10
-9757037.42337456
 20
5136835.67911279
  0
LWPOLYLINE
  5
202AE
  8
0
100
AcDbEntity
100
AcDbPolyline
 70
0
 90
5
 10
-9756981.5005107
 20
5136833.27792095
 10
-9756959.43862878
 20
5136847.37076808
 10
-9756955.17339671
 20
5136840.25897285
 10
-9756977.00600922
 20
5136826.39262167
 10
-9756981.5005107
 20
5136833.27792095
  0
LWPOLYLINE
  5
202AF
  8
0
100
AcDbEntity
100
AcDbPolyline
 70
0
 90
7
 10
-9756901.36809724
 20
5136825.37339829
 10
-9756877.49436306
 20
5136840.40955843
 10
-9756873.15890132
 20
5136833.36216004
 10
-9756893.42545471
 20
5136820.10036881
 10
-9756895.79040104
 20
5136823.92618015
 10
-9756899.19956346
 20
5136821.94988375
 10
-9756901.36809724
 20
5136825.37339829
  0
LWPOLYLINE
  5
202B0
  8
0
100
AcDbEntity
100
AcDbPolyline
 70
0
 90
7
 10
-9756837.66643446
 20
5136828.46931502
 10
-9756815.30624675
 20
5136828.89107495
 10
-9756815.32698215
 20
5136826.28654482
 10
-9756812.13335398
 20
5136826.26092834
 10
-9756812.17961174
 20
5136820.45082525
 10
-9756837.73500064
 20
5136819.85433344
 10
-9756837.66643446
 20
5136828.46931502
  0
LWPOLYLINE
  5
202B1
  8
0
100
AcDbEntity
100
AcDbPolyline
 70
0
 90
5
 10
-9756927.96502405
 20
5136844.42042745
 10
-9756920.74589604
 20
5136848.57020052
 10
-9756917.20084264
 20
5136842.53095506
 10
-9756923.62474491
 20
5136837.97409488
 10
-9756927.96502405
 20
5136844.42042745
  0
LWPOLYLINE
  5
202B2
  8
0
100
AcDbEntity
100
AcDbPolyline
 70
0
 90
9
 10
-9756975.88419856
 20
5136824.44300106
 10
-9756959.76947851
 20
5136834.35968182
 10
-9756955.50878737
 20
5136826.67715565
 10
-9756969.56560875
 20
5136818.11388073
 10
-9756970.01505768
 20
5136818.80241028
 10
-9756971.27144806
 20
5136818.1275354
 10
-9756973.1793398
 20
5136821.33915606
 10
-9756974.09365546
 20
5136820.77569786
 10
-9756975.88419856
 20
5136824.44300106
  0
LWPOLYLINE
  5
202B3
  8
0
100
AcDbEntity
100
AcDbPolyline
 70
0
 90
10
 10
-9757027.2094919
 20
5136814.75985298
 10
-9757010.75624981
 20
5136825.44773455
 10
-9757009.18011805
 20
5136822.83042906
 10
-9757007.18410044
 20
5136822.81445951
 10
-9757006.0039914
 20
5136820.60104495
 10
-9757006.21473042
 20
5136819.20020326
 10
-9757015.64214428
 20
5136813.46515627
 10
-9757015.86242675
 20
5136810.86222611
 10
-9757022.27989869
 20
5136807.10670611
 10
-9757027.2094919
 20
5136814.75985298
  0
LWPOLYLINE
  5
202B4
  8
0
100
AcDbEntity
100
AcDbPolyline
 70
0
 90
9
 10
-9756965.57624729
 20
5136819.22349911
 10
-9756954.83189369
 20
5136825.98680386
 10
-9756954.49526111
 20
5136825.41333172
 10
-9756952.0943844
 20
5136826.99228472
 10
-9756947.9392606
 20
5136820.33800416
 10
-9756950.45567324
 20
5136818.53166774
 10
-9756949.89068879
 20
5136818.07052281
 10
-9756960.63412986
 20
5136811.42137708
 10
-9756965.57624729
 20
5136819.22349911
  0
LWPOLYLINE
  5
202B5
  8
0
100
AcDbEntity
100
AcDbPolyline
 70
0
 90
5
 10
-9756777.97407371
 20
5136779.30281163
 10
-9756767.79283856
 20
5136779.42146378
 10
-9756767.91573061
 20
5136763.99472202
 10
-9756777.69934428
 20
5136763.67251911
 10
-9756777.97407371
 20
5136779.30281163
  0
LWPOLYLINE
  5
202B6
  8
0
100
AcDbEntity
100
AcDbPolyline
 70
0
 90
5
 10
-9756809.03522823
 20
5136789.16931913
 10
-9756784.88031828
 20
5136789.37624895
 10
-9756784.78922166
 20
5136775.7510155
 10
-9756808.54808621
 20
5136775.14018885
 10
-9756809.03522823
 20
5136789.16931913
  0
LWPOLYLINE
  5
202B7
  8
0
100
AcDbEntity
100
AcDbPolyline
 70
0
 90
5
 10
-9756846.53789461
 20
5136792.27512293
 10
-9756827.36821896
 20
5136793.12321072
 10
-9756826.19587652
 20
5136764.86301244
 10
-9756845.56350188
 20
5136764.21687643
 10
-9756846.53789461
 20
5136792.27512293
  0
LWPOLYLINE
  5
202B8
  8
0
100
AcDbEntity
100
AcDbPolyline
 70
0
 90
5
 10
-9756938.5019915
 20
5136824.66903366
 10
-9756928.47093755
 20
5136831.00026025
 10
-9756915.06367503
 20
5136810.05531428
 10
-9756925.29431698
 20
5136803.72571408
 10
-9756938.5019915
 20
5136824.66903366
  0
LWPOLYLINE
  5
202B9
  8
0
100
AcDbEntity
100
AcDbPolyline
 70
0
 90
5
 10
-9756770.99294285
 20
5136803.69076947
 10
-9756753.22204455
 20
5136804.34957411
 10
-9756752.4124054
 20
5136780.70053153
 10
-9756755.41918737
 20
5136779.12178583
 10
-9756770.99294285
 20
5136803.69076947
  0
LWPOLYLINE
  5
202BA
  8
0
100
AcDbEntity
100
AcDbPolyline
 70
0
 90
6
 10
-9756767.30585614
 20
5136790.43737614
 10
-9756764.69667852
 20
5136792.21967923
 10
-9756753.46947258
 20
5136773.29568916
 10
-9756753.14370145
 20
5136764.07651215
 10
-9756766.32052306
 20
5136763.78155902
 10
-9756767.30585614
 20
5136790.43737614
  0
LWPOLYLINE
  5
202BB
  8
0
100
AcDbEntity
100
AcDbPolyline
 70
0
 90
14
 10
-9757014.81913089
 20
5136791.41888946
 10
-9757002.84147331
 20
5136791.52342149
 10
-9757002.60527671
 20
5136796.1298248
 10
-9756996.01843702
 20
5136796.07711949
 10
-9756996.25622802
 20
5136791.27036861
 10
-9756991.06659943
 20
5136791.22884018
 10
-9756990.54258998
 20
5136781.807707
 10
-9756992.35809392
 20
5136779.41791183
 10
-9756998.54572042
 20
5136779.4674252
 10
-9756998.53935567
 20
5136780.2688154
 10
-9756999.93656178
 20
5136780.27999529
 10
-9757000.14093612
 20
5136779.68054973
 10
-9757014.91299101
 20
5136779.59837666
 10
-9757014.81913089
 20
5136791.41888946
  0
LWPOLYLINE
  5
202BC
  8
0
100
AcDbEntity
100
AcDbPolyline
 70
0
 90
14
 10
-9756967.59706736
 20
5136805.66732566
 10
-9756951.74894913
 20
5136815.558495
 10
-9756944.85047123
 20
5136804.48340918
 10
-9756940.03456
 20
5136807.65061853
 10
-9756930.37512963
 20
5136792.34584943
 10
-9756923.3476794
 20
5136797.49894049
 10
-9756906.78191026
 20
5136772.12083315
 10
-9756911.99382959
 20
5136769.35754468
 10
-9756879.25773671
 20
5136769.29560791
 10
-9756879.37127897
 20
5136780.11596713
 10
-9756866.59363849
 20
5136780.41427677
 10
-9756866.3458617
 20
5136761.37808194
 10
-9756938.81197216
 20
5136760.55614145
 10
-9756967.59706736
 20
5136805.66732566
  0
LWPOLYLINE
  5
202BD
  8
0
100
AcDbEntity
100
AcDbPolyline
 70
0
 90
9
 10
-9757149.48207711
 20
5137095.75249276
 10
-9757148.16972873
 20
5137096.56127604
 10
-9757148.65033299
 20
5137097.71208398
 10
-9757135.85589773
 20
5137105.47483455
 10
-9757131.501895
 20
5137098.72208678
 10
-9757143.64469653
 20
5137090.79029033
 10
-9757146.551697
 20
5137094.74597316
 10
-9757148.19180762
 20
5137093.77595511
 10
-9757149.48207711
 20
5137095.75249276
  0
LWPOLYLINE
  5
202BE
  8
0
100
AcDbEntity
100
AcDbPolyline
 70
0
 90
5
 10
-9757084.53994204
 20
5137089.27267393
 10
-9757077.81441443
 20
5137093.727697
 10
-9757073.56561201
 20
5137087.17038854
 10
-9757080.19480799
 20
5137082.81053292
 10
-9757084.53994204
 20
5137089.27267393
  0
LWPOLYLINE
  5
202BF
  8
0
100
AcDbEntity
100
AcDbPolyline
 70
0
 90
7
 10
-9757147.43279454
 20
5137086.56037478
 10
-9757130.03930352
 20
5137097.89113926
 10
-9757125.0440737
 20
5137089.65859729
 10
-9757137.35399735
 20
5137081.23659373
 10
-9757138.32949003
 20
5137081.73594299
 10
-9757143.24462128
 20
5137079.48126492
 10
-9757147.43279454
 20
5137086.56037478
  0
LWPOLYLINE
  5
202C0
  8
0
100
AcDbEntity
100
AcDbPolyline
 70
0
 90
5
 10
-9757205.57920221
 20
5137096.22763658
 10
-9757187.63213505
 20
5137108.75568864
 10
-9757182.90111415
 20
5137101.50839389
 10
-9757200.19178588
 20
5137089.41206205
 10
-9757205.57920221
 20
5137096.22763658
  0
LWPOLYLINE
  5
202C1
  8
0
100
AcDbEntity
100
AcDbPolyline
 70
0
 90
5
 10
-9757223.16576999
 20
5137083.11884295
 10
-9757216.35188004
 20
5137087.21926678
 10
-9757212.7046152
 20
5137080.69278019
 10
-9757219.34132256
 20
5137076.7235476
 10
-9757223.16576999
 20
5137083.11884295
  0
LWPOLYLINE
  5
202C2
  8
0
100
AcDbEntity
100
AcDbPolyline
 70
0
 90
5
 10
-9757063.9745643
 20
5137091.41063005
 10
-9757046.20312208
 20
5137102.78031981
 10
-9757041.29221452
 20
5137095.35431174
 10
-9757059.06364862
 20
5137083.98463979
 10
-9757063.9745643
 20
5137091.41063005
  0
LWPOLYLINE
  5
202C3
  8
0
100
AcDbEntity
100
AcDbPolyline
 70
0
 90
5
 10
-9757111.10051062
 20
5137098.23139212
 10
-9757103.39222682
 20
5137102.7576787
 10
-9757098.39701752
 20
5137094.52511883
 10
-9757106.10659645
 20
5137089.83499778
 10
-9757111.10051062
 20
5137098.23139212
  0
LWPOLYLINE
  5
202C4
  8
0
100
AcDbEntity
100
AcDbPolyline
 70
0
 90
9
 10
-9757138.67803477
 20
5137078.95323393
 10
-9757122.59429881
 20
5137089.80287912
 10
-9757117.59258318
 20
5137082.38955111
 10
-9757134.00926998
 20
5137070.72332035
 10
-9757134.49376823
 20
5137071.38259987
 10
-9757136.13387603
 20
5137070.41258621
 10
-9757137.58737136
 20
5137072.39042446
 10
-9757135.61300668
 20
5137074.34088319
 10
-9757138.67803477
 20
5137078.95323393
  0
LWPOLYLINE
  5
202C5
  8
0
100
AcDbEntity
100
AcDbPolyline
 70
0
 90
5
 10
-9757206.10792648
 20
5137084.43446149
 10
-9757185.98272663
 20
5137097.16358343
 10
-9757181.68180451
 20
5137090.57514074
 10
-9757201.15926132
 20
5137077.1854572
 10
-9757206.10792648
 20
5137084.43446149
  0
LWPOLYLINE
  5
202C6
  8
0
100
AcDbEntity
100
AcDbPolyline
 70
0
 90
5
 10
-9757217.90260579
 20
5137074.89987428
 10
-9757211.1317017
 20
5137079.13323348
 10
-9757207.2628815
 20
5137072.78178171
 10
-9757213.81397122
 20
5137068.50247423
 10
-9757217.90260579
 20
5137074.89987428
  0
LWPOLYLINE
  5
202C7
  8
0
100
AcDbEntity
100
AcDbPolyline
 70
0
 90
5
 10
-9757072.53296842
 20
5137072.77241964
 10
-9757065.71492398
 20
5137076.8429614
 10
-9757062.98075783
 20
5137072.1204644
 10
-9757069.51438034
 20
5137067.75985885
 10
-9757072.53296842
 20
5137072.77241964
  0
LWPOLYLINE
  5
202C8
  8
0
100
AcDbEntity
100
AcDbPolyline
 70
0
 90
5
 10
-9757054.08193709
 20
5137085.47971009
 10
-9757037.27378952
 20
5137095.89776297
 10
-9757032.93782304
 20
5137088.2844912
 10
-9757049.36445189
 20
5137077.7674719
 10
-9757054.08193709
 20
5137085.47971009
  0
LWPOLYLINE
  5
202C9
  8
0
100
AcDbEntity
100
AcDbPolyline
 70
0
 90
5
 10
-9757250.32215443
 20
5137090.36325359
 10
-9757243.06409735
 20
5137094.94635646
 10
-9757239.23788232
 20
5137088.77204672
 10
-9757246.23279183
 20
5137084.05425115
 10
-9757250.32215443
 20
5137090.36325359
  0
LWPOLYLINE
  5
202CA
  8
0
100
AcDbEntity
100
AcDbPolyline
 70
0
 90
5
 10
-9757104.64140955
 20
5137089.33173175
 10
-9757097.5886563
 20
5137093.5355422
 10
-9757092.91342149
 20
5137086.12480751
 10
-9757100.13070242
 20
5137081.75846597
 10
-9757104.64140955
 20
5137089.33173175
  0
LWPOLYLINE
  5
202CB
  8
0
100
AcDbEntity
100
AcDbPolyline
 70
0
 90
9
 10
-9757131.07240394
 20
5137070.53600858
 10
-9757129.75875842
 20
5137071.50862923
 10
-9757130.23935924
 20
5137072.65943508
 10
-9757116.94485398
 20
5137081.72896584
 10
-9757111.77861607
 20
5137074.47817896
 10
-9757124.91378217
 20
5137064.91583247
 10
-9757128.46719714
 20
5137069.6959359
 10
-9757129.94537295
 20
5137068.56077757
 10
-9757131.07240394
 20
5137070.53600858
  0
LWPOLYLINE
  5
202CC
  8
0
100
AcDbEntity
100
AcDbPolyline
 70
0
 90
5
 10
-9757200.73262963
 20
5137076.08970258
 10
-9757182.56968275
 20
5137088.39752596
 10
-9757177.84040659
 20
5137080.93178785
 10
-9757195.78397279
 20
5137068.84070183
 10
-9757200.73262963
 20
5137076.08970258
  0
LWPOLYLINE
  5
202CD
  8
0
100
AcDbEntity
100
AcDbPolyline
 70
0
 90
5
 10
-9757213.25660296
 20
5137066.59743469
 10
-9757207.81087337
 20
5137070.310964
 10
-9757203.9829404
 20
5137064.35764118
 10
-9757209.38428571
 20
5137060.68796195
 10
-9757213.25660296
 20
5137066.59743469
  0
LWPOLYLINE
  5
202CE
  8
0
100
AcDbEntity
100
AcDbPolyline
 70
0
 90
5
 10
-9757057.34682701
 20
5137071.49983021
 10
-9757032.08228098
 20
5137087.70205919
 10
-9757027.17063041
 20
5137080.37198094
 10
-9757052.34340421
 20
5137063.68938708
 10
-9757057.34682701
 20
5137071.49983021
  0
LWPOLYLINE
  5
202CF
  8
0
100
AcDbEntity
100
AcDbPolyline
 70
0
 90
13
 10
-9757124.76094406
 20
5137063.60379345
 10
-9757109.82113806
 20
5137074.29868591
 10
-9757108.68501506
 20
5137073.47034579
 10
-9757106.38807981
 20
5137074.92666386
 10
-9757103.15983725
 20
5137070.31300044
 10
-9757105.12900967
 20
5137069.0179171
 10
-9757103.67552158
 20
5137067.04007466
 10
-9757119.59860753
 20
5137055.86149922
 10
-9757120.7334302
 20
5137056.85367827
 10
-9757121.71931312
 20
5137056.04229395
 10
-9757122.85153768
 20
5137057.36215628
 10
-9757121.86175713
 20
5137058.66506616
 10
-9757124.76094406
 20
5137063.60379345
  0
LWPOLYLINE
  5
202D0
  8
0
100
AcDbEntity
100
AcDbPolyline
 70
0
 90
5
 10
-9757100.14499774
 20
5137079.95620232
 10
-9757092.92511878
 20
5137084.65022748
 10
-9757087.59956546
 20
5137076.90659465
 10
-9757095.30913535
 20
5137072.21649081
 10
-9757100.14499774
 20
5137079.95620232
  0
LWPOLYLINE
  5
202D1
  8
0
100
AcDbEntity
100
AcDbPolyline
 70
0
 90
9
 10
-9757193.28693253
 20
5137068.08343648
 10
-9757172.60812405
 20
5137082.00967535
 10
-9757167.93153806
 20
5137074.76282786
 10
-9757187.95611446
 20
5137060.99523966
 10
-9757190.22058342
 20
5137063.63495016
 10
-9757191.3683945
 20
5137062.98870277
 10
-9757193.46833557
 20
5137065.79095211
 10
-9757192.64568898
 20
5137066.60364757
 10
-9757193.28693253
 20
5137068.08343648
  0
LWPOLYLINE
  5
202D2
  8
0
100
AcDbEntity
100
AcDbPolyline
 70
0
 90
5
 10
-9757207.82047776
 20
5137057.97929645
 10
-9757200.87170166
 20
5137062.4322205
 10
-9757196.69992088
 20
5137055.41536116
 10
-9757203.56097938
 20
5137050.91754362
 10
-9757207.82047776
 20
5137057.97929645
  0
LWPOLYLINE
  5
202D3
  8
0
100
AcDbEntity
100
AcDbPolyline
 70
0
 90
5
 10
-9757062.24777552
 20
5137056.09408235
 10
-9757055.4289774
 20
5137060.26053494
 10
-9757050.99287656
 20
5137053.22208572
 10
-9757057.62053646
 20
5137049.05411104
 10
-9757062.24777552
 20
5137056.09408235
  0
LWPOLYLINE
  5
202D4
  8
0
100
AcDbEntity
100
AcDbPolyline
 70
0
 90
7
 10
-9757047.36246362
 20
5137065.08852564
 10
-9757026.61169375
 20
5137078.54481304
 10
-9757022.2673654
 20
5137071.98672796
 10
-9757035.62210534
 20
5137063.17193854
 10
-9757036.94482293
 20
5137065.10114299
 10
-9757044.4356517
 20
5137060.55635098
 10
-9757047.36246362
 20
5137065.08852564
  0
LWPOLYLINE
  5
202D5
  8
0
100
AcDbEntity
100
AcDbPolyline
 70
0
 90
5
 10
-9757121.2530054
 20
5137053.08923095
 10
-9757101.89037336
 20
5137065.71499117
 10
-9757097.69964362
 20
5137058.96356053
 10
-9757116.41194206
 20
5137046.00491787
 10
-9757121.2530054
 20
5137053.08923095
  0
LWPOLYLINE
  5
202D6
  8
0
100
AcDbEntity
100
AcDbPolyline
 70
0
 90
5
 10
-9757093.68201999
 20
5137071.54807752
 10
-9757086.95313851
 20
5137076.08216566
 10
-9757082.93344544
 20
5137068.34897436
 10
-9757089.00939828
 20
5137063.80967418
 10
-9757093.68201999
 20
5137071.54807752
  0
LWPOLYLINE
  5
202D7
  8
0
100
AcDbEntity
100
AcDbPolyline
 70
0
 90
5
 10
-9757179.60925144
 20
5137063.71409852
 10
-9757167.46651366
 20
5137071.64591924
 10
-9757163.60089908
 20
5137065.06096141
 10
-9757175.73843852
 20
5137057.78451808
 10
-9757179.60925144
 20
5137063.71409852
  0
LWPOLYLINE
  5
202D8
  8
0
100
AcDbEntity
100
AcDbPolyline
 70
0
 90
5
 10
-9757201.90315861
 20
5137048.95952501
 10
-9757195.04385137
 20
5137053.23635568
 10
-9757191.0405045
 20
5137047.19323872
 10
-9757197.99137465
 20
5137042.47514735
 10
-9757201.90315861
 20
5137048.95952501
  0
LWPOLYLINE
  5
202D9
  8
0
100
AcDbEntity
100
AcDbPolyline
 70
0
 90
7
 10
-9757038.90567285
 20
5137058.88129454
 10
-9757022.67248565
 20
5137069.11202878
 10
-9757018.05060142
 20
5137061.40055295
 10
-9757031.59265774
 20
5137053.0669331
 10
-9757033.48344804
 20
5137055.67219798
 10
-9757036.17076349
 20
5137054.25472388
 10
-9757038.90567285
 20
5137058.88129454
  0
LWPOLYLINE
  5
202DA
  8
0
100
AcDbEntity
100
AcDbPolyline
 70
0
 90
5
 10
-9757233.56739558
 20
5137065.25668802
 10
-9757226.26426746
 20
5137069.97200615
 10
-9757221.95616787
 20
5137063.48446235
 10
-9757229.17227848
 20
5137058.63585715
 10
-9757233.56739558
 20
5137065.25668802
  0
LWPOLYLINE
  5
202DB
  8
0
100
AcDbEntity
100
AcDbPolyline
 70
0
 90
5
 10
-9757087.7087473
 20
5137063.14386972
 10
-9757081.14440019
 20
5137067.51541256
 10
-9757076.63112186
 20
5137060.26983663
 10
-9757083.1928663
 20
5137056.22598358
 10
-9757087.7087473
 20
5137063.14386972
  0
LWPOLYLINE
  5
202DC
  8
0
100
AcDbEntity
100
AcDbPolyline
 70
0
 90
7
 10
-9757114.78742826
 20
5137045.00882693
 10
-9757097.8862677
 20
5137056.01571342
 10
-9757093.05041902
 20
5137048.27602007
 10
-9757096.33323384
 20
5137046.00832834
 10
-9757097.14029135
 20
5137047.16174174
 10
-9757110.59539891
 20
5137038.42125786
 10
-9757114.78742826
 20
5137045.00882693
  0
LWPOLYLINE
  5
202DD
  8
0
100
AcDbEntity
100
AcDbPolyline
 70
0
 90
7
 10
-9757185.61019629
 20
5137048.03219877
 10
-9757161.81574284
 20
5137063.73588935
 10
-9757156.81790589
 20
5137055.83107651
 10
-9757173.55576859
 20
5137044.82278182
 10
-9757174.36673024
 20
5137045.48466389
 10
-9757181.09554944
 20
5137040.95052772
 10
-9757185.61019629
 20
5137048.03219877
  0
LWPOLYLINE
  5
202DE
  8
0
100
AcDbEntity
100
AcDbPolyline
 70
0
 90
5
 10
-9757051.68809735
 20
5137037.87867168
 10
-9757044.67664997
 20
5137042.23543034
 10
-9757040.81016242
 20
5137035.68119968
 10
-9757047.8216067
 20
5137031.32444679
 10
-9757051.68809735
 20
5137037.87867168
  0
LWPOLYLINE
  5
202DF
  8
0
100
AcDbEntity
100
AcDbPolyline
 70
0
 90
5
 10
-9757035.64761738
 20
5137047.91908465
 10
-9757017.68204116
 20
5137059.67084233
 10
-9757013.06016543
 20
5137051.95937169
 10
-9757030.45537422
 20
5137039.81934585
 10
-9757035.64761738
 20
5137047.91908465
  0
LWPOLYLINE
  5
202E0
  8
0
100
AcDbEntity
100
AcDbPolyline
 70
0
 90
5
 10
-9757227.90549185
 20
5137057.34395758
 10
-9757220.95672539
 20
5137061.79689609
 10
-9757216.95825893
 20
5137055.13502692
 10
-9757223.68616119
 20
5137050.76873175
 10
-9757227.90549185
 20
5137057.34395758
  0
LWPOLYLINE
  5
202E1
  8
0
100
AcDbEntity
100
AcDbPolyline
 70
0
 90
9
 10
-9757112.59055071
 20
5137033.84934946
 10
-9757110.94784811
 20
5137035.14703819
 10
-9757111.43234299
 20
5137035.80631643
 10
-9757097.64947839
 20
5137044.70803178
 10
-9757092.64780531
 20
5137037.29472568
 10
-9757106.76232288
 20
5137027.74026792
 10
-9757109.82732234
 20
5137032.35260543
 10
-9757111.30419516
 20
5137031.38129566
 10
-9757112.59055071
 20
5137033.84934946
  0
LWPOLYLINE
  5
202E2
  8
0
100
AcDbEntity
100
AcDbPolyline
 70
0
 90
5
 10
-9757046.59522023
 20
5137029.30009002
 10
-9757039.67858281
 20
5137033.75353029
 10
-9757034.95732672
 20
5137026.5209506
 10
-9757041.49321486
 20
5137021.87261038
 10
-9757046.59522023
 20
5137029.30009002
  0
LWPOLYLINE
  5
202E3
  8
0
100
AcDbEntity
100
AcDbPolyline
 70
0
 90
8
 10
-9757027.96376641
 20
5137040.66279544
 10
-9757011.62969897
 20
5137051.56420266
 10
-9757009.93385933
 20
5137048.48083876
 10
-9757007.83137371
 20
5137048.46401706
 10
-9757006.69827569
 20
5137046.72819125
 10
-9757006.90617016
 20
5137044.6193708
 10
-9757023.52464826
 20
5137034.00804748
 10
-9757027.96376641
 20
5137040.66279544
  0
LWPOLYLINE
  5
202E4
  8
0
100
AcDbEntity
100
AcDbPolyline
 70
0
 90
5
 10
-9757105.62880454
 20
5137026.58424901
 10
-9757082.1568379
 20
5137042.78183814
 10
-9757077.48163942
 20
5137035.37113514
 10
-9757101.11682609
 20
5137019.17487424
 10
-9757105.62880454
 20
5137026.58424901
  0
LWPOLYLINE
  5
202E5
  8
0
100
AcDbEntity
100
AcDbPolyline
 70
0
 90
5
 10
-9757178.99042452
 20
5137038.80364877
 10
-9757161.59056472
 20
5137050.95362443
 10
-9757156.74687527
 20
5137044.19701621
 10
-9757174.31125781
 20
5137031.88451964
 10
-9757178.99042452
 20
5137038.80364877
  0
LWPOLYLINE
  5
202E6
  8
0
100
AcDbEntity
100
AcDbPolyline
 70
0
 90
5
 10
-9757191.2833618
 20
5137032.51155612
 10
-9757183.24740846
 20
5137037.19911318
 10
-9757178.2521638
 20
5137028.96665065
 10
-9757186.4526413
 20
5137024.11656347
 10
-9757191.2833618
 20
5137032.51155612
  0
LWPOLYLINE
  5
202E7
  8
0
100
AcDbEntity
100
AcDbPolyline
 70
0
 90
5
 10
-9757040.45263524
 20
5137020.5212566
 10
-9757033.44195713
 20
5137024.78207446
 10
-9757029.38206505
 20
5137018.51409656
 10
-9757036.20312894
 20
5137014.05990638
 10
-9757040.45263524
 20
5137020.5212566
  0
LWPOLYLINE
  5
202E8
  8
0
100
AcDbEntity
100
AcDbPolyline
 70
0
 90
5
 10
-9757023.25317864
 20
5137032.08725674
 10
-9757004.99862943
 20
5137044.12445288
 10
-9757000.27739463
 20
5137036.89184846
 10
-9757018.43484518
 20
5137025.04575533
 10
-9757023.25317864
 20
5137032.08725674
  0
LWPOLYLINE
  5
202E9
  8
0
100
AcDbEntity
100
AcDbPolyline
 70
0
 90
5
 10
-9757070.9381078
 20
5137037.12119576
 10
-9757063.88147809
 20
5137041.81648322
 10
-9757060.49523723
 20
5137036.54615083
 10
-9757067.71639549
 20
5137031.68833209
 10
-9757070.9381078
 20
5137037.12119576
  0
LWPOLYLINE
  5
202EA
  8
0
100
AcDbEntity
100
AcDbPolyline
 70
0
 90
9
 10
-9757098.18387532
 20
5137018.4960302
 10
-9757096.54507229
 20
5137019.30219106
 10
-9757097.35212762
 20
5137020.45560124
 10
-9757073.88536233
 20
5137035.99779416
 10
-9757068.88761249
 20
5137028.09295874
 10
-9757092.67952739
 20
5137012.7172408
 10
-9757095.74191605
 20
5137017.65725771
 10
-9757096.89622591
 20
5137016.19181948
 10
-9757098.18387532
 20
5137018.4960302
  0
LWPOLYLINE
  5
202EB
  8
0
100
AcDbEntity
100
AcDbPolyline
 70
0
 90
5
 10
-9757158.00766212
 20
5137029.29657099
 10
-9757143.90228422
 20
5137037.70421662
 10
-9757139.39416756
 20
5137029.8033272
 10
-9757153.33500846
 20
5137021.5582327
 10
-9757158.00766212
 20
5137029.29657099
  0
LWPOLYLINE
  5
202EC
  8
0
100
AcDbEntity
100
AcDbPolyline
 70
0
 90
7
 10
-9757180.65422999
 20
5137014.23918805
 10
-9757172.78021915
 20
5137019.09187168
 10
-9757170.04035594
 20
5137014.64600799
 10
-9757171.18946081
 20
5137013.83592522
 10
-9757169.25536465
 20
5137010.70730746
 10
-9757176.46865961
 20
5137006.83246398
 10
-9757180.65422999
 20
5137014.23918805
  0
LWPOLYLINE
  5
202ED
  8
0
100
AcDbEntity
100
AcDbPolyline
 70
0
 90
6
 10
-9757033.82917955
 20
5137012.12230411
 10
-9757028.16253828
 20
5137015.62641787
 10
-9757024.48035239
 20
5137009.93704938
 10
-9757030.24484337
 20
5137006.14593045
 10
-9757034.2152558
 20
5137011.64573828
 10
-9757033.82917955
 20
5137012.12230411
  0
LWPOLYLINE
  5
202EE
  8
0
100
AcDbEntity
100
AcDbPolyline
 70
0
 90
5
 10
-9757018.35603472
 20
5137022.93464575
 10
-9757002.21921636
 20
5137033.07014714
 10
-9756997.50179844
 20
5137025.35792574
 10
-9757013.63708521
 20
5137015.41428972
 10
-9757018.35603472
 20
5137022.93464575
  0
LWPOLYLINE
  5
202EF
  8
0
100
AcDbEntity
100
AcDbPolyline
 70
0
 90
5
 10
-9757066.11919215
 20
5137027.25156791
 10
-9757058.73090494
 20
5137032.59960206
 10
-9757054.70215026
 20
5137026.01332241
 10
-9757062.08523376
 20
5137021.3206595
 10
-9757066.11919215
 20
5137027.25156791
  0
LWPOLYLINE
  5
202F0
  8
0
100
AcDbEntity
100
AcDbPolyline
 70
0
 90
5
 10
-9757091.87377297
 20
5137011.3999902
 10
-9757074.80421561
 20
5137023.06085788
 10
-9757070.29096267
 20
5137015.81531251
 10
-9757086.87082172
 20
5137004.15054767
 10
-9757091.87377297
 20
5137011.3999902
  0
LWPOLYLINE
  5
202F1
  8
0
100
AcDbEntity
100
AcDbPolyline
 70
0
 90
5
 10
-9757174.51898374
 20
5137005.66994015
 10
-9757166.97273609
 20
5137010.36138002
 10
-9757162.62394775
 20
5137002.95334969
 10
-9757170.33212345
 20
5136998.4270608
 10
-9757174.51898374
 20
5137005.66994015
  0
LWPOLYLINE
  5
202F2
  8
0
100
AcDbEntity
100
AcDbPolyline
 70
0
 90
5
 10
-9757160.89425669
 20
5137015.22838765
 10
-9757139.07679841
 20
5137028.65383068
 10
-9757134.40156247
 20
5137021.24316608
 10
-9757156.06227289
 20
5137006.99723586
 10
-9757160.89425669
 20
5137015.22838765
  0
LWPOLYLINE
  5
202F3
  8
0
100
AcDbEntity
100
AcDbPolyline
 70
0
 90
5
 10
-9757029.22559077
 20
5137002.10868961
 10
-9757021.92365014
 20
5137006.94274536
 10
-9757017.39279292
 20
5136999.80763077
 10
-9757024.69473034
 20
5136994.97358204
 10
-9757029.22559077
 20
5137002.10868961
  0
LWPOLYLINE
  5
202F4
  8
0
100
AcDbEntity
100
AcDbPolyline
 70
0
 90
5
 10
-9757016.72494148
 20
5137011.69769325
 10
-9756995.49259952
 20
5137025.62964049
 10
-9756990.67657562
 20
5137018.30035584
 10
-9757011.81714973
 20
5137003.88804232
 10
-9757016.72494148
 20
5137011.69769325
  0
LWPOLYLINE
  5
202F5
  8
0
100
AcDbEntity
100
AcDbPolyline
 70
0
 90
5
 10
-9757205.51593873
 20
5137020.92156823
 10
-9757198.08038452
 20
5137025.67998601
 10
-9757194.12388015
 20
5137019.28366467
 10
-9757201.47171726
 20
5137014.48035352
 10
-9757205.51593873
 20
5137020.92156823
  0
LWPOLYLINE
  5
202F6
  8
0
100
AcDbEntity
100
AcDbPolyline
 70
0
 90
7
 10
-9757231.9311846
 20
5137004.95528897
 10
-9757211.5735395
 20
5137017.78753626
 10
-9757207.00828202
 20
5137010.41397765
 10
-9757225.46379219
 20
5136998.67156215
 10
-9757228.07246492
 20
5137002.89132749
 10
-9757230.19510067
 20
5137001.75907377
 10
-9757231.9311846
 20
5137004.95528897
  0
LWPOLYLINE
  5
202F7
  8
0
100
AcDbEntity
100
AcDbPolyline
 70
0
 90
5
 10
-9756943.39722287
 20
5137002.57295696
 10
-9756926.67780705
 20
5137013.85481278
 10
-9756921.3916328
 20
5137005.56242958
 10
-9756937.92066871
 20
5136994.18313752
 10
-9756943.39722287
 20
5137002.57295696
  0
LWPOLYLINE
  5
202F8
  8
0
100
AcDbEntity
100
AcDbPolyline
 70
0
 90
5
 10
-9756922.5424894
 20
5137017.0833368
 10
-9756913.70378123
 20
5137022.86431596
 10
-9756908.6041711
 20
5137015.14899714
 10
-9756917.15769914
 20
5137009.17388146
 10
-9756922.5424894
 20
5137017.0833368
  0
LWPOLYLINE
  5
202F9
  8
0
100
AcDbEntity
100
AcDbPolyline
 70
0
 90
5
 10
-9757086.22699924
 20
5137002.99844323
 10
-9757062.10213643
 20
5137019.19072504
 10
-9757057.26633504
 20
5137011.45104347
 10
-9757081.38858657
 20
5136995.58646815
 10
-9757086.22699924
 20
5137002.99844323
  0
LWPOLYLINE
  5
202FA
  8
0
100
AcDbEntity
100
AcDbPolyline
 70
0
 90
5
 10
-9757169.66837466
 20
5136996.32400589
 10
-9757165.8251679
 20
5136998.88344768
 10
-9757161.95405288
 20
5136992.90484186
 10
-9757165.70093108
 20
5136990.44056464
 10
-9757169.66837466
 20
5136996.32400589
  0
LWPOLYLINE
  5
202FB
  8
0
100
AcDbEntity
100
AcDbPolyline
 70
0
 90
5
 10
-9757151.47623993
 20
5137008.92682922
 10
-9757136.87470042
 20
5137018.14974182
 10
-9757132.68396636
 20
5137011.39835974
 10
-9757146.79970506
 20
5137001.68002664
 10
-9757151.47623993
 20
5137008.92682922
  0
LWPOLYLINE
  5
202FC
  8
0
100
AcDbEntity
100
AcDbPolyline
 70
0
 90
9
 10
-9757009.5273485
 20
5137003.39006913
 10
-9757006.83623458
 20
5137005.28715129
 10
-9757007.4043047
 20
5137005.96321122
 10
-9756990.39901738
 20
5137017.14696493
 10
-9756985.11278592
 20
5137008.85461371
 10
-9757002.11654086
 20
5136997.86272797
 10
-9757002.96902583
 20
5136998.82885525
 10
-9757005.37191404
 20
5136997.12133051
 10
-9757009.5273485
 20
5137003.39006913
  0
LWPOLYLINE
  5
202FD
  8
0
100
AcDbEntity
100
AcDbPolyline
 70
0
 90
5
 10
-9757200.64806156
 20
5137012.83839615
 10
-9757192.8578037
 20
5137017.9033722
 10
-9757188.89850479
 20
5137011.86062802
 10
-9757196.64577808
 20
5137006.6627167
 10
-9757200.64806156
 20
5137012.83839615
  0
LWPOLYLINE
  5
202FE
  8
0
100
AcDbEntity
100
AcDbPolyline
 70
0
 90
7
 10
-9757225.83494707
 20
5136996.2877505
 10
-9757208.61618968
 20
5137007.55383804
 10
-9757206.26786565
 20
5137003.82233773
 10
-9757202.68376779
 20
5137006.00371207
 10
-9757200.11773708
 20
5137001.96107682
 10
-9757221.09636082
 20
5136988.55923657
 10
-9757225.83494707
 20
5136996.2877505
  0
LWPOLYLINE
  5
202FF
  8
0
100
AcDbEntity
100
AcDbPolyline
 70
0
 90
9
 10
-9757083.68088135
 20
5136992.7591824
 10
-9757064.47309468
 20
5137004.50103259
 10
-9757059.850446
 20
5136996.88555306
 10
-9757078.3877324
 20
5136985.33022277
 10
-9757081.69452259
 20
5136990.15318055
 10
-9757083.4238601
 20
5136989.01583692
 10
-9757084.46520345
 20
5136990.27125718
 10
-9757083.02256675
 20
5136991.41089275
 10
-9757083.68088135
 20
5136992.7591824
  0
LWPOLYLINE
  5
20300
  8
0
100
AcDbEntity
100
AcDbPolyline
 70
0
 90
5
 10
-9757054.96627357
 20
5137010.1808632
 10
-9757047.66738505
 20
5137014.63124402
 10
-9757043.89723492
 20
5137007.98187302
 10
-9757050.81309038
 20
5137003.62436593
 10
-9757054.96627357
 20
5137010.1808632
  0
LWPOLYLINE
  5
20301
  8
0
100
AcDbEntity
100
AcDbPolyline
 70
0
 90
5
 10
-9757162.18167798
 20
5136988.30199346
 10
-9757155.64891169
 20
5136992.5667032
 10
-9757151.30605359
 20
5136985.81688595
 10
-9757157.64844365
 20
5136981.45473152
 10
-9757162.18167798
 20
5136988.30199346
  0
LWPOLYLINE
  5
20302
  8
0
100
AcDbEntity
100
AcDbPolyline
 70
0
 90
5
 10
-9757149.93224812
 20
5136997.77261575
 10
-9757130.89882435
 20
5137010.07328938
 10
-9757126.55136324
 20
5137002.50140225
 10
-9757145.09638608
 20
5136990.03299532
 10
-9757149.93224812
 20
5136997.77261575
  0
LWPOLYLINE
  5
20303
  8
0
100
AcDbEntity
100
AcDbPolyline
 70
0
 90
5
 10
-9757023.74515328
 20
5136994.19854157
 10
-9757016.44550105
 20
5136998.74481561
 10
-9757012.67309364
 20
5136992.38321683
 10
-9757019.40086451
 20
5136987.64051279
 10
-9757023.74515328
 20
5136994.19854157
  0
LWPOLYLINE
  5
20304
  8
0
100
AcDbEntity
100
AcDbPolyline
 70
0
 90
5
 10
-9757017.80136202
 20
5136984.46201088
 10
-9757011.36638733
 20
5136988.43961061
 10
-9757003.62207866
 20
5136976.77006346
 10
-9757010.05933388
 20
5136972.50470092
 10
-9757017.80136202
 20
5136984.46201088
  0
LWPOLYLINE
  5
20305
  8
0
100
AcDbEntity
100
AcDbPolyline
 70
0
 90
5
 10
-9756935.09330953
 20
5136989.17210648
 10
-9756920.00922432
 20
5136999.12400271
 10
-9756914.91114691
 20
5136991.21685742
 10
-9756929.99598737
 20
5136981.16905299
 10
-9756935.09330953
 20
5136989.17210648
  0
LWPOLYLINE
  5
20306
  8
0
100
AcDbEntity
100
AcDbPolyline
 70
0
 90
5
 10
-9756913.00003478
 20
5137003.19287301
 10
-9756905.98778816
 20
5137007.64543818
 10
-9756900.13509881
 20
5136998.48513428
 10
-9756907.05253718
 20
5136993.93588751
 10
-9756913.00003478
 20
5137003.19287301
  0
LWPOLYLINE
  5
20307
  8
0
100
AcDbEntity
100
AcDbPolyline
 70
0
 90
5
 10
-9757219.204387
 20
5136988.36734341
 10
-9757197.82667214
 20
5137002.11959021
 10
-9757192.99794102
 20
5136994.65553513
 10
-9757214.33161405
 20
5136980.90295834
 10
-9757219.204387
 20
5136988.36734341
  0
LWPOLYLINE
  5
20308
  8
0
100
AcDbEntity
100
AcDbPolyline
 70
0
 90
5
 10
-9757078.97939934
 20
5136983.03262084
 10
-9757060.82210238
 20
5136994.87877945
 10
-9757056.28741522
 20
5136988.22331417
 10
-9757074.8277334
 20
5136976.28430378
 10
-9757078.97939934
 20
5136983.03262084
  0
LWPOLYLINE
  5
20309
  8
0
100
AcDbEntity
100
AcDbPolyline
 70
0
 90
5
 10
-9757157.75693519
 20
5136979.82478035
 10
-9757151.13012654
 20
5136983.89687137
 10
-9757147.07093451
 20
5136977.5330452
 10
-9757153.79558818
 20
5136973.17394992
 10
-9757157.75693519
 20
5136979.82478035
  0
LWPOLYLINE
  5
2030A
  8
0
100
AcDbEntity
100
AcDbPolyline
 70
0
 90
5
 10
-9757146.08875385
 20
5136988.40241097
 10
-9757126.23399651
 20
5137001.35190857
 10
-9757120.75172758
 20
5136992.78785385
 10
-9757140.44194567
 20
5136980.00091578
 10
-9757146.08875385
 20
5136988.40241097
  0
LWPOLYLINE
  5
2030B
  8
0
100
AcDbEntity
100
AcDbPolyline
 70
0
 90
5
 10
-9757005.00564384
 20
5136995.10385748
 10
-9756983.39181558
 20
5137008.93677079
 10
-9756978.10711881
 20
5137000.45257376
 10
-9756999.43423461
 20
5136986.61739034
 10
-9757005.00564384
 20
5136995.10385748
  0
LWPOLYLINE
  5
2030C
  8
0
100
AcDbEntity
100
AcDbPolyline
 70
0
 90
5
 10
-9757043.9288241
 20
5136991.9617103
 10
-9757041.43342272
 20
5136993.28478174
 10
-9757040.20932673
 20
5136990.97265882
 10
-9757042.60916073
 20
5136989.64882374
 10
-9757043.9288241
 20
5136991.9617103
  0
LWPOLYLINE
  5
2030D
  8
0
100
AcDbEntity
100
AcDbPolyline
 70
0
 90
5
 10
-9757070.24128717
 20
5136976.15170884
 10
-9757050.06566683
 20
5136989.42066088
 10
-9757046.104391
 20
5136982.76977978
 10
-9757066.37556941
 20
5136969.5016092
 10
-9757070.24128717
 20
5136976.15170884
  0
LWPOLYLINE
  5
2030E
  8
0
100
AcDbEntity
100
AcDbPolyline
 70
0
 90
5
 10
-9757005.52393079
 20
5136965.94515152
 10
-9756996.68760489
 20
5136971.43840532
 10
-9756992.3502022
 20
5136964.01706231
 10
-9757000.99615224
 20
5136958.42636321
 10
-9757005.52393079
 20
5136965.94515152
  0
LWPOLYLINE
  5
2030F
  8
0
100
AcDbEntity
100
AcDbPolyline
 70
0
 90
5
 10
-9756992.19934086
 20
5136983.01006775
 10
-9756975.00370517
 20
5136994.09631362
 10
-9756970.28556595
 20
5136986.48003462
 10
-9756987.19373091
 20
5136975.48743573
 10
-9756992.19934086
 20
5136983.01006775
  0
LWPOLYLINE
  5
20310
  8
0
100
AcDbEntity
100
AcDbPolyline
 70
0
 90
7
 10
-9757151.99882714
 20
5136970.76134271
 10
-9757144.50507736
 20
5136975.68987557
 10
-9757141.39243559
 20
5136970.48477604
 10
-9757140.14550483
 20
5136971.05039893
 10
-9757139.48490237
 20
5136969.98988893
 10
-9757147.84331291
 20
5136964.4926866
 10
-9757151.99882714
 20
5136970.76134271
  0
LWPOLYLINE
  5
20311
  8
0
100
AcDbEntity
100
AcDbPolyline
 70
0
 90
5
 10
-9757136.90814823
 20
5136981.57688536
 10
-9757119.809768
 20
5136992.47230706
 10
-9757115.28036566
 20
5136985.14540024
 10
-9757132.38025887
 20
5136974.05814625
 10
-9757136.90814823
 20
5136981.57688536
  0
LWPOLYLINE
  5
20312
  8
0
100
AcDbEntity
100
AcDbPolyline
 70
0
 90
7
 10
-9757179.23093591
 20
5136987.84778511
 10
-9757174.30807038
 20
5136991.0855048
 10
-9757170.59922121
 20
5136985.32111083
 10
-9757177.16736628
 20
5136980.45802109
 10
-9757179.4266207
 20
5136983.75307405
 10
-9757177.94456918
 20
5136985.37975194
 10
-9757179.23093591
 20
5136987.84778511
  0
LWPOLYLINE
  5
20313
  8
0
100
AcDbEntity
100
AcDbPolyline
 70
0
 90
9
 10
-9757212.84657592
 20
5136968.25008307
 10
-9757190.18882029
 20
5136982.389865
 10
-9757186.27812147
 20
5136975.77293772
 10
-9757190.79178304
 20
5136972.98020451
 10
-9757190.26970307
 20
5136972.18044855
 10
-9757207.17494409
 20
5136961.57492341
 10
-9757209.87061234
 20
5136965.92796977
 10
-9757211.02139109
 20
5136965.18576361
 10
-9757212.84657592
 20
5136968.25008307
  0
LWPOLYLINE
  5
20314
  8
0
100
AcDbEntity
100
AcDbPolyline
 70
0
 90
5
 10
-9756899.28699184
 20
5136984.95213203
 10
-9756894.38561657
 20
5136988.36635729
 10
-9756889.66449269
 20
5136981.13374085
 10
-9756894.5666288
 20
5136977.62359626
 10
-9756899.28699184
 20
5136984.95213203
  0
LWPOLYLINE
  5
20315
  8
0
100
AcDbEntity
100
AcDbPolyline
 70
0
 90
5
 10
-9756923.39172128
 20
5136970.37195316
 10
-9756907.06299672
 20
5136980.60163153
 10
-9756902.81893797
 20
5136973.46877975
 10
-9756919.14689212
 20
5136963.33504029
 10
-9756923.39172128
 20
5136970.37195316
  0
LWPOLYLINE
  5
20316
  8
0
100
AcDbEntity
100
AcDbPolyline
 70
0
 90
5
 10
-9757065.33651426
 20
5136967.95841702
 10
-9757044.20295171
 20
5136981.50747809
 10
-9757039.86017743
 20
5136974.75761858
 10
-9757061.2789086
 20
5136961.40271709
 10
-9757065.33651426
 20
5136967.95841702
  0
LWPOLYLINE
  5
20317
  8
0
100
AcDbEntity
100
AcDbPolyline
 70
0
 90
5
 10
-9757135.85184414
 20
5136970.15273141
 10
-9757114.90950853
 20
5136983.70348006
 10
-9757109.81203832
 20
5136975.70052585
 10
-9757130.84993013
 20
5136962.15056291
 10
-9757135.85184414
 20
5136970.15273141
  0
LWPOLYLINE
  5
20318
  8
0
100
AcDbEntity
100
AcDbPolyline
 70
0
 90
5
 10
-9757172.91300321
 20
5136981.7348638
 10
-9757170.44637802
 20
5136984.00908328
 10
-9757164.9588854
 20
5136976.10043064
 10
-9757167.42161465
 20
5136974.31773552
 10
-9757172.91300321
 20
5136981.7348638
  0
LWPOLYLINE
  5
20319
  8
0
100
AcDbEntity
100
AcDbPolyline
 70
0
 90
5
 10
-9757204.978954
 20
5136960.85020998
 10
-9757189.48553284
 20
5136971.11340443
 10
-9757184.69945478
 20
5136963.82650693
 10
-9757200.32531459
 20
5136953.52018564
 10
-9757204.978954
 20
5136960.85020998
  0
LWPOLYLINE
  5
2031A
  8
0
100
AcDbEntity
100
AcDbPolyline
 70
0
 90
5
 10
-9757035.35559245
 20
5136976.35240853
 10
-9757027.00243911
 20
5136981.17804766
 10
-9757022.85081074
 20
5136974.42970961
 10
-9757031.11067808
 20
5136969.31554036
 10
-9757035.35559245
 20
5136976.35240853
  0
LWPOLYLINE
  5
2031B
  8
0
100
AcDbEntity
100
AcDbPolyline
 70
0
 90
5
 10
-9757059.75897687
 20
5136960.23940179
 10
-9757041.4105664
 20
5136972.08396746
 10
-9757037.16488795
 20
5136965.14302926
 10
-9757055.79846741
 20
5136953.49262076
 10
-9757059.75897687
 20
5136960.23940179
  0
LWPOLYLINE
  5
2031C
  8
0
100
AcDbEntity
100
AcDbPolyline
 70
0
 90
5
 10
-9756898.02305393
 20
5136975.63675293
 10
-9756895.81510035
 20
5136976.8661567
 10
-9756893.55353964
 20
5136972.81895942
 10
-9756895.76149256
 20
5136971.58955668
 10
-9756898.02305393
 20
5136975.63675293
  0
LWPOLYLINE
  5
2031D
  8
0
100
AcDbEntity
100
AcDbPolyline
 70
0
 90
9
 10
-9756916.38384837
 20
5136962.25767451
 10
-9756900.82424141
 20
5136971.91791247
 10
-9756899.31424483
 20
5136969.50755563
 10
-9756897.96944492
 20
5136970.36015358
 10
-9756896.46173796
 20
5136967.66202409
 10
-9756912.40513418
 20
5136957.81301158
 10
-9756914.3883892
 20
5136960.802736
 10
-9756915.06269453
 20
5136960.13662598
 10
-9756916.38384837
 20
5136962.25767451
  0
LWPOLYLINE
  5
2031E
  8
0
100
AcDbEntity
100
AcDbPolyline
 70
0
 90
5
 10
-9757301.42386381
 20
5136974.41416257
 10
-9757295.13882829
 20
5136978.2980968
 10
-9757291.43813015
 20
5136971.73978642
 10
-9757297.47102001
 20
5136968.10495554
 10
-9757301.42386381
 20
5136974.41416257
  0
LWPOLYLINE
  5
2031F
  8
0
100
AcDbEntity
100
AcDbPolyline
 70
0
 90
5
 10
-9756981.80433782
 20
5136968.15359594
 10
-9756964.80137516
 20
5136979.04948762
 10
-9756960.2766716
 20
5136971.14697305
 10
-9756977.27733901
 20
5136960.53887067
 10
-9756981.80433782
 20
5136968.15359594
  0
LWPOLYLINE
  5
20320
  8
0
100
AcDbEntity
100
AcDbPolyline
 70
0
 90
5
 10
-9757141.04995961
 20
5136953.40645525
 10
-9757133.26799695
 20
5136958.52452895
 10
-9757128.83188495
 20
5136951.48618994
 10
-9757136.61460467
 20
5136946.27219953
 10
-9757141.04995961
 20
5136953.40645525
  0
LWPOLYLINE
  5
20321
  8
0
100
AcDbEntity
100
AcDbPolyline
 70
0
 90
5
 10
-9757128.94163856
 20
5136961.75159832
 10
-9757108.57575576
 20
5136974.92320453
 10
-9757104.51811747
 20
5136968.36751798
 10
-9757124.79070694
 20
5136954.90739351
 10
-9757128.94163856
 20
5136961.75159832
  0
LWPOLYLINE
  5
20322
  8
0
100
AcDbEntity
100
AcDbPolyline
 70
0
 90
5
 10
-9756913.0067543
 20
5136954.26841397
 10
-9756895.90740994
 20
5136965.25932509
 10
-9756890.62205173
 20
5136956.87104294
 10
-9756908.01037476
 20
5136945.59467567
 10
-9756913.0067543
 20
5136954.26841397
  0
LWPOLYLINE
  5
20323
  8
0
100
AcDbEntity
100
AcDbPolyline
 70
0
 90
5
 10
-9756891.01214711
 20
5136967.90614815
 10
-9756882.56412611
 20
5136972.63496571
 10
-9756877.56776485
 20
5136963.96119515
 10
-9756885.8276993
 20
5136958.8471581
 10
-9756891.01214711
 20
5136967.90614815
  0
LWPOLYLINE
  5
20324
  8
0
100
AcDbEntity
100
AcDbPolyline
 70
0
 90
5
 10
-9757171.31547935
 20
5136969.38069585
 10
-9757164.97082284
 20
5136974.03062699
 10
-9757160.71745122
 20
5136968.04898397
 10
-9757167.06210577
 20
5136963.39905852
 10
-9757171.31547935
 20
5136969.38069585
  0
LWPOLYLINE
  5
20325
  8
0
100
AcDbEntity
100
AcDbPolyline
 70
0
 90
7
 10
-9757198.08039363
 20
5136953.41387082
 10
-9757177.89403862
 20
5136966.86613585
 10
-9757172.93429579
 20
5136959.26845404
 10
-9757194.40351441
 20
5136945.07506169
 10
-9757196.23184115
 20
5136947.7416096
 10
-9757194.99124926
 20
5136948.70409218
 10
-9757198.08039363
 20
5136953.41387082
  0
LWPOLYLINE
  5
20326
  8
0
100
AcDbEntity
100
AcDbPolyline
 70
0
 90
5
 10
-9756992.49649105
 20
5136945.59963811
 10
-9756985.38875654
 20
5136950.05147122
 10
-9756982.55757511
 20
5136945.52009696
 10
-9756989.76011205
 20
5136941.16495677
 10
-9756992.49649105
 20
5136945.59963811
  0
LWPOLYLINE
  5
20327
  8
0
100
AcDbEntity
100
AcDbPolyline
 70
0
 90
9
 10
-9756979.1235875
 20
5136956.71643926
 10
-9756977.01045305
 20
5136958.04254862
 10
-9756977.67179871
 20
5136959.00714427
 10
-9756959.61761363
 20
5136969.89460231
 10
-9756954.99811425
 20
5136961.89540355
 10
-9756972.66926102
 20
5136951.10082735
 10
-9756973.42617234
 20
5136952.06618756
 10
-9756975.34893494
 20
5136950.64262589
 10
-9756979.1235875
 20
5136956.71643926
  0
LWPOLYLINE
  5
20328
  8
0
100
AcDbEntity
100
AcDbPolyline
 70
0
 90
7
 10
-9757284.95139756
 20
5136948.41875684
 10
-9757277.23690041
 20
5136953.79791895
 10
-9757272.94921514
 20
5136947.65345065
 10
-9757274.71156581
 20
5136946.24455962
 10
-9757273.80691248
 20
5136944.64700005
 10
-9757279.59493449
 20
5136940.34061893
 10
-9757284.95139756
 20
5136948.41875684
  0
LWPOLYLINE
  5
20329
  8
0
100
AcDbEntity
100
AcDbPolyline
 70
0
 90
5
 10
-9757135.95172282
 20
5136945.49946407
 10
-9757128.26837276
 20
5136950.23459661
 10
-9757123.64189583
 20
5136943.09881048
 10
-9757131.22967593
 20
5136938.36292176
 10
-9757135.95172282
 20
5136945.49946407
  0
LWPOLYLINE
  5
2032A
  8
0
100
AcDbEntity
100
AcDbPolyline
 70
0
 90
5
 10
-9757121.34726621
 20
5136955.26360537
 10
-9757103.57766625
 20
5136966.44139685
 10
-9757099.14309427
 20
5136959.21119013
 10
-9757117.20014615
 20
5136947.93978172
 10
-9757121.34726621
 20
5136955.26360537
  0
LWPOLYLINE
  5
2032B
  8
0
100
AcDbEntity
100
AcDbPolyline
 70
0
 90
5
 10
-9757296.49224556
 20
5136965.3349667
 10
-9757292.63664987
 20
5136967.81531406
 10
-9757289.67251957
 20
5136963.0206361
 10
-9757293.36134328
 20
5136960.53896184
 10
-9757296.49224556
 20
5136965.3349667
  0
LWPOLYLINE
  5
2032C
  8
0
100
AcDbEntity
100
AcDbPolyline
 70
0
 90
5
 10
-9757167.17591671
 20
5136961.09764099
 10
-9757159.87483617
 20
5136965.83585876
 10
-9757155.72312032
 20
5136959.08758846
 10
-9757162.54712483
 20
5136954.24963773
 10
-9757167.17591671
 20
5136961.09764099
  0
LWPOLYLINE
  5
2032D
  8
0
100
AcDbEntity
100
AcDbPolyline
 70
0
 90
5
 10
-9757193.049034
 20
5136943.73827353
 10
-9757176.76130489
 20
5136954.21608588
 10
-9757172.36802843
 20
5136947.37432338
 10
-9757188.833278
 20
5136936.72114602
 10
-9757193.049034
 20
5136943.73827353
  0
LWPOLYLINE
  5
2032E
  8
0
100
AcDbEntity
100
AcDbPolyline
 70
0
 90
5
 10
-9756884.68624093
 20
5136958.16649922
 10
-9756877.4798289
 20
5136963.00118772
 10
-9756873.23274747
 20
5136956.25203236
 10
-9756880.53396001
 20
5136951.51404033
 10
-9756884.68624093
 20
5136958.16649922
  0
LWPOLYLINE
  5
2032F
  8
0
100
AcDbEntity
100
AcDbPolyline
 70
0
 90
5
 10
-9756905.24276064
 20
5136945.09285252
 10
-9756891.69617211
 20
5136954.00174443
 10
-9756886.40624584
 20
5136946.18901368
 10
-9756900.14624942
 20
5136936.99389613
 10
-9756905.24276064
 20
5136945.09285252
  0
LWPOLYLINE
  5
20330
  8
0
100
AcDbEntity
100
AcDbPolyline
 70
0
 90
9
 10
-9756973.45513252
 20
5136948.4210742
 10
-9756954.24196635
 20
5136960.83411676
 10
-9756950.08963577
 20
5136954.18168587
 10
-9756965.65373813
 20
5136943.94584052
 10
-9756967.44739835
 20
5136946.74217166
 10
-9756969.65609809
 20
5136945.41683096
 10
-9756970.69513535
 20
5136946.9600298
 10
-9756971.7532261
 20
5136946.10512862
 10
-9756973.45513252
 20
5136948.4210742
  0
LWPOLYLINE
  5
20331
  8
0
100
AcDbEntity
100
AcDbPolyline
 70
0
 90
5
 10
-9757121.25805777
 20
5136942.40825594
 10
-9757098.9618521
 20
5136957.9626489
 10
-9757094.33234982
 20
5136951.21053927
 10
-9757116.81891927
 20
5136935.7536189
 10
-9757121.25805777
 20
5136942.40825594
  0
LWPOLYLINE
  5
20332
  8
0
100
AcDbEntity
100
AcDbPolyline
 70
0
 90
5
 10
-9757051.47853728
 20
5136943.86506612
 10
-9757029.28844511
 20
5136958.07712349
 10
-9757023.34314698
 20
5136948.53248086
 10
-9757045.63031478
 20
5136934.12936769
 10
-9757051.47853728
 20
5136943.86506612
  0
LWPOLYLINE
  5
20333
  8
0
100
AcDbEntity
100
AcDbPolyline
 70
0
 90
5
 10
-9757189.42074634
 20
5136934.82526893
 10
-9757169.33158838
 20
5136947.12908486
 10
-9757165.59564404
 20
5136940.69036543
 10
-9757185.37762194
 20
5136928.25151606
 10
-9757189.42074634
 20
5136934.82526893
  0
LWPOLYLINE
  5
20334
  8
0
100
AcDbEntity
100
AcDbPolyline
 70
0
 90
5
 10
-9756879.58745119
 20
5136950.35529305
 10
-9756872.2900547
 20
5136954.61366346
 10
-9756867.85718974
 20
5136947.19151174
 10
-9756874.96344959
 20
5136942.93161606
 10
-9756879.58745119
 20
5136950.35529305
  0
LWPOLYLINE
  5
20335
  8
0
100
AcDbEntity
100
AcDbPolyline
 70
0
 90
5
 10
-9756903.51777161
 20
5136933.66335919
 10
-9756887.37640713
 20
5136944.37411651
 10
-9756883.12703778
 20
5136937.91275026
 10
-9756899.36396229
 20
5136927.20277294
 10
-9756903.51777161
 20
5136933.66335919
  0
LWPOLYLINE
  5
20336
  8
0
100
AcDbEntity
100
AcDbPolyline
 70
0
 90
5
 10
-9757042.59198693
 20
5136931.61089095
 10
-9757020.11368751
 20
5136946.01246429
 10
-9757015.30073078
 20
5136938.29955694
 10
-9757037.77825767
 20
5136923.99393011
 10
-9757042.59198693
 20
5136931.61089095
  0
LWPOLYLINE
  5
20337
  8
0
100
AcDbEntity
100
AcDbPolyline
 70
0
 90
7
 10
-9756966.53365307
 20
5136941.45870287
 10
-9756949.04983872
 20
5136952.73440771
 10
-9756944.32945304
 20
5136945.40592079
 10
-9756958.35610003
 20
5136936.21301521
 10
-9756960.05723922
 20
5136938.62488468
 10
-9756963.51439911
 20
5136936.54210143
 10
-9756966.53365307
 20
5136941.45870287
  0
LWPOLYLINE
  5
20338
  8
0
100
AcDbEntity
100
AcDbPolyline
 70
0
 90
5
 10
-9757274.49724626
 20
5136931.17641743
 10
-9757267.12093485
 20
5136935.97234137
 10
-9757263.00467128
 20
5136929.2433305
 10
-9757270.38097951
 20
5136924.44741306
 10
-9757274.49724626
 20
5136931.17641743
  0
LWPOLYLINE
  5
20339
  8
0
100
AcDbEntity
100
AcDbPolyline
 70
0
 90
5
 10
-9757123.76663513
 20
5136927.36728861
 10
-9757115.98544534
 20
5136932.38941065
 10
-9757112.3078028
 20
5136926.12458194
 10
-9757119.89785682
 20
5136921.10093915
 10
-9757123.76663513
 20
5136927.36728861
  0
LWPOLYLINE
  5
2033A
  8
0
100
AcDbEntity
100
AcDbPolyline
 70
0
 90
7
 10
-9757109.35332696
 20
5136937.13292027
 10
-9757088.69772674
 20
5136950.68585614
 10
-9757084.82591823
 20
5136944.80317346
 10
-9757102.88828508
 20
5136932.86034166
 10
-9757104.68426589
 20
5136935.36887239
 10
-9757107.18268666
 20
5136933.66209648
 10
-9757109.35332696
 20
5136937.13292027
  0
LWPOLYLINE
  5
2033B
  8
0
100
AcDbEntity
100
AcDbPolyline
 70
0
 90
5
 10
-9756999.01134683
 20
5136955.62850548
 10
-9756993.15054569
 20
5136959.51474525
 10
-9756989.08765947
 20
5136953.63048931
 10
-9756994.85213018
 20
5136949.83941367
 10
-9756999.01134683
 20
5136955.62850548
  0
LWPOLYLINE
  5
2033C
  8
0
100
AcDbEntity
100
AcDbPolyline
 70
0
 90
5
 10
-9757011.22524048
 20
5136946.0372864
 10
-9757004.88661737
 20
5136949.91970672
 10
-9757001.01867005
 20
5136943.55737108
 10
-9757007.16463404
 20
5136939.8652745
 10
-9757011.22524048
 20
5136946.0372864
  0
LWPOLYLINE
  5
2033D
  8
0
100
AcDbEntity
100
AcDbPolyline
 70
0
 90
7
 10
-9757157.2820654
 20
5136943.27156248
 10
-9757148.83343471
 20
5136948.09652972
 10
-9757145.53574949
 20
5136942.12252813
 10
-9757151.77570369
 20
5136938.62294936
 10
-9757153.09690725
 20
5136940.74396084
 10
-9757155.21001392
 20
5136939.41781451
 10
-9757157.2820654
 20
5136943.27156248
  0
LWPOLYLINE
  5
2033E
  8
0
100
AcDbEntity
100
AcDbPolyline
 70
0
 90
10
 10
-9757183.32284055
 20
5136926.37874882
 10
-9757159.95222731
 20
5136941.57348901
 10
-9757155.51668841
 20
5136934.51039422
 10
-9757167.42320808
 20
5136926.78220799
 10
-9757166.20328073
 20
5136925.13709868
 10
-9757169.56719813
 20
5136922.95399838
 10
-9757170.52468702
 20
5136924.37601584
 10
-9757178.80062875
 20
5136919.13818755
 10
-9757178.80027856
 20
5136919.18238389
 10
-9757183.32284055
 20
5136926.37874882
  0
LWPOLYLINE
  5
2033F
  8
0
100
AcDbEntity
100
AcDbPolyline
 70
0
 90
5
 10
-9756896.78748653
 20
5136926.70247974
 10
-9756882.09030472
 20
5136936.08177182
 10
-9756877.7484285
 20
5136929.23594765
 10
-9756892.25599732
 20
5136919.66328987
 10
-9756896.78748653
 20
5136926.70247974
  0
LWPOLYLINE
  5
20340
  8
0
100
AcDbEntity
100
AcDbPolyline
 70
0
 90
5
 10
-9756977.01410334
 20
5136921.49323561
 10
-9756969.33069547
 20
5136926.22822759
 10
-9756964.79915292
 20
5136919.18907205
 10
-9756972.67673813
 20
5136914.07192235
 10
-9756977.01410334
 20
5136921.49323561
  0
LWPOLYLINE
  5
20341
  8
0
100
AcDbEntity
100
AcDbPolyline
 70
0
 90
5
 10
-9756963.46304071
 20
5136930.97775189
 10
-9756942.90586707
 20
5136944.14743022
 10
-9756937.99816977
 20
5136936.33779677
 10
-9756958.46052918
 20
5136923.07145069
 10
-9756963.46304071
 20
5136930.97775189
  0
LWPOLYLINE
  5
20342
  8
0
100
AcDbEntity
100
AcDbPolyline
 70
0
 90
9
 10
-9757268.64976459
 20
5136921.92254123
 10
-9757262.27606595
 20
5136926.47534417
 10
-9757261.0411885
 20
5136924.45664198
 10
-9757259.78246276
 20
5136925.45103195
 10
-9757258.46353843
 20
5136923.51536169
 10
-9757259.55483146
 20
5136922.60333918
 10
-9757258.07311237
 20
5136920.16415775
 10
-9757264.86307133
 20
5136915.69838201
 10
-9757268.64976459
 20
5136921.92254123
  0
LWPOLYLINE
  5
20343
  8
0
100
AcDbEntity
100
AcDbPolyline
 70
0
 90
5
 10
-9757035.12676909
 20
5136920.90296837
 10
-9757020.52529565
 20
5136930.2832342
 10
-9757015.61525672
 20
5136922.76142268
 10
-9757030.12115717
 20
5136913.38040722
 10
-9757035.12676909
 20
5136920.90296837
  0
LWPOLYLINE
  5
20344
  8
0
100
AcDbEntity
100
AcDbPolyline
 70
0
 90
5
 10
-9757150.37946342
 20
5136933.91122919
 10
-9757143.46066137
 20
5136938.65247391
 10
-9757139.20883961
 20
5136932.47899569
 10
-9757146.12763925
 20
5136927.73775706
 10
-9757150.37946342
 20
5136933.91122919
  0
LWPOLYLINE
  5
20345
  8
0
100
AcDbEntity
100
AcDbPolyline
 70
0
 90
7
 10
-9756954.84501904
 20
5136921.02797716
 10
-9756950.71432505
 20
5136923.68094029
 10
-9756952.13333512
 20
5136925.51496972
 10
-9756937.33759213
 20
5136935.2772768
 10
-9756932.3328125
 20
5136927.65872997
 10
-9756951.25924116
 20
5136915.24347828
 10
-9756954.84501904
 20
5136921.02797716
  0
LWPOLYLINE
  5
20346
  8
0
100
AcDbEntity
100
AcDbPolyline
 70
0
 90
9
 10
-9756891.98608285
 20
5136917.55067101
 10
-9756874.88372827
 20
5136928.92519828
 10
-9756873.75601007
 20
5136926.51791201
 10
-9756870.68415243
 20
5136928.22002913
 10
-9756868.42185048
 20
5136924.26877022
 10
-9756872.35914529
 20
5136921.90208211
 10
-9756872.07549903
 20
5136921.51608926
 10
-9756888.02418344
 20
5136910.99569862
 10
-9756891.98608285
 20
5136917.55067101
  0
LWPOLYLINE
  5
20347
  8
0
100
AcDbEntity
100
AcDbPolyline
 70
0
 90
5
 10
-9757109.14042049
 20
5136927.82601274
 10
-9757084.83428919
 20
5136943.7480095
 10
-9757079.26359932
 20
5136935.16570981
 10
-9757103.37934613
 20
5136919.14629023
 10
-9757109.14042049
 20
5136927.82601274
  0
LWPOLYLINE
  5
20348
  8
0
100
AcDbEntity
100
AcDbPolyline
 70
0
 90
5
 10
-9757030.70826185
 20
5136911.65836742
 10
-9757012.74598327
 20
5136923.02625758
 10
-9757007.74495848
 20
5136914.92814102
 10
-9757025.89759824
 20
5136903.65772216
 10
-9757030.70826185
 20
5136911.65836742
  0
LWPOLYLINE
  5
20349
  8
0
100
AcDbEntity
100
AcDbPolyline
 70
0
 90
5
 10
-9757293.51170656
 20
5136930.99318866
 10
-9757286.96925644
 20
5136935.79577445
 10
-9757281.85964254
 20
5136928.13812771
 10
-9757288.23267091
 20
5136923.6690078
 10
-9757293.51170656
 20
5136930.99318866
  0
LWPOLYLINE
  5
2034A
  8
0
100
AcDbEntity
100
AcDbPolyline
 70
0
 90
5
 10
-9757146.23309052
 20
5136926.4915104
 10
-9757137.68510053
 20
5136931.79531565
 10
-9757133.53417537
 20
5136924.95113592
 10
-9757141.89102895
 20
5136919.64581158
 10
-9757146.23309052
 20
5136926.4915104
  0
LWPOLYLINE
  5
2034B
  8
0
100
AcDbEntity
100
AcDbPolyline
 70
0
 90
5
 10
-9757172.4951921
 20
5136909.09885015
 10
-9757158.72816164
 20
5136918.22654479
 10
-9757153.77091097
 20
5136910.31951753
 10
-9757167.49250215
 20
5136901.36827093
 10
-9757172.4951921
 20
5136909.09885015
  0
LWPOLYLINE
  5
2034C
  8
0
100
AcDbEntity
100
AcDbPolyline
 70
0
 90
5
 10
-9757105.40601796
 20
5136916.66830949
 10
-9757076.48608475
 20
5136935.91094767
 10
-9757071.57371545
 20
5136928.67693167
 10
-9757100.68629041
 20
5136909.24400273
 10
-9757105.40601796
 20
5136916.66830949
  0
LWPOLYLINE
  5
2034D
  8
0
100
AcDbEntity
100
AcDbPolyline
 70
0
 90
5
 10
-9756885.93393607
 20
5136909.44407259
 10
-9756863.17028513
 20
5136923.6510957
 10
-9756858.73438833
 20
5136916.61265844
 10
-9756881.50184404
 20
5136901.92603845
 10
-9756885.93393607
 20
5136909.44407259
  0
LWPOLYLINE
  5
2034E
  8
0
100
AcDbEntity
100
AcDbPolyline
 70
0
 90
7
 10
-9756862.10608157
 20
5136925.27337288
 10
-9756855.29034465
 20
5136929.05593066
 10
-9756851.33380907
 20
5136921.82946928
 10
-9756856.32462522
 20
5136919.18344523
 10
-9756857.64347066
 20
5136921.59226392
 10
-9756859.46686162
 20
5136920.64758272
 10
-9756862.10608157
 20
5136925.27337288
  0
LWPOLYLINE
  5
2034F
  8
0
100
AcDbEntity
100
AcDbPolyline
 70
0
 90
5
 10
-9756954.72325506
 20
5136912.29739025
 10
-9756929.17149876
 20
5136928.59271034
 10
-9756924.45419042
 20
5136920.8805372
 10
-9756949.81480177
 20
5136904.58371225
 10
-9756954.72325506
 20
5136912.29739025
  0
LWPOLYLINE
  5
20350
  8
0
100
AcDbEntity
100
AcDbPolyline
 70
0
 90
5
 10
-9757256.20581054
 20
5136902.78394906
 10
-9757250.22204175
 20
5136906.71948393
 10
-9757246.84793143
 20
5136901.27092022
 10
-9757252.83169816
 20
5136897.33538967
 10
-9757256.20581054
 20
5136902.78394906
  0
LWPOLYLINE
  5
20351
  8
0
100
AcDbEntity
100
AcDbPolyline
 70
0
 90
10
 10
-9757003.23768964
 20
5136928.89783686
 10
-9756995.55428854
 20
5136933.63285369
 10
-9756991.21461773
 20
5136926.49931077
 10
-9756998.9010626
 20
5136921.38060586
 10
-9756999.37279913
 20
5136922.15181942
 10
-9757000.5249272
 20
5136921.48952939
 10
-9757001.28183903
 20
5136922.45488443
 10
-9757000.03109726
 20
5136923.50010502
 10
-9757000.59916212
 20
5136924.17615959
 10
-9757003.23768964
 20
5136928.89783686
  0
LWPOLYLINE
  5
20352
  8
0
100
AcDbEntity
100
AcDbPolyline
 70
0
 90
5
 10
-9756997.9621609
 20
5136919.26263647
 10
-9756990.66026821
 20
5136924.0966273
 10
-9756986.50411801
 20
5136917.92385603
 10
-9756993.80524613
 20
5136913.18579511
 10
-9756997.9621609
 20
5136919.26263647
  0
LWPOLYLINE
  5
20353
  8
0
100
AcDbEntity
100
AcDbPolyline
 70
0
 90
5
 10
-9756983.15732941
 20
5136930.17609497
 10
-9756977.20173328
 20
5136933.96562606
 10
-9756972.57690135
 20
5136926.63793216
 10
-9756978.53173265
 20
5136922.94433058
 10
-9756983.15732941
 20
5136930.17609497
  0
LWPOLYLINE
  5
20354
  8
0
100
AcDbEntity
100
AcDbPolyline
 70
0
 90
5
 10
-9756988.72488211
 20
5136939.14214125
 10
-9756983.72799529
 20
5136942.55563205
 10
-9756979.00301556
 20
5136935.80271317
 10
-9756983.90509613
 20
5136932.2925385
 10
-9756988.72488211
 20
5136939.14214125
  0
LWPOLYLINE
  5
20355
  8
0
100
AcDbEntity
100
AcDbPolyline
 70
0
 90
5
 10
-9757140.08895774
 20
5136917.9046818
 10
-9757132.30702356
 20
5136923.02273621
 10
-9757128.05825808
 20
5136916.46556821
 10
-9757135.64981726
 20
5136911.25007038
 10
-9757140.08895774
 20
5136917.9046818
  0
LWPOLYLINE
  5
20356
  8
0
100
AcDbEntity
100
AcDbPolyline
 70
0
 90
5
 10
-9757167.02531703
 20
5136899.19878741
 10
-9757146.70974184
 20
5136912.2962865
 10
-9757142.66350301
 20
5136906.1202977
 10
-9757163.02310199
 20
5136893.02316711
 10
-9757167.02531703
 20
5136899.19878741
  0
LWPOLYLINE
  5
20357
  8
0
100
AcDbEntity
100
AcDbPolyline
 70
0
 90
5
 10
-9757092.10359827
 20
5136906.8731006
 10
-9757075.77592047
 20
5136917.00708015
 10
-9757071.90489444
 20
5136911.02848926
 10
-9757088.23332699
 20
5136900.79859898
 10
-9757092.10359827
 20
5136906.8731006
  0
LWPOLYLINE
  5
20358
  8
0
100
AcDbEntity
100
AcDbPolyline
 70
0
 90
5
 10
-9756882.09965677
 20
5136898.86108089
 10
-9756860.86584718
 20
5136912.9844133
 10
-9756856.24035132
 20
5136905.75260339
 10
-9756877.75932322
 20
5136891.82343637
 10
-9756882.09965677
 20
5136898.86108089
  0
LWPOLYLINE
  5
20359
  8
0
100
AcDbEntity
100
AcDbPolyline
 70
0
 90
5
 10
-9756857.8880313
 20
5136914.87913734
 10
-9756849.81619936
 20
5136920.3783544
 10
-9756845.18994499
 20
5136913.24245728
 10
-9756853.0714046
 20
5136907.64579227
 10
-9756857.8880313
 20
5136914.87913734
  0
LWPOLYLINE
  5
2035A
  8
0
100
AcDbEntity
100
AcDbPolyline
 70
0
 90
9
 10
-9756947.81248815
 20
5136903.99210161
 10
-9756942.91422116
 20
5136907.02262942
 10
-9756943.57632231
 20
5136907.89129867
 10
-9756926.96026467
 20
5136918.21457426
 10
-9756922.05259348
 20
5136910.4049538
 10
-9756941.64643826
 20
5136898.18694842
 10
-9756942.78255679
 20
5136899.53906089
 10
-9756944.41632805
 20
5136898.40098789
 10
-9756947.81248815
 20
5136903.99210161
  0
LWPOLYLINE
  5
2035B
  8
0
100
AcDbEntity
100
AcDbPolyline
 70
0
 90
9
 10
-9757313.8054622
 20
5136906.12795747
 10
-9757290.50260948
 20
5136921.34343863
 10
-9757285.89264801
 20
5136913.7734905
 10
-9757309.02805768
 20
5136898.64040019
 10
-9757309.44167182
 20
5136899.06220667
 10
-9757311.03260439
 20
5136898.2378643
 10
-9757314.40769235
 20
5136903.78909718
 10
-9757313.06492788
 20
5136904.86652453
 10
-9757313.8054622
 20
5136906.12795747
  0
LWPOLYLINE
  5
2035C
  8
0
100
AcDbEntity
100
AcDbPolyline
 70
0
 90
5
 10
-9757251.62533633
 20
5136896.5512474
 10
-9757245.86114697
 20
5136900.59917414
 10
-9757241.71983493
 20
5136894.59126356
 10
-9757248.03427908
 20
5136890.6583763
 10
-9757251.62533633
 20
5136896.5512474
  0
LWPOLYLINE
  5
2035D
  8
0
100
AcDbEntity
100
AcDbPolyline
 70
0
 90
5
 10
-9756992.09648368
 20
5136911.7331745
 10
-9756985.56674336
 20
5136915.61403881
 10
-9756981.79362664
 20
5136909.34840666
 10
-9756988.03818979
 20
5136905.27340582
 10
-9756992.09648368
 20
5136911.7331745
  0
LWPOLYLINE
  5
2035E
  8
0
100
AcDbEntity
100
AcDbPolyline
 70
0
 90
5
 10
-9757134.69947886
 20
5136910.57097134
 10
-9757127.01387463
 20
5136915.59385719
 10
-9757122.95624835
 20
5136909.03821884
 10
-9757130.54552275
 20
5136904.11049987
 10
-9757134.69947886
 20
5136910.57097134
  0
LWPOLYLINE
  5
2035F
  8
0
100
AcDbEntity
100
AcDbPolyline
 70
0
 90
7
 10
-9757162.72608981
 20
5136891.60642715
 10
-9757142.63068281
 20
5136904.70566522
 10
-9757138.67391433
 20
5136898.35359798
 10
-9757157.13279281
 20
5136886.16948776
 10
-9757159.78613726
 20
5136890.30118127
 10
-9757161.42546031
 20
5136889.03249984
 10
-9757162.72608981
 20
5136891.60642715
  0
LWPOLYLINE
  5
20360
  8
0
100
AcDbEntity
100
AcDbPolyline
 70
0
 90
5
 10
-9757090.81239987
 20
5136888.92394254
 10
-9757087.74287501
 20
5136890.33835315
 10
-9757086.32993171
 20
5136887.73696288
 10
-9757089.21060691
 20
5136886.03325526
 10
-9757090.81239987
 20
5136888.92394254
  0
LWPOLYLINE
  5
20361
  8
0
100
AcDbEntity
100
AcDbPolyline
 70
0
 90
13
 10
-9757028.11770339
 20
5136900.89352018
 10
-9757018.32198107
 20
5136906.85873179
 10
-9757018.03832934
 20
5136906.47274383
 10
-9757015.54066175
 20
5136908.08356785
 10
-9757011.38831088
 20
5136901.43119977
 10
-9757013.11535538
 20
5136900.58164991
 10
-9757012.64590391
 20
5136899.52266813
 10
-9757023.49665603
 20
5136893.08625844
 10
-9757024.25356798
 20
5136894.05160883
 10
-9757025.50125695
 20
5136893.39008209
 10
-9757028.52205261
 20
5136898.11479506
 10
-9757027.17575093
 20
5136899.15925225
 10
-9757028.11770339
 20
5136900.89352018
  0
LWPOLYLINE
  5
20362
  8
0
100
AcDbEntity
100
AcDbPolyline
 70
0
 90
5
 10
-9756851.83667851
 20
5136906.67659623
 10
-9756844.63334267
 20
5136911.12753985
 10
-9756840.20051899
 20
5136903.70540906
 10
-9756847.40461461
 20
5136899.15854866
 10
-9756851.83667851
 20
5136906.67659623
  0
LWPOLYLINE
  5
20363
  8
0
100
AcDbEntity
100
AcDbPolyline
 70
0
 90
5
 10
-9756874.42290916
 20
5136890.74147116
 10
-9756855.68908993
 20
5136902.96622338
 10
-9756851.53608941
 20
5136896.40971376
 10
-9756870.17509823
 20
5136884.08828857
 10
-9756874.42290916
 20
5136890.74147116
  0
LWPOLYLINE
  5
20364
  8
0
100
AcDbEntity
100
AcDbPolyline
 70
0
 90
7
 10
-9756942.43231391
 20
5136895.50721254
 10
-9756922.44858505
 20
5136908.68139045
 10
-9756917.6326751
 20
5136901.35215866
 10
-9756935.40617931
 20
5136889.69517311
 10
-9756937.96053609
 20
5136892.97723385
 10
-9756939.79077575
 20
5136891.1692289
 10
-9756942.43231391
 20
5136895.50721254
  0
LWPOLYLINE
  5
20365
  8
0
100
AcDbEntity
100
AcDbPolyline
 70
0
 90
5
 10
-9757247.28196229
 20
5136888.21816808
 10
-9757239.64042142
 20
5136892.69369765
 10
-9757235.1771972
 20
5136885.57676362
 10
-9757242.48980703
 20
5136880.87732586
 10
-9757247.28196229
 20
5136888.21816808
  0
LWPOLYLINE
  5
20366
  8
0
100
AcDbEntity
100
AcDbPolyline
 70
0
 90
5
 10
-9757228.33599011
 20
5136900.34873437
 10
-9757212.05556645
 20
5136909.95568838
 10
-9757207.70345787
 20
5136902.72896945
 10
-9757223.5447196
 20
5136892.89723463
 10
-9757228.33599011
 20
5136900.34873437
  0
LWPOLYLINE
  5
20367
  8
0
100
AcDbEntity
100
AcDbPolyline
 70
0
 90
5
 10
-9756985.83475792
 20
5136903.29017257
 10
-9756978.86678392
 20
5136907.1157196
 10
-9756975.04824369
 20
5136901.03487096
 10
-9756982.01893513
 20
5136896.86688217
 10
-9756985.83475792
 20
5136903.29017257
  0
LWPOLYLINE
  5
20368
  8
0
100
AcDbEntity
100
AcDbPolyline
 70
0
 90
5
 10
-9756970.87546111
 20
5136912.23483822
 10
-9756964.72797682
 20
5136916.11874827
 10
-9756960.76221685
 20
5136910.04342478
 10
-9756967.00678925
 20
5136905.96843754
 10
-9756970.87546111
 20
5136912.23483822
  0
LWPOLYLINE
  5
20369
  8
0
100
AcDbEntity
100
AcDbPolyline
 70
0
 90
5
 10
-9757308.12075486
 20
5136897.37763882
 10
-9757290.1876632
 20
5136908.45078901
 10
-9757285.90528744
 20
5136901.63678098
 10
-9757303.84101946
 20
5136890.22885973
 10
-9757308.12075486
 20
5136897.37763882
  0
LWPOLYLINE
  5
2036A
  8
0
100
AcDbEntity
100
AcDbPolyline
 70
0
 90
5
 10
-9757281.72472323
 20
5136913.57286
 10
-9757275.52310497
 20
5136917.45742191
 10
-9757272.55966092
 20
5136912.57906694
 10
-9757278.67722995
 20
5136908.77754098
 10
-9757281.72472323
 20
5136913.57286
  0
LWPOLYLINE
  5
2036B
  8
0
100
AcDbEntity
100
AcDbPolyline
 70
0
 90
5
 10
-9757156.3461812
 20
5136885.4118238
 10
-9757137.97536625
 20
5136897.59663492
 10
-9757133.40811954
 20
5136890.48831106
 10
-9757151.95505226
 20
5136878.30492412
 10
-9757156.3461812
 20
5136885.4118238
  0
LWPOLYLINE
  5
2036C
  8
0
100
AcDbEntity
100
AcDbPolyline
 70
0
 90
5
 10
-9757095.26930427
 20
5136881.28520214
 10
-9757088.44912331
 20
5136885.64345125
 10
-9757083.82042386
 20
5136878.7954641
 10
-9757090.5457971
 20
5136874.34053427
 10
-9757095.26930427
 20
5136881.28520214
  0
LWPOLYLINE
  5
2036D
  8
0
100
AcDbEntity
100
AcDbPolyline
 70
0
 90
5
 10
-9757077.02122126
 20
5136892.55496445
 10
-9757059.7196217
 20
5136904.98342858
 10
-9757054.80575814
 20
5136897.94127441
 10
-9757072.58289746
 20
5136885.80441822
 10
-9757077.02122126
 20
5136892.55496445
  0
LWPOLYLINE
  5
2036E
  8
0
100
AcDbEntity
100
AcDbPolyline
 70
0
 90
9
 10
-9757020.06542025
 20
5136891.90765602
 10
-9757018.81392287
 20
5136893.04879932
 10
-9757019.57159599
 20
5136893.91822658
 10
-9757005.64444393
 20
5136902.63233007
 10
-9757001.21073702
 20
5136895.30620302
 10
-9757014.75866541
 20
5136886.20536076
 10
-9757015.79998868
 20
5136887.46077498
 10
-9757017.04691569
 20
5136886.89517321
 10
-9757020.06542025
 20
5136891.90765602
  0
LWPOLYLINE
  5
2036F
  8
0
100
AcDbEntity
100
AcDbPolyline
 70
0
 90
5
 10
-9756868.84328126
 20
5136883.31017784
 10
-9756851.46113305
 20
5136893.81901398
 10
-9756847.22020705
 20
5136886.30250873
 10
-9756864.5037276
 20
5136876.17661548
 10
-9756868.84328126
 20
5136883.31017784
  0
LWPOLYLINE
  5
20370
  8
0
100
AcDbEntity
100
AcDbPolyline
 70
0
 90
5
 10
-9756845.01775447
 20
5136898.85162244
 10
-9756838.67986003
 20
5136902.63798932
 10
-9756833.68510146
 20
5136893.77241239
 10
-9756839.73476732
 20
5136890.17560023
 10
-9756845.01775447
 20
5136898.85162244
  0
LWPOLYLINE
  5
20371
  8
0
100
AcDbEntity
100
AcDbPolyline
 70
0
 90
5
 10
-9756949.19060552
 20
5136877.54001187
 10
-9756942.10256173
 20
5136882.1636528
 10
-9756938.73078213
 20
5136877.1137868
 10
-9756945.81791655
 20
5136872.60429945
 10
-9756949.19060552
 20
5136877.54001187
  0
LWPOLYLINE
  5
20372
  8
0
100
AcDbEntity
100
AcDbPolyline
 70
0
 90
5
 10
-9756935.12188309
 20
5136887.5872433
 10
-9756911.45678646
 20
5136903.03709419
 10
-9756907.18884277
 20
5136896.26768348
 10
-9756930.74111341
 20
5136880.70279434
 10
-9756935.12188309
 20
5136887.5872433
  0
LWPOLYLINE
  5
20373
  8
0
100
AcDbEntity
100
AcDbPolyline
 70
0
 90
5
 10
-9757241.28957955
 20
5136879.3187126
 10
-9757234.42138007
 20
5136883.57911074
 10
-9757230.28533876
 20
5136876.90737377
 10
-9757236.71700989
 20
5136872.09027135
 10
-9757241.28957955
 20
5136879.3187126
  0
LWPOLYLINE
  5
20374
  8
0
100
AcDbEntity
100
AcDbPolyline
 70
0
 90
5
 10
-9757228.76654182
 20
5136887.7385398
 10
-9757208.04903504
 20
5136900.85074578
 10
-9757203.36975939
 20
5136893.1788375
 10
-9757223.64547413
 20
5136880.17377313
 10
-9757228.76654182
 20
5136887.7385398
  0
LWPOLYLINE
  5
20375
  8
0
100
AcDbEntity
100
AcDbPolyline
 70
0
 90
5
 10
-9756980.66966829
 20
5136894.91542744
 10
-9756973.81179438
 20
5136899.19847369
 10
-9756969.88225778
 20
5136892.77427096
 10
-9756976.73831508
 20
5136888.7195281
 10
-9756980.66966829
 20
5136894.91542744
  0
LWPOLYLINE
  5
20376
  8
0
100
AcDbEntity
100
AcDbPolyline
 70
0
 90
5
 10
-9756965.87295306
 20
5136904.32855628
 10
-9756959.34244513
 20
5136908.30532319
 10
-9756955.19242021
 20
5136901.3651602
 10
-9756961.43546481
 20
5136897.48202726
 10
-9756965.87295306
 20
5136904.32855628
  0
LWPOLYLINE
  5
20377
  8
0
100
AcDbEntity
100
AcDbPolyline
 70
0
 90
7
 10
-9757150.72812735
 20
5136877.5437441
 10
-9757128.90218977
 20
5136892.30867671
 10
-9757126.63883379
 20
5136888.97567107
 10
-9757129.25140889
 20
5136887.14018308
 10
-9757127.11979796
 20
5136883.8524307
 10
-9757146.42121526
 20
5136870.92370827
 10
-9757150.72812735
 20
5136877.5437441
  0
LWPOLYLINE
  5
20378
  8
0
100
AcDbEntity
100
AcDbPolyline
 70
0
 90
5
 10
-9757089.70472818
 20
5136871.93557799
 10
-9757082.40367826
 20
5136876.67369299
 10
-9757078.43785937
 20
5136870.59844269
 10
-9757085.64257987
 20
5136865.95549309
 10
-9757089.70472818
 20
5136871.93557799
  0
LWPOLYLINE
  5
20379
  8
0
100
AcDbEntity
100
AcDbPolyline
 70
0
 90
7
 10
-9757072.69520772
 20
5136883.69486728
 10
-9757053.76899639
 20
5136896.11032194
 10
-9757048.6701006
 20
5136888.29925536
 10
-9757064.90447513
 20
5136877.87681812
 10
-9757067.73719835
 20
5136882.21628964
 10
-9757070.62015851
 20
5136880.22481855
 10
-9757072.69520772
 20
5136883.69486728
  0
LWPOLYLINE
  5
2037A
  8
0
100
AcDbEntity
100
AcDbPolyline
 70
0
 90
5
 10
-9757302.27127456
 20
5136888.37490558
 10
-9757283.65853144
 20
5136901.03295582
 10
-9757279.62101974
 20
5136894.89051844
 10
-9757297.9025347
 20
5136881.9368874
 10
-9757302.27127456
 20
5136888.37490558
  0
LWPOLYLINE
  5
2037B
  8
0
100
AcDbEntity
100
AcDbPolyline
 70
0
 90
9
 10
-9757014.21116742
 20
5136882.93937823
 10
-9757013.53763607
 20
5136883.50956669
 10
-9757014.38782709
 20
5136884.76345161
 10
-9756999.3032262
 20
5136894.81129191
 10
-9756994.6761102
 20
5136887.77140869
 10
-9757009.28135211
 20
5136877.91160669
 10
-9757009.84789149
 20
5136878.77950417
 10
-9757011.09481772
 20
5136878.21390368
 10
-9757014.21116742
 20
5136882.93937823
  0
LWPOLYLINE
  5
2037C
  8
0
100
AcDbEntity
100
AcDbPolyline
 70
0
 90
5
 10
-9756930.30255336
 20
5136878.64447345
 10
-9756910.1783301
 20
5136892.18200978
 10
-9756905.46094468
 20
5136884.72406885
 10
-9756925.69615961
 20
5136871.52990968
 10
-9756930.30255336
 20
5136878.64447345
  0
LWPOLYLINE
  5
2037D
  8
0
100
AcDbEntity
100
AcDbPolyline
 70
0
 90
5
 10
-9756840.13458993
 20
5136887.97242708
 10
-9756833.2171972
 20
5136892.52157584
 10
-9756829.0626895
 20
5136886.15691044
 10
-9756835.97931608
 20
5136881.703691
 10
-9756840.13458993
 20
5136887.97242708
  0
LWPOLYLINE
  5
2037E
  8
0
100
AcDbEntity
100
AcDbPolyline
 70
0
 90
5
 10
-9757235.95244876
 20
5136870.31057434
 10
-9757228.32601154
 20
5136875.10444287
 10
-9757223.71545849
 20
5136867.61819806
 10
-9757231.42527652
 20
5136862.82500208
 10
-9757235.95244876
 20
5136870.31057434
  0
LWPOLYLINE
  5
2037F
  8
0
100
AcDbEntity
100
AcDbPolyline
 70
0
 90
5
 10
-9757118.82615644
 20
5136887.51698812
 10
-9757112.19787424
 20
5136891.78086061
 10
-9757108.23431248
 20
5136885.41784273
 10
-9757114.76930816
 20
5136880.86544212
 10
-9757118.82615644
 20
5136887.51698812
  0
LWPOLYLINE
  5
20380
  8
0
100
AcDbEntity
100
AcDbPolyline
 70
0
 90
5
 10
-9756974.94050487
 20
5136885.96539126
 10
-9756968.76588268
 20
5136890.13974269
 10
-9756964.15491976
 20
5136883.59593277
 10
-9756970.67161665
 20
5136879.31016934
 10
-9756974.94050487
 20
5136885.96539126
  0
LWPOLYLINE
  5
20381
  8
0
100
AcDbEntity
100
AcDbPolyline
 70
0
 90
5
 10
-9756969.66533841
 20
5136877.13315012
 10
-9756962.34895087
 20
5136881.86913415
 10
-9756958.30389152
 20
5136875.67232531
 10
-9756965.62209025
 20
5136870.70805008
 10
-9756969.66533841
 20
5136877.13315012
  0
LWPOLYLINE
  5
20382
  8
0
100
AcDbEntity
100
AcDbPolyline
 70
0
 90
5
 10
-9756960.6443495
 20
5136896.01084874
 10
-9756953.67183528
 20
5136900.40711945
 10
-9756949.29286082
 20
5136893.29437185
 10
-9756956.15255546
 20
5136888.78304817
 10
-9756960.6443495
 20
5136896.01084874
  0
LWPOLYLINE
  5
20383
  8
0
100
AcDbEntity
100
AcDbPolyline
 70
0
 90
5
 10
-9756955.26000299
 20
5136886.60693582
 10
-9756948.05823186
 20
5136891.22967496
 10
-9756944.01771415
 20
5136884.46211
 10
-9756950.99203539
 20
5136879.837556
 10
-9756955.26000299
 20
5136886.60693582
  0
LWPOLYLINE
  5
20384
  8
0
100
AcDbEntity
100
AcDbPolyline
 70
0
 90
9
 10
-9757009.83233402
 20
5136874.60069473
 10
-9757008.34577283
 20
5136875.61620504
 10
-9757009.02086091
 20
5136876.53485412
 10
-9756994.04422754
 20
5136886.34659549
 10
-9756989.32587265
 20
5136879.00284874
 10
-9757003.62106637
 20
5136869.07151398
 10
-9757004.52269351
 20
5136870.10613126
 10
-9757006.34951743
 20
5136869.20750047
 10
-9757009.83233402
 20
5136874.60069473
  0
LWPOLYLINE
  5
20385
  8
0
100
AcDbEntity
100
AcDbPolyline
 70
0
 90
5
 10
-9756924.79726333
 20
5136870.15283893
 10
-9756904.44923444
 20
5136883.23193442
 10
-9756900.0730277
 20
5136875.77673114
 10
-9756920.07896961
 20
5136862.80907079
 10
-9756924.79726333
 20
5136870.15283893
  0
LWPOLYLINE
  5
20386
  8
0
100
AcDbEntity
100
AcDbPolyline
 70
0
 90
7
 10
-9756855.97226452
 20
5136867.3786535
 10
-9756837.14290224
 20
5136879.6025738
 10
-9756832.425692
 20
5136871.89039514
 10
-9756851.8299653
 20
5136859.4792446
 10
-9756853.34298602
 20
5136861.50588871
 10
-9756852.86057803
 20
5136862.07759677
 10
-9756855.97226452
 20
5136867.3786535
  0
LWPOLYLINE
  5
20387
  8
0
100
AcDbEntity
100
AcDbPolyline
 70
0
 90
5
 10
-9757115.83194294
 20
5136879.43499041
 10
-9757107.667003
 20
5136884.64587382
 10
-9757103.79673062
 20
5136878.57139249
 10
-9757111.58244708
 20
5136872.97376821
 10
-9757115.83194294
 20
5136879.43499041
  0
LWPOLYLINE
  5
20388
  8
0
100
AcDbEntity
100
AcDbPolyline
 70
0
 90
13
 10
-9757140.14025491
 20
5136863.35973216
 10
-9757124.33730223
 20
5136873.79704084
 10
-9757123.77155218
 20
5136872.95274168
 10
-9757121.02688567
 20
5136874.78717021
 10
-9757117.0680409
 20
5136868.70029055
 10
-9757119.54816764
 20
5136866.90794979
 10
-9757118.89610795
 20
5136865.84196695
 10
-9757134.389082
 20
5136855.62319415
 10
-9757135.65337687
 20
5136857.2244512
 10
-9757136.89396271
 20
5136856.2619854
 10
-9757140.55090204
 20
5136861.55085798
 10
-9757139.40118153
 20
5136862.16045951
 10
-9757140.14025491
 20
5136863.35973216
  0
LWPOLYLINE
  5
20389
  8
0
100
AcDbEntity
100
AcDbPolyline
 70
0
 90
5
 10
-9757229.34729036
 20
5136861.97140765
 10
-9757222.97759011
 20
5136866.02197732
 10
-9757219.02815621
 20
5136859.29432725
 10
-9757225.39719085
 20
5136855.32745941
 10
-9757229.34729036
 20
5136861.97140765
  0
LWPOLYLINE
  5
2038A
  8
0
100
AcDbEntity
100
AcDbPolyline
 70
0
 90
5
 10
-9757216.99526551
 20
5136870.82647915
 10
-9757199.26616278
 20
5136882.41344623
 10
-9757194.36820332
 20
5136874.51851164
 10
-9757212.09466844
 20
5136863.26347864
 10
-9757216.99526551
 20
5136870.82647915
  0
LWPOLYLINE
  5
2038B
  8
0
100
AcDbEntity
100
AcDbPolyline
 70
0
 90
5
 10
-9757271.60912213
 20
5136895.7055133
 10
-9757264.73513321
 20
5136900.25431669
 10
-9757260.36806952
 20
5136893.60703175
 10
-9757266.82711904
 20
5136888.80382015
 10
-9757271.60912213
 20
5136895.7055133
  0
LWPOLYLINE
  5
2038C
  8
0
100
AcDbEntity
100
AcDbPolyline
 70
0
 90
5
 10
-9757296.91847158
 20
5136879.83649633
 10
-9757276.55068345
 20
5136892.9827449
 10
-9757272.26832424
 20
5136886.16874181
 10
-9757292.55205677
 20
5136873.10554349
 10
-9757296.91847158
 20
5136879.83649633
  0
LWPOLYLINE
  5
2038D
  8
0
100
AcDbEntity
100
AcDbPolyline
 70
0
 90
5
 10
-9757077.68812016
 20
5136856.68270429
 10
-9757069.90620317
 20
5136861.80067548
 10
-9757065.94344297
 20
5136855.34173702
 10
-9757073.62979121
 20
5136850.22300852
 10
-9757077.68812016
 20
5136856.68270429
  0
LWPOLYLINE
  5
2038E
  8
0
100
AcDbEntity
100
AcDbPolyline
 70
0
 90
7
 10
-9757061.45075052
 20
5136867.48883389
 10
-9757044.35249052
 20
5136878.38399276
 10
-9757041.61762909
 20
5136873.75751051
 10
-9757039.88983048
 20
5136874.70298655
 10
-9757038.09387793
 20
5136872.19445963
 10
-9757056.82816917
 20
5136859.87346149
 10
-9757061.45075052
 20
5136867.48883389
  0
LWPOLYLINE
  5
2038F
  8
0
100
AcDbEntity
100
AcDbPolyline
 70
0
 90
9
 10
-9757003.97674055
 20
5136867.24786552
 10
-9756997.80214293
 20
5136871.42222792
 10
-9756997.24168614
 20
5136870.39033989
 10
-9756991.64023346
 20
5136873.99850606
 10
-9756992.20340986
 20
5136874.68794865
 10
-9756985.57028199
 20
5136879.31526104
 10
-9756980.84921662
 20
5136872.31396157
 10
-9756999.14375755
 20
5136860.01737677
 10
-9757003.97674055
 20
5136867.24786552
  0
LWPOLYLINE
  5
20390
  8
0
100
AcDbEntity
100
AcDbPolyline
 70
0
 90
11
 10
-9756919.51670664
 20
5136862.00547628
 10
-9756914.25821483
 20
5136865.38802918
 10
-9756914.14993725
 20
5136864.70222668
 10
-9756898.94578041
 20
5136874.51198374
 10
-9756895.57584196
 20
5136869.23380945
 10
-9756909.52450145
 20
5136859.98478424
 10
-9756909.30250117
 20
5136859.29807102
 10
-9756916.96460411
 20
5136853.99412948
 10
-9756920.00064004
 20
5136858.35636709
 10
-9756918.28299563
 20
5136859.8266338
 10
-9756919.51670664
 20
5136862.00547628
  0
LWPOLYLINE
  5
20391
  8
0
100
AcDbEntity
100
AcDbPolyline
 70
0
 90
5
 10
-9756831.00213169
 20
5136870.63189767
 10
-9756823.22236456
 20
5136875.46190347
 10
-9756818.97612329
 20
5136868.61686258
 10
-9756826.56475563
 20
5136863.7853308
 10
-9756831.00213169
 20
5136870.63189767
  0
LWPOLYLINE
  5
20392
  8
0
100
AcDbEntity
100
AcDbPolyline
 70
0
 90
11
 10
-9757135.94909928
 20
5136853.24891725
 10
-9757134.04629188
 20
5136854.42708735
 10
-9757134.35065689
 20
5136854.91570573
 10
-9757117.66077608
 20
5136866.1414899
 10
-9757117.18273935
 20
5136865.34209067
 10
-9757112.93294548
 20
5136868.18106511
 10
-9757108.53765055
 20
5136861.60451133
 10
-9757129.65309105
 20
5136847.58537652
 10
-9757130.13182877
 20
5136848.29638163
 10
-9757131.90324234
 20
5136847.02876591
 10
-9757135.94909928
 20
5136853.24891725
  0
LWPOLYLINE
  5
20393
  8
0
100
AcDbEntity
100
AcDbPolyline
 70
0
 90
7
 10
-9757215.65958365
 20
5136858.53416747
 10
-9757209.0135929
 20
5136862.57502011
 10
-9757209.88663955
 20
5136863.68844186
 10
-9757189.94162052
 20
5136876.69609431
 10
-9757184.49604671
 20
5136868.35420614
 10
-9757211.19639296
 20
5136851.41724768
 10
-9757215.65958365
 20
5136858.53416747
  0
LWPOLYLINE
  5
20394
  8
0
100
AcDbEntity
100
AcDbPolyline
 70
0
 90
5
 10
-9756990.10846962
 20
5136852.06832817
 10
-9756969.30204647
 20
5136865.60049307
 10
-9756964.58462767
 20
5136858.14260159
 10
-9756985.3910411
 20
5136844.61045735
 10
-9756990.10846962
 20
5136852.06832817
  0
LWPOLYLINE
  5
20395
  8
0
100
AcDbEntity
100
AcDbPolyline
 70
0
 90
11
 10
-9757280.96105417
 20
5136852.00400684
 10
-9757265.12786603
 20
5136861.16865827
 10
-9757262.98967766
 20
5136857.38503121
 10
-9757261.48080747
 20
5136858.37741988
 10
-9757259.91703807
 20
5136855.77019728
 10
-9757277.09496945
 20
5136845.277055
 10
-9757277.8354945
 20
5136846.53848287
 10
-9757279.34369886
 20
5136845.62978912
 10
-9757280.74136539
 20
5136848.15197998
 10
-9757279.40059189
 20
5136848.97830736
 10
-9757280.96105417
 20
5136852.00400684
  0
LWPOLYLINE
  5
20396
  8
0
100
AcDbEntity
100
AcDbPolyline
 70
0
 90
9
 10
-9757293.8412317
 20
5136868.26111376
 10
-9757292.83598139
 20
5136868.8390137
 10
-9757293.40841676
 20
5136870.26650726
 10
-9757274.55481598
 20
5136881.75076933
 10
-9757270.03091999
 20
5136873.84672338
 10
-9757288.54964791
 20
5136862.52721375
 10
-9757289.54099164
 20
5136863.70694056
 10
-9757290.46351924
 20
5136863.04468013
 10
-9757293.8412317
 20
5136868.26111376
  0
LWPOLYLINE
  5
20397
  8
0
100
AcDbEntity
100
AcDbPolyline
 70
0
 90
5
 10
-9757072.40722753
 20
5136847.71907798
 10
-9757064.91277304
 20
5136852.74340915
 10
-9757060.75584397
 20
5136846.66663869
 10
-9757068.34814474
 20
5136841.35530899
 10
-9757072.40722753
 20
5136847.71907798
  0
LWPOLYLINE
  5
20398
  8
0
100
AcDbEntity
100
AcDbPolyline
 70
0
 90
5
 10
-9757062.11777356
 20
5136855.69486806
 10
-9757037.52429054
 20
5136871.71025746
 10
-9757032.70831039
 20
5136864.38111117
 10
-9757057.39963173
 20
5136848.07874123
 10
-9757062.11777356
 20
5136855.69486806
  0
LWPOLYLINE
  5
20399
  8
0
100
AcDbEntity
100
AcDbPolyline
 70
0
 90
5
 10
-9756995.50552425
 20
5136859.87410825
 10
-9756975.38687245
 20
5136872.72686522
 10
-9756971.00608038
 20
5136865.84244514
 10
-9756991.01190707
 20
5136852.87464797
 10
-9756995.50552425
 20
5136859.87410825
  0
LWPOLYLINE
  5
2039A
  8
0
100
AcDbEntity
100
AcDbPolyline
 70
0
 90
5
 10
-9757103.44215049
 20
5136863.02800437
 10
-9757096.90944433
 20
5136867.29261918
 10
-9757092.84957614
 20
5136861.02477067
 10
-9757099.28671415
 20
5136856.75939772
 10
-9757103.44215049
 20
5136863.02800437
  0
LWPOLYLINE
  5
2039B
  8
0
100
AcDbEntity
100
AcDbPolyline
 70
0
 90
7
 10
-9757132.90101359
 20
5136843.36823553
 10
-9757111.52630599
 20
5136856.766516
 10
-9757107.39730809
 20
5136849.92690423
 10
-9757127.31231697
 20
5136837.35675866
 10
-9757128.91939717
 20
5136840.15411867
 10
-9757130.46679864
 20
5136839.37090133
 10
-9757132.90101359
 20
5136843.36823553
  0
LWPOLYLINE
  5
2039C
  8
0
100
AcDbEntity
100
AcDbPolyline
 70
0
 90
5
 10
-9757207.21686308
 20
5136852.82388259
 10
-9757186.71810251
 20
5136866.15903158
 10
-9757181.81490199
 20
5136858.92793481
 10
-9757202.42563243
 20
5136845.37240926
 10
-9757207.21686308
 20
5136852.82388259
  0
LWPOLYLINE
  5
2039D
  8
0
100
AcDbEntity
100
AcDbPolyline
 70
0
 90
5
 10
-9757219.29984585
 20
5136844.28995779
 10
-9757212.43078574
 20
5136848.66096315
 10
-9757208.40324798
 20
5136842.21139716
 10
-9757215.16470799
 20
5136837.5076034
 10
-9757219.29984585
 20
5136844.28995779
  0
LWPOLYLINE
  5
2039E
  8
0
100
AcDbEntity
100
AcDbPolyline
 70
0
 90
5
 10
-9756964.16182819
 20
5136868.41324206
 10
-9756957.75885914
 20
5136872.69990672
 10
-9756953.1470049
 20
5136866.27025205
 10
-9756959.66550891
 20
5136861.75620665
 10
-9756964.16182819
 20
5136868.41324206
  0
LWPOLYLINE
  5
2039F
  8
0
100
AcDbEntity
100
AcDbPolyline
 70
0
 90
5
 10
-9756944.36673136
 20
5136869.16800154
 10
-9756936.70553848
 20
5136874.35782478
 10
-9756932.10004936
 20
5136867.12911862
 10
-9756939.64479386
 20
5136862.28083791
 10
-9756944.36673136
 20
5136869.16800154
  0
LWPOLYLINE
  5
203A0
  8
0
100
AcDbEntity
100
AcDbPolyline
 70
0
 90
5
 10
-9757055.78263021
 20
5136847.10652106
 10
-9757031.47890205
 20
5136862.74048036
 10
-9757026.57117319
 20
5136854.93095799
 10
-9757050.97045477
 20
5136839.29778788
 10
-9757055.78263021
 20
5136847.10652106
  0
LWPOLYLINE
  5
203A1
  8
0
100
AcDbEntity
100
AcDbPolyline
 70
0
 90
7
 10
-9757260.82085027
 20
5136878.54429096
 10
-9757252.94227698
 20
5136883.58727849
 10
-9757248.00412505
 20
5136875.34510943
 10
-9757252.36265256
 20
5136872.53400743
 10
-9757253.84568798
 20
5136874.8057845
 10
-9757257.28234538
 20
5136872.5732413
 10
-9757260.82085027
 20
5136878.54429096
  0
LWPOLYLINE
  5
203A2
  8
0
100
AcDbEntity
100
AcDbPolyline
 70
0
 90
7
 10
-9757288.56355425
 20
5136860.76958804
 10
-9757264.50898623
 20
5136876.1463459
 10
-9757260.06252364
 20
5136868.99623346
 10
-9757282.3593843
 20
5136854.44250274
 10
-9757285.32612687
 20
5136858.902343
 10
-9757286.74962354
 20
5136858.16037508
 10
-9757288.56355425
 20
5136860.76958804
  0
LWPOLYLINE
  5
203A3
  8
0
100
AcDbEntity
100
AcDbPolyline
 70
0
 90
5
 10
-9757126.02052596
 20
5136835.96451981
 10
-9757106.42323615
 20
5136848.66244468
 10
-9757101.60569282
 20
5136841.52519625
 10
-9757121.39714739
 20
5136828.44512607
 10
-9757126.02052596
 20
5136835.96451981
  0
LWPOLYLINE
  5
203A4
  8
0
100
AcDbEntity
100
AcDbPolyline
 70
0
 90
5
 10
-9757098.26060007
 20
5136853.58553436
 10
-9757090.86324179
 20
5136858.41880649
 10
-9757086.89514206
 20
5136852.63134047
 10
-9757094.29401959
 20
5136847.60622821
 10
-9757098.26060007
 20
5136853.58553436
  0
LWPOLYLINE
  5
203A5
  8
0
100
AcDbEntity
100
AcDbPolyline
 70
0
 90
7
 10
-9757200.89649077
 20
5136843.58988122
 10
-9757181.83068083
 20
5136856.93644253
 10
-9757177.03508472
 20
5136850.03814526
 10
-9757199.20211085
 20
5136834.83538485
 10
-9757201.92708456
 20
5136838.72971411
 10
-9757199.48546316
 20
5136840.81248847
 10
-9757200.89649077
 20
5136843.58988122
  0
LWPOLYLINE
  5
203A6
  8
0
100
AcDbEntity
100
AcDbPolyline
 70
0
 90
5
 10
-9757213.9697477
 20
5136835.28516452
 10
-9757206.98958947
 20
5136839.76592068
 10
-9757202.30946761
 20
5136832.20469883
 10
-9757209.18027296
 20
5136827.61243189
 10
-9757213.9697477
 20
5136835.28516452
  0
LWPOLYLINE
  5
203A7
  8
0
100
AcDbEntity
100
AcDbPolyline
 70
0
 90
5
 10
-9756938.74771103
 20
5136860.6754727
 10
-9756931.31669053
 20
5136865.52466269
 10
-9756926.93684095
 20
5136858.52607931
 10
-9756934.02668908
 20
5136853.67416396
 10
-9756938.74771103
 20
5136860.6754727
  0
LWPOLYLINE
  5
203A8
  8
0
100
AcDbEntity
100
AcDbPolyline
 70
0
 90
5
 10
-9757246.59473623
 20
5136853.23660315
 10
-9757238.38528907
 20
5136857.94211966
 10
-9757234.02488952
 20
5136850.45788849
 10
-9757242.23632017
 20
5136845.50129039
 10
-9757246.59473623
 20
5136853.23660315
  0
LWPOLYLINE
  5
203A9
  8
0
100
AcDbEntity
100
AcDbPolyline
 70
0
 90
5
 10
-9757268.62808082
 20
5136837.31330919
 10
-9757251.37102011
 20
5136848.60838754
 10
-9757245.98907282
 20
5136840.33613428
 10
-9757263.35704098
 20
5136828.93149907
 10
-9757268.62808082
 20
5136837.31330919
  0
LWPOLYLINE
  5
203AA
  8
0
100
AcDbEntity
100
AcDbPolyline
 70
0
 90
5
 10
-9757062.41125187
 20
5136830.75565469
 10
-9757053.67217126
 20
5136836.05780433
 10
-9757049.23845771
 20
5136828.73175002
 10
-9757057.98134023
 20
5136822.94999446
 10
-9757062.41125187
 20
5136830.75565469
  0
LWPOLYLINE
  5
203AB
  8
0
100
AcDbEntity
100
AcDbPolyline
 70
0
 90
5
 10
-9757119.59129376
 20
5136827.18362324
 10
-9757099.41605584
 20
5136840.4524792
 10
-9757094.88293538
 20
5136833.60529324
 10
-9757114.96336039
 20
5136820.2397699
 10
-9757119.59129376
 20
5136827.18362324
  0
LWPOLYLINE
  5
203AC
  8
0
100
AcDbEntity
100
AcDbPolyline
 70
0
 90
5
 10
-9757195.56290461
 20
5136835.02763127
 10
-9757176.27928246
 20
5136848.04049526
 10
-9757171.5947974
 20
5136841.03244336
 10
-9757191.20821249
 20
5136828.13287563
 10
-9757195.56290461
 20
5136835.02763127
  0
LWPOLYLINE
  5
203AD
  8
0
100
AcDbEntity
100
AcDbPolyline
 70
0
 90
5
 10
-9757238.08631752
 20
5136843.04084232
 10
-9757231.04955835
 20
5136847.0860886
 10
-9757228.17351916
 20
5136841.70624325
 10
-9757235.1275539
 20
5136837.57663992
 10
-9757238.08631752
 20
5136843.04084232
  0
LWPOLYLINE
  5
203AE
  8
0
100
AcDbEntity
100
AcDbPolyline
 70
0
 90
11
 10
-9757262.42255818
 20
5136828.81358691
 10
-9757250.92179554
 20
5136835.84658534
 10
-9757250.70477158
 20
5136835.45824207
 10
-9757248.49256334
 20
5136836.87658806
 10
-9757244.5800153
 20
5136830.6595848
 10
-9757246.79222267
 20
5136829.24124062
 10
-9757246.35686382
 20
5136828.6302349
 10
-9757257.35937252
 20
5136821.97988579
 10
-9757258.28205217
 20
5136823.58892171
 10
-9757258.8903427
 20
5136823.20716051
 10
-9757262.42255818
 20
5136828.81358691
  0
LWPOLYLINE
  5
203AF
  8
0
100
AcDbEntity
100
AcDbPolyline
 70
0
 90
5
 10
-9757056.75041027
 20
5136821.5012195
 10
-9757049.54723224
 20
5136825.95228047
 10
-9757045.30161148
 20
5136819.01145138
 10
-9757052.50478619
 20
5136814.56039678
 10
-9757056.75041027
 20
5136821.5012195
  0
LWPOLYLINE
  5
203B0
  8
0
100
AcDbEntity
100
AcDbPolyline
 70
0
 90
5
 10
-9757087.59485346
 20
5136836.71270379
 10
-9757080.20054707
 20
5136841.16226737
 10
-9757076.14755031
 20
5136834.03112275
 10
-9757083.44628766
 20
5136829.58080172
 10
-9757087.59485346
 20
5136836.71270379
  0
LWPOLYLINE
  5
203B1
  8
0
100
AcDbEntity
100
AcDbPolyline
 70
0
 90
5
 10
-9757114.39909688
 20
5136819.08411559
 10
-9757093.36301961
 20
5136832.44199883
 10
-9757088.83523377
 20
5136824.92335603
 10
-9757109.58612655
 20
5136811.371357
 10
-9757114.39909688
 20
5136819.08411559
  0
LWPOLYLINE
  5
203B2
  8
0
100
AcDbEntity
100
AcDbPolyline
 70
0
 90
5
 10
-9757201.54421798
 20
5136817.48279634
 10
-9757195.67771783
 20
5136820.53403786
 10
-9757191.98263283
 20
5136813.86584713
 10
-9757197.74065726
 20
5136810.59245443
 10
-9757201.54421798
 20
5136817.48279634
  0
LWPOLYLINE
  5
203B3
  8
0
100
AcDbEntity
100
AcDbPolyline
 70
0
 90
5
 10
-9757183.22572082
 20
5136819.99207001
 10
-9757167.93829878
 20
5136829.49615023
 10
-9757163.25996642
 20
5136821.71364149
 10
-9757178.55001044
 20
5136811.87766255
 10
-9757183.22572082
 20
5136819.99207001
  0
LWPOLYLINE
  5
203B4
  8
0
100
AcDbEntity
100
AcDbPolyline
 70
0
 90
5
 10
-9757229.91586062
 20
5136826.11819461
 10
-9757221.27532005
 20
5136831.47087249
 10
-9757216.48846989
 20
5136823.4662323
 10
-9757224.90767839
 20
5136818.22244242
 10
-9757229.91586062
 20
5136826.11819461
  0
LWPOLYLINE
  5
203B5
  8
0
100
AcDbEntity
100
AcDbPolyline
 70
0
 90
5
 10
-9757253.21499839
 20
5136810.29325508
 10
-9757236.24575385
 20
5136819.98889216
 10
-9757232.22842606
 20
5136813.10829623
 10
-9757249.30901559
 20
5136803.24787071
 10
-9757253.21499839
 20
5136810.29325508
  0
LWPOLYLINE
  5
203B6
  8
0
100
AcDbEntity
100
AcDbPolyline
 70
0
 90
5
 10
-9757296.5787248
 20
5136825.56369064
 10
-9757290.78351962
 20
5136829.34931349
 10
-9757286.39496447
 20
5136822.74550656
 10
-9757292.26868986
 20
5136818.8823146
 10
-9757296.5787248
 20
5136825.56369064
  0
LWPOLYLINE
  5
203B7
  8
0
100
AcDbEntity
100
AcDbPolyline
 70
0
 90
13
 10
-9757105.77293913
 20
5136798.10272881
 10
-9757104.33109482
 20
5136799.14642272
 10
-9757105.46570336
 20
5136800.69034719
 10
-9757087.49915525
 20
5136812.63378695
 10
-9757086.93109075
 20
5136811.95774537
 10
-9757084.62763361
 20
5136813.18640892
 10
-9757080.6595561
 20
5136807.39896759
 10
-9757082.67859993
 20
5136805.88024634
 10
-9757082.30090541
 20
5136805.30165526
 10
-9757100.55338027
 20
5136793.45644777
 10
-9757101.40737889
 20
5136794.2307007
 10
-9757102.7506146
 20
5136793.56993415
 10
-9757105.77293913
 20
5136798.10272881
  0
LWPOLYLINE
  5
203B8
  8
0
100
AcDbEntity
100
AcDbPolyline
 70
0
 90
5
 10
-9757076.46501688
 20
5136818.10946204
 10
-9757069.25652251
 20
5136823.231996
 10
-9757065.28921141
 20
5136817.34861958
 10
-9757072.40289933
 20
5136812.1294051
 10
-9757076.46501688
 20
5136818.10946204
  0
LWPOLYLINE
  5
203B9
  8
0
100
AcDbEntity
100
AcDbPolyline
 70
0
 90
5
 10
-9757190.86393525
 20
5136802.01791557
 10
-9757181.56291844
 20
5136807.25462758
 10
-9757177.65002731
 20
5136800.25276745
 10
-9757186.5101378
 20
5136795.01254376
 10
-9757190.86393525
 20
5136802.01791557
  0
LWPOLYLINE
  5
203BA
  8
0
100
AcDbEntity
100
AcDbPolyline
 70
0
 90
9
 10
-9757246.41583032
 20
5136802.6824309
 10
-9757230.23968447
 20
5136813.06466558
 10
-9757225.88848141
 20
5136805.7273898
 10
-9757242.06199176
 20
5136795.67708359
 10
-9757242.60786353
 20
5136796.34530601
 10
-9757243.82735022
 20
5136795.46987465
 10
-9757244.69951905
 20
5136796.69392323
 10
-9757243.3671792
 20
5136797.90038902
 10
-9757246.41583032
 20
5136802.6824309
  0
LWPOLYLINE
  5
203BB
  8
0
100
AcDbEntity
100
AcDbPolyline
 70
0
 90
9
 10
-9757098.65501429
 20
5136791.81049201
 10
-9757081.65097463
 20
5136802.8982432
 10
-9757077.02612462
 20
5136795.57069918
 10
-9757093.74346172
 20
5136784.48067341
 10
-9757094.50189408
 20
5136785.25416251
 10
-9757095.65399916
 20
5136784.59187012
 10
-9757099.05553407
 20
5136789.51140731
 10
-9757097.89962444
 20
5136790.6533128
 10
-9757098.65501429
 20
5136791.81049201
  0
LWPOLYLINE
  5
203BC
  8
0
100
AcDbEntity
100
AcDbPolyline
 70
0
 90
5
 10
-9757068.89210479
 20
5136808.93569052
 10
-9757062.16829018
 20
5136813.1987299
 10
-9757058.39516275
 20
5136806.93319436
 10
-9757064.92784442
 20
5136802.66863235
 10
-9757068.89210479
 20
5136808.93569052
  0
LWPOLYLINE
  5
203BD
  8
0
100
AcDbEntity
100
AcDbPolyline
 70
0
 90
5
 10
-9757175.11308844
 20
5136800.4538046
 10
-9757155.27662708
 20
5136813.6834561
 10
-9757150.26588217
 20
5136806.11958907
 10
-9757170.32190862
 20
5136793.00235599
 10
-9757175.11308844
 20
5136800.4538046
  0
LWPOLYLINE
  5
203BE
  8
0
100
AcDbEntity
100
AcDbPolyline
 70
0
 90
5
 10
-9757185.42892094
 20
5136792.34844014
 10
-9757181.43889284
 20
5136795.0827087
 10
-9757178.06398381
 20
5136789.74482199
 10
-9757181.72333469
 20
5136787.00791675
 10
-9757185.42892094
 20
5136792.34844014
  0
LWPOLYLINE
  5
203BF
  8
0
100
AcDbEntity
100
AcDbPolyline
 70
0
 90
5
 10
-9757215.37850309
 20
5136810.51191223
 10
-9757209.39565199
 20
5136814.33674634
 10
-9757207.00135881
 20
5136810.44506782
 10
-9757212.65353178
 20
5136806.61759821
 10
-9757215.37850309
 20
5136810.51191223
  0
LWPOLYLINE
  5
203C0
  8
0
100
AcDbEntity
100
AcDbPolyline
 70
0
 90
5
 10
-9757242.40668227
 20
5136793.9095171
 10
-9757223.79770075
 20
5136805.26813025
 10
-9757219.22780756
 20
5136797.7078231
 10
-9757237.40025814
 20
5136785.79252254
 10
-9757242.40668227
 20
5136793.9095171
  0
LWPOLYLINE
  5
203C1
  8
0
100
AcDbEntity
100
AcDbPolyline
 70
0
 90
5
 10
-9757321.65827197
 20
5136796.90768813
 10
-9757285.71672127
 20
5136819.84669052
 10
-9757281.25274502
 20
5136812.92948576
 10
-9757317.11637651
 20
5136789.98989571
 10
-9757321.65827197
 20
5136796.90768813
  0
LWPOLYLINE
  5
203C2
  8
0
100
AcDbEntity
100
AcDbPolyline
 70
0
 90
13
 10
-9757292.22856919
 20
5136804.25856198
 10
-9757280.47927546
 20
5136812.21951795
 10
-9757275.47616799
 20
5136804.51601671
 10
-9757279.54696331
 20
5136802.04606729
 10
-9757278.70239732
 20
5136800.47533237
 10
-9757280.11270803
 20
5136799.4699746
 10
-9757281.19160408
 20
5136800.96437723
 10
-9757287.84806718
 20
5136796.6382363
 10
-9757289.77400627
 20
5136799.39059068
 10
-9757290.87022621
 20
5136798.69552805
 10
-9757291.71726864
 20
5136799.95348101
 10
-9757290.22719935
 20
5136801.19280506
 10
-9757292.22856919
 20
5136804.25856198
  0
LWPOLYLINE
  5
203C3
  8
0
100
AcDbEntity
100
AcDbPolyline
 70
0
 90
5
 10
-9757210.71766628
 20
5136800.51668535
 10
-9757203.07179716
 20
5136805.54533484
 10
-9757198.82295625
 20
5136799.20467234
 10
-9757206.58080048
 20
5136793.95563365
 10
-9757210.71766628
 20
5136800.51668535
  0
LWPOLYLINE
  5
203C4
  8
0
100
AcDbEntity
100
AcDbPolyline
 70
0
 90
5
 10
-9757235.86323563
 20
5136785.0057498
 10
-9757220.34846099
 20
5136795.39322433
 10
-9757216.10487017
 20
5136788.38875008
 10
-9757231.50766069
 20
5136778.22168575
 10
-9757235.86323563
 20
5136785.0057498
  0
LWPOLYLINE
  5
203C5
  8
0
100
AcDbEntity
100
AcDbPolyline
 70
0
 90
5
 10
-9757166.51892231
 20
5136780.18671415
 10
-9757144.19864193
 20
5136794.86647786
 10
-9757139.42874437
 20
5136787.2429817
 10
-9757161.82567816
 20
5136772.72025248
 10
-9757166.51892231
 20
5136780.18671415
  0
LWPOLYLINE
  5
203C6
  8
0
100
AcDbEntity
100
AcDbPolyline
 70
0
 90
8
 10
-9757166.93154152
 20
5136767.44343
 10
-9757144.21433563
 20
5136783.05840467
 10
-9757139.9804701
 20
5136776.61219733
 10
-9757146.95231172
 20
5136771.8194856
 10
-9757146.18009515
 20
5136770.95312025
 10
-9757147.46559927
 20
5136766.03679745
 10
-9757159.99955587
 20
5136757.37851137
 10
-9757166.93154152
 20
5136767.44343
  0
LWPOLYLINE
  5
203C7
  8
0
100
AcDbEntity
100
AcDbPolyline
 70
0
 90
11
 10
-9757273.03047218
 20
5136768.99372939
 10
-9757267.94137443
 20
5136772.15934703
 10
-9757266.633724
 20
5136770.03752465
 10
-9757263.81558371
 20
5136771.73545036
 10
-9757258.88855718
 20
5136764.26717876
 10
-9757259.7479705
 20
5136763.9612328
 10
-9757257.43871931
 20
5136760.42382812
 10
-9757266.52378354
 20
5136754.39669286
 10
-9757271.83599647
 20
5136762.41542239
 10
-9757269.64356205
 20
5136763.80553804
 10
-9757273.03047218
 20
5136768.99372939
  0
LWPOLYLINE
  5
203C8
  8
0
100
AcDbEntity
100
AcDbPolyline
 70
0
 90
11
 10
-9757301.24135336
 20
5136787.67378679
 10
-9757289.62319637
 20
5136788.91058392
 10
-9757284.23243176
 20
5136780.96941601
 10
-9757285.48383841
 20
5136780.35379233
 10
-9757279.09580524
 20
5136770.44968247
 10
-9757277.84316197
 20
5136771.22169452
 10
-9757274.83834028
 20
5136766.97494767
 10
-9757276.56087897
 20
5136765.89388337
 10
-9757269.01730951
 20
5136754.33837497
 10
-9757278.76265313
 20
5136753.47767553
 10
-9757301.24135336
 20
5136787.67378679
  0
LWPOLYLINE
  5
203C9
  8
0
100
AcDbEntity
100
AcDbPolyline
 70
0
 90
5
 10
-9757090.48391166
 20
5136773.71063827
 10
-9757069.92648751
 20
5136786.97630408
 10
-9757051.04189211
 20
5136758.0468064
 10
-9757080.28619627
 20
5136758.08874653
 10
-9757090.48391166
 20
5136773.71063827
  0
LWPOLYLINE
  5
203CA
  8
0
100
AcDbEntity
100
AcDbPolyline
 70
0
 90
16
 10
-9757051.87497045
 20
5136773.49792525
 10
-9757050.62729893
 20
5136774.15944741
 10
-9757052.98444513
 20
5136778.20728857
 10
-9757050.29492588
 20
5136779.91249482
 10
-9757049.82166947
 20
5136779.33313987
 10
-9757042.71180087
 20
5136784.0727079
 10
-9757029.20822439
 20
5136763.5319635
 10
-9757037.373864
 20
5136758.22528985
 10
-9757043.68189187
 20
5136758.17980844
 10
-9757047.4595588
 20
5136763.86978471
 10
-9757046.2096042
 20
5136764.81907227
 10
-9757048.94824394
 20
5136768.96588952
 10
-9757047.50715929
 20
5136769.9136494
 10
-9757048.5454291
 20
5136771.55273395
 10
-9757049.89171045
 20
5136770.50828732
 10
-9757051.87497045
 20
5136773.49792525
  0
LWPOLYLINE
  5
203CB
  8
0
100
AcDbEntity
100
AcDbPolyline
 70
0
 90
6
 10
-9757205.77921328
 20
5136780.89108849
 10
-9757187.62520758
 20
5136781.05900345
 10
-9757186.15743021
 20
5136779.48328939
 10
-9757186.23548791
 20
5136769.63072826
 10
-9757205.79111494
 20
5136769.55220084
 10
-9757205.77921328
 20
5136780.89108849
  0
LWPOLYLINE
  5
203CC
  8
0
100
AcDbEntity
100
AcDbPolyline
 70
0
 90
5
 10
-9757233.33984294
 20
5136773.4473902
 10
-9757230.91307084
 20
5136774.91382906
 10
-9757226.91162225
 20
5136768.62591938
 10
-9757229.33963167
 20
5136767.00309273
 10
-9757233.33984294
 20
5136773.4473902
  0
LWPOLYLINE
  5
203CD
  8
0
100
AcDbEntity
100
AcDbPolyline
 70
0
 90
9
 10
-9757298.55563126
 20
5136762.78481911
 10
-9757294.71733058
 20
5136765.41301939
 10
-9757297.33264326
 20
5136769.65665479
 10
-9757293.88818737
 20
5136771.74059667
 10
-9757291.42806393
 20
5136767.57639622
 10
-9757289.62824178
 20
5136768.57864753
 10
-9757280.62614601
 20
5136754.27452862
 10
-9757293.40291414
 20
5136754.29817712
 10
-9757298.55563126
 20
5136762.78481911
  0
LWPOLYLINE
  5
203CE
  8
0
100
AcDbEntity
100
AcDbPolyline
 70
0
 90
5
 10
-9757286.48782167
 20
5137080.19380902
 10
-9757266.31858897
 20
5137093.54164896
 10
-9757261.383986
 20
5137085.87778594
 10
-9757281.51225665
 20
5137072.48820295
 10
-9757286.48782167
 20
5137080.19380902
  0
LWPOLYLINE
  5
203CF
  8
0
100
AcDbEntity
100
AcDbPolyline
 70
0
 90
13
 10
-9757279.6556191
 20
5137072.34908866
 10
-9757259.48803348
 20
5137085.48972865
 10
-9757259.16139695
 20
5137085.03131074
 10
-9757256.87784899
 20
5137086.67060236
 10
-9757252.43009508
 20
5137080.08799852
 10
-9757254.58980072
 20
5137078.44772143
 10
-9757254.10033864
 20
5137077.69794245
 10
-9757274.1879774
 20
5137064.22518728
 10
-9757274.84223424
 20
5137065.01771555
 10
-9757276.12848573
 20
5137064.19922134
 10
-9757277.80196607
 20
5137066.61593688
 10
-9757276.59827529
 20
5137067.43508976
 10
-9757279.6556191
 20
5137072.34908866
  0
LWPOLYLINE
  5
203D0
  8
0
100
AcDbEntity
100
AcDbPolyline
 70
0
 90
7
 10
-9757273.15826188
 20
5137063.92691502
 10
-9757254.23762772
 20
5137076.00009903
 10
-9757253.95194425
 20
5137075.58344551
 10
-9757252.00224959
 20
5137076.76958417
 10
-9757247.80218633
 20
5137070.18896035
 10
-9757268.55096026
 20
5137056.6386257
 10
-9757273.15826188
 20
5137063.92691502
  0
LWPOLYLINE
  5
203D1
  8
0
100
AcDbEntity
100
AcDbPolyline
 70
0
 90
7
 10
-9757265.92016447
 20
5137055.20877577
 10
-9757250.23548578
 20
5137065.27730733
 10
-9757246.44364045
 20
5137059.2800707
 10
-9757260.01481528
 20
5137050.2306328
 10
-9757263.23792263
 20
5137055.06307522
 10
-9757265.10505071
 20
5137053.87627853
 10
-9757265.92016447
 20
5137055.20877577
  0
LWPOLYLINE
  5
203D2
  8
0
100
AcDbEntity
100
AcDbPolyline
 70
0
 90
11
 10
-9757259.86281235
 20
5137048.57192456
 10
-9757245.41917479
 20
5137058.3188384
 10
-9757245.17378855
 20
5137058.0268191
 10
-9757242.31067872
 20
5137059.86866725
 10
-9757238.31342272
 20
5137053.74548005
 10
-9757241.30201282
 20
5137051.6974481
 10
-9757240.89412973
 20
5137051.07263347
 10
-9757257.4558489
 20
5137039.726568
 10
-9757260.02633701
 20
5137043.55930464
 10
-9757257.57734975
 20
5137045.23870751
 10
-9757259.86281235
 20
5137048.57192456
  0
LWPOLYLINE
  5
203D3
  8
0
100
AcDbEntity
100
AcDbPolyline
 70
0
 90
9
 10
-9757255.39478434
 20
5137039.33719505
 10
-9757236.01517181
 20
5137052.02821303
 10
-9757235.03756557
 20
5137050.3629182
 10
-9757236.44897179
 20
5137049.37967936
 10
-9757235.51231803
 20
5137047.75614911
 10
-9757237.08884525
 20
5137046.77422762
 10
-9757234.48003783
 20
5137042.56824149
 10
-9757250.53982615
 20
5137032.04694055
 10
-9757255.39478434
 20
5137039.33719505
  0
LWPOLYLINE
  5
203D4
  8
0
100
AcDbEntity
100
AcDbPolyline
 70
0
 90
7
 10
-9757251.21638287
 20
5137030.02190753
 10
-9757232.62078219
 20
5137042.76059658
 10
-9757227.88869633
 20
5137035.5956202
 10
-9757247.72958517
 20
5137021.99669901
 10
-9757249.89382211
 20
5137024.99744517
 10
-9757248.56432537
 20
5137026.06421143
 10
-9757251.21638287
 20
5137030.02190753
  0
LWPOLYLINE
  5
203D5
  8
0
100
AcDbEntity
100
AcDbPolyline
 70
0
 90
13
 10
-9757244.72235936
 20
5137021.18540524
 10
-9757242.68880205
 20
5137022.53661559
 10
-9757243.13730825
 20
5137023.24462691
 10
-9757227.65709149
 20
5137033.5633429
 10
-9757227.08605749
 20
5137032.68860326
 10
-9757224.636083
 20
5137034.49229991
 10
-9757220.39280776
 20
5137028.15997195
 10
-9757223.04918274
 20
5137026.35792433
 10
-9757222.60067789
 20
5137025.64991185
 10
-9757238.37083288
 20
5137015.20921351
 10
-9757238.98380322
 20
5137016.00141088
 10
-9757240.68514963
 20
5137014.89617588
 10
-9757244.72235936
 20
5137021.18540524
  0
LWPOLYLINE
  5
203D6
  8
0
100
AcDbEntity
100
AcDbPolyline
 70
0
 90
9
 10
-9757240.09907905
 20
5137010.7063393
 10
-9757238.31484485
 20
5137011.85234978
 10
-9757238.72207003
 20
5137012.56003123
 10
-9757217.4770029
 20
5137026.23059125
 10
-9757212.86910532
 20
5137019.02517332
 10
-9757233.82290509
 20
5137005.64237075
 10
-9757234.3942662
 20
5137006.47567293
 10
-9757236.59228582
 20
5137005.20865292
 10
-9757240.09907905
 20
5137010.7063393
  0
LWPOLYLINE
  5
203D7
  8
0
100
AcDbEntity
100
AcDbPolyline
 70
0
 90
5
 10
-9757312.05012829
 20
5137030.32413809
 10
-9757293.72517001
 20
5137041.43917154
 10
-9757288.87375095
 20
5137033.11042479
 10
-9757307.38813401
 20
5137022.18859759
 10
-9757312.05012829
 20
5137030.32413809
  0
LWPOLYLINE
  5
203D8
  8
0
100
AcDbEntity
100
AcDbPolyline
 70
0
 90
5
 10
-9757308.03374162
 20
5137019.03106056
 10
-9757291.43229251
 20
5137029.53685875
 10
-9757286.57746918
 20
5137021.63936885
 10
-9757303.4175987
 20
5137011.13548995
 10
-9757308.03374162
 20
5137019.03106056
  0
LWPOLYLINE
  5
203D9
  8
0
100
AcDbEntity
100
AcDbPolyline
 70
0
 90
5
 10
-9757308.08151803
 20
5137006.95575527
 10
-9757282.89483111
 20
5137022.47256112
 10
-9757278.89057785
 20
5137015.68400003
 10
-9757304.12574903
 20
5137000.0717634
 10
-9757308.08151803
 20
5137006.95575527
  0
LWPOLYLINE
  5
203DA
  8
0
100
AcDbEntity
100
AcDbPolyline
 70
0
 90
5
 10
-9757301.30694862
 20
5137000.33681361
 10
-9757282.7914637
 20
5137011.40235373
 10
-9757277.84042272
 20
5137003.59994585
 10
-9757296.35817258
 20
5136992.24692659
 10
-9757301.30694862
 20
5137000.33681361
  0
LWPOLYLINE
  5
203DB
  8
0
100
AcDbEntity
100
AcDbPolyline
 70
0
 90
11
 10
-9757292.30880913
 20
5136991.16042554
 10
-9757291.78066177
 20
5136991.53956989
 10
-9757292.39404878
 20
5136992.45492565
 10
-9757273.77550967
 20
5137004.47800467
 10
-9757272.03310277
 20
5137001.44519394
 10
-9757273.23337169
 20
5137000.5922159
 10
-9757270.40361613
 20
5136996.20899588
 10
-9757287.00616727
 20
5136985.55952151
 10
-9757288.70500873
 20
5136988.06486532
 10
-9757289.80828271
 20
5136987.40279023
 10
-9757292.30880913
 20
5136991.16042554
  0
LWPOLYLINE
  5
203DC
  8
0
100
AcDbEntity
100
AcDbPolyline
 70
0
 90
9
 10
-9757286.39467686
 20
5136984.40458493
 10
-9757269.12190315
 20
5136995.28830948
 10
-9757268.64869753
 20
5136994.75742407
 10
-9757267.54580049
 20
5136995.37158092
 10
-9757266.13073484
 20
5136993.20392925
 10
-9757267.42534093
 20
5136992.49546276
 10
-9757264.54899045
 20
5136987.96811535
 10
-9757281.91685208
 20
5136977.13308459
 10
-9757286.39467686
 20
5136984.40458493
  0
LWPOLYLINE
  5
203DD
  8
0
100
AcDbEntity
100
AcDbPolyline
 70
0
 90
5
 10
-9757265.47628896
 20
5136961.28451597
 10
-9757252.80568623
 20
5136969.76100264
 10
-9757248.2752251
 20
5136963.11202659
 10
-9757260.99356044
 20
5136954.63593241
 10
-9757265.47628896
 20
5136961.28451597
  0
LWPOLYLINE
  5
203DE
  8
0
100
AcDbEntity
100
AcDbPolyline
 70
0
 90
9
 10
-9757281.44819649
 20
5136976.0272066
 10
-9757265.18437033
 20
5136986.10433069
 10
-9757264.66797859
 20
5136984.99807021
 10
-9757262.55652369
 20
5136986.3708917
 10
-9757258.92547756
 20
5136980.68746582
 10
-9757260.89258108
 20
5136979.4572525
 10
-9757260.56183104
 20
5136979.023342
 10
-9757276.73169146
 20
5136968.75380734
 10
-9757281.44819649
 20
5136976.0272066
  0
LWPOLYLINE
  5
203DF
  8
0
100
AcDbEntity
100
AcDbPolyline
 70
0
 90
7
 10
-9757265.91587766
 20
5136947.96651154
 10
-9757263.27590574
 20
5136949.76638532
 10
-9757263.70023366
 20
5136950.440636
 10
-9757244.36567812
 20
5136962.45789582
 10
-9757239.55600912
 20
5136954.89623073
 10
-9757261.67525538
 20
5136940.88859667
 10
-9757265.91587766
 20
5136947.96651154
  0
LWPOLYLINE
  5
203E0
  8
0
100
AcDbEntity
100
AcDbPolyline
 70
0
 90
5
 10
-9757278.66356523
 20
5136965.94197872
 10
-9757260.14622509
 20
5136977.24701681
 10
-9757255.10391697
 20
5136968.91678605
 10
-9757273.66898429
 20
5136957.61214802
 10
-9757278.66356523
 20
5136965.94197872
  0
LWPOLYLINE
  5
203E1
  8
0
100
AcDbEntity
100
AcDbPolyline
 70
0
 90
11
 10
-9757261.64268794
 20
5136938.97157591
 10
-9757254.733605
 20
5136943.32502987
 10
-9757253.55458195
 20
5136941.49470368
 10
-9757249.85983407
 20
5136943.8611891
 10
-9757250.99036064
 20
5136945.78696753
 10
-9757243.26442011
 20
5136950.80476856
 10
-9757241.70691274
 20
5136948.54014901
 10
-9757240.26682219
 20
5136949.53496278
 10
-9757237.38860041
 20
5136945.24720767
 10
-9757257.3035638
 20
5136932.27623212
 10
-9757261.64268794
 20
5136938.97157591
  0
LWPOLYLINE
  5
203E2
  8
0
100
AcDbEntity
100
AcDbPolyline
 70
0
 90
15
 10
-9757256.22001635
 20
5136930.44666974
 10
-9757248.59108301
 20
5136935.27356475
 10
-9757247.60149441
 20
5136933.63642619
 10
-9757244.29130273
 20
5136935.67054157
 10
-9757245.32862839
 20
5136937.30806158
 10
-9757237.554575
 20
5136942.37338888
 10
-9757236.00010536
 20
5136939.7254424
 10
-9757234.0330069
 20
5136940.95564556
 10
-9757231.25102409
 20
5136936.57282211
 10
-9757251.40466425
 20
5136923.60377452
 10
-9757252.16087586
 20
5136924.56818444
 10
-9757253.50396958
 20
5136923.76427366
 10
-9757254.96562179
 20
5136926.07604
 10
-9757254.00442676
 20
5136926.88299683
 10
-9757256.22001635
 20
5136930.44666974
  0
LWPOLYLINE
  5
203E3
  8
0
100
AcDbEntity
100
AcDbPolyline
 70
0
 90
5
 10
-9757250.80759551
 20
5136920.62803855
 10
-9757230.22470372
 20
5136933.54573755
 10
-9757225.84052268
 20
5136926.51459107
 10
-9757246.37604714
 20
5136913.54861423
 10
-9757250.80759551
 20
5136920.62803855
  0
LWPOLYLINE
  5
203E4
  8
0
100
AcDbEntity
100
AcDbPolyline
 70
0
 90
5
 10
-9757232.32275878
 20
5136909.74676357
 10
-9757218.35987301
 20
5136918.64412059
 10
-9757213.40741389
 20
5136911.03341849
 10
-9757227.27481857
 20
5136902.13531398
 10
-9757232.32275878
 20
5136909.74676357
  0
ENDSEC
  0
SECTION
  2
OBJECTS
  0
DICTIONARY
  5
C
330
0
100
AcDbDictionary
281
     1
  3
ACAD_GROUP
350
D
  3
ACAD_LAYOUT
350
1A
  3
ACAD_MLEADERSTYLE
350
43
  3
ACAD_MLINESTYLE
350
17
  3
ACAD_PLOTSETTINGS
350
19
  3
ACAD_PLOTSTYLENAME
350
E
  3
ACAD_TABLESTYLE
350
42
  3
ACAD_VISUALSTYLE
350
2A
  0
DICTIONARY
  5
D
102
{ACAD_REACTORS
330
C
102
}
330
C
100
AcDbDictionary
281
     1
  0
DICTIONARY
  5
1A
102
{ACAD_REACTORS
330
C
102
}
330
C
100
AcDbDictionary
281
     1
  3
Layout1
350
1E
  3
Layout2
350
26
  3
Model
350
22
  0
DICTIONARY
  5
43
102
{ACAD_REACTORS
330
C
102
}
330
C
100
AcDbDictionary
281
     1
  0
DICTIONARY
  5
17
102
{ACAD_REACTORS
330
C
102
}
330
C
100
AcDbDictionary
281
     1
  3
Standard
350
18
  0
DICTIONARY
  5
19
102
{ACAD_REACTORS
330
C
102
}
330
C
100
AcDbDictionary
281
     1
  0
ACDBDICTIONARYWDFLT
  5
E
102
{ACAD_REACTORS
330
C
102
}
330
C
100
AcDbDictionary
281
     1
  3
Normal
350
F
100
AcDbDictionaryWithDefault
340
F
  0
DICTIONARY
  5
42
102
{ACAD_REACTORS
330
C
102
}
330
C
100
AcDbDictionary
281
     1
  0
DICTIONARY
  5
2A
102
{ACAD_REACTORS
330
C
102
}
330
C
100
AcDbDictionary
281
     1
  3
2dWireframe
350
2F
  3
3D Hidden
350
31
  3
3dWireframe
350
30
  3
Basic
350
32
  3
Brighten
350
36
  3
ColorChange
350
3A
  3
Conceptual
350
34
  3
Dim
350
35
  3
Facepattern
350
39
  3
Flat
350
2B
  3
FlatWithEdges
350
2C
  3
Gouraud
350
2D
  3
GouraudWithEdges
350
2E
  3
Linepattern
350
38
  3
Realistic
350
33
  3
Thicken
350
37
  0
LAYOUT
  5
1E
102
{ACAD_REACTORS
330
1A
102
}
330
1A
100
AcDbPlotSettings
  1

  2
none_device
  4

  6

 40
0.0
 41
0.0
 42
0.0
 43
0.0
 44
0.0
 45
0.0
 46
0.0
 47
0.0
 48
0.0
 49
0.0
140
0.0
141
0.0
142
1.0
143
1.0
 70
   688
 72
     0
 73
     0
 74
     5
  7

 75
    16
 76
     0
 77
     2
 78
   300
147
1.0
148
0.0
149
0.0
100
AcDbLayout
  1
Layout1
 70
     1
 71
     1
 10
0.0
 20
0.0
 11
12.0
 21
9.0
 12
0.0
 22
0.0
 32
0.0
 14
1.000000000000000E+20
 24
1.000000000000000E+20
 34
1.000000000000000E+20
 15
-1.000000000000000E+20
 25
-1.000000000000000E+20
 35
-1.000000000000000E+20
146
0.0
 13
0.0
 23
0.0
 33
0.0
 16
1.0
 26
0.0
 36
0.0
 17
0.0
 27
1.0
 37
0.0
 76
     0
330
1B
  0
LAYOUT
  5
26
102
{ACAD_REACTORS
330
1A
102
}
330
1A
100
AcDbPlotSettings
  1

  2
none_device
  4

  6

 40
0.0
 41
0.0
 42
0.0
 43
0.0
 44
0.0
 45
0.0
 46
0.0
 47
0.0
 48
0.0
 49
0.0
140
0.0
141
0.0
142
1.0
143
1.0
 70
   688
 72
     0
 73
     0
 74
     5
  7

 75
    16
 76
     0
 77
     2
 78
   300
147
1.0
148
0.0
149
0.0
100
AcDbLayout
  1
Layout2
 70
     1
 71
     2
 10
0.0
 20
0.0
 11
0.0
 21
0.0
 12
0.0
 22
0.0
 32
0.0
 14
0.0
 24
0.0
 34
0.0
 15
0.0
 25
0.0
 35
0.0
146
0.0
 13
0.0
 23
0.0
 33
0.0
 16
1.0
 26
0.0
 36
0.0
 17
0.0
 27
1.0
 37
0.0
 76
     0
330
23
  0
LAYOUT
  5
22
102
{ACAD_REACTORS
330
1A
102
}
330
1A
100
AcDbPlotSettings
  1

  2
none_device
  4

  6

 40
0.0
 41
0.0
 42
0.0
 43
0.0
 44
0.0
 45
0.0
 46
0.0
 47
0.0
 48
0.0
 49
0.0
140
0.0
141
0.0
142
1.0
143
1.0
 70
  1712
 72
     0
 73
     0
 74
     0
  7

 75
     0
 76
     0
 77
     2
 78
   300
147
1.0
148
0.0
149
0.0
100
AcDbLayout
  1
Model
 70
     1
 71
     0
 10
0.0
 20
0.0
 11
12.0
 21
9.0
 12
0.0
 22
0.0
 32
0.0
 14
30.0
 24
49.75
 34
0.0
 15
130.5
 25
163.1318914119703
 35
0.0
146
0.0
 13
0.0
 23
0.0
 33
0.0
 16
1.0
 26
0.0
 36
0.0
 17
0.0
 27
1.0
 37
0.0
 76
     0
330
1F
331
29
  0
MLINESTYLE
  5
18
102
{ACAD_REACTORS
330
17
102
}
330
17
100
AcDbMlineStyle
  2
Standard
 70
     0
  3

 62
   256
 51
90.0
 52
90.0
 71
     2
 49
0.5
 62
   256
  6
BYLAYER
 49
-0.5
 62
   256
  6
BYLAYER
  0
ACDBPLACEHOLDER
  5
F
102
{ACAD_REACTORS
330
E
102
}
330
E
  0
VISUALSTYLE
  5
2F
102
{ACAD_REACTORS
330
2A
102
}
330
2A
100
AcDbVisualStyle
  2
2dWireframe
 70
     4
 71
     0
 72
     2
 73
     0
 90
        0
 40
-0.6
 41
-30.0
 62
     5
 63
     7
421
 16777215
 74
     1
 91
        4
 64
     7
 65
   257
 75
     1
175
     1
 42
1.0
 92
        0
 66
   257
 43
1.0
 76
     1
 77
     6
 78
     2
 67
     7
 79
     5
170
     0
171
     0
290
     0
174
     0
 93
        1
 44
0.0
173
     0
291
     0
 45
0.0
1001
ACAD
1000
AcDbSavedByObjectVersion
1070
     0
  0
VISUALSTYLE
  5
31
102
{ACAD_REACTORS
330
2A
102
}
330
2A
100
AcDbVisualStyle
  2
3D Hidden
 70
     6
 71
     1
 72
     2
 73
     2
 90
        0
 40
-0.6
 41
-30.0
 62
     5
 63
     7
421
 16777215
 74
     2
 91
        2
 64
     7
 65
   257
 75
     2
175
     1
 42
40.0
 92
        0
 66
   257
 43
1.0
 76
     1
 77
     6
 78
     2
 67
     7
 79
     3
170
     0
171
     0
290
     0
174
     0
 93
        1
 44
0.0
173
     0
291
     0
 45
0.0
1001
ACAD
1000
AcDbSavedByObjectVersion
1070
     0
  0
VISUALSTYLE
  5
30
102
{ACAD_REACTORS
330
2A
102
}
330
2A
100
AcDbVisualStyle
  2
3dWireframe
 70
     5
 71
     0
 72
     2
 73
     0
 90
        0
 40
-0.6
 41
-30.0
 62
     5
 63
     7
421
 16777215
 74
     1
 91
        4
 64
     7
 65
   257
 75
     1
175
     1
 42
1.0
 92
        0
 66
   257
 43
1.0
 76
     1
 77
     6
 78
     2
 67
     7
 79
     5
170
     0
171
     0
290
     0
174
     0
 93
        1
 44
0.0
173
     0
291
     0
 45
0.0
1001
ACAD
1000
AcDbSavedByObjectVersion
1070
     0
  0
VISUALSTYLE
  5
32
102
{ACAD_REACTORS
330
2A
102
}
330
2A
100
AcDbVisualStyle
  2
Basic
 70
     7
 71
     1
 72
     0
 73
     1
 90
        0
 40
-0.6
 41
-30.0
 62
     5
 63
     7
421
 16777215
 74
     0
 91
        4
 64
     7
 65
   257
 75
     1
175
     1
 42
1.0
 92
        8
 66
     7
 43
1.0
 76
     1
 77
     6
 78
     2
 67
     7
 79
     5
170
     0
171
     0
290
     0
174
     0
 93
        1
 44
0.0
173
     0
291
     1
 45
0.0
1001
ACAD
1000
AcDbSavedByObjectVersion
1070
     0
  0
VISUALSTYLE
  5
36
102
{ACAD_REACTORS
330
2A
102
}
330
2A
100
AcDbVisualStyle
  2
Brighten
 70
    12
 71
     2
 72
     2
 73
     0
 90
        0
 40
-0.6
 41
-30.0
 62
     5
 63
     7
421
 16777215
 74
     1
 91
        4
 64
     7
 65
   257
 75
     1
175
     1
 42
1.0
 92
        8
 66
     7
 43
1.0
 76
     1
 77
     6
 78
     2
 67
     7
 79
     5
170
     0
171
     0
290
     0
174
     0
 93
        1
 44
50.0
173
     0
291
     1
 45
0.0
1001
ACAD
1000
AcDbSavedByObjectVersion
1070
     0
  0
VISUALSTYLE
  5
3A
102
{ACAD_REACTORS
330
2A
102
}
330
2A
100
AcDbVisualStyle
  2
ColorChange
 70
    16
 71
     2
 72
     2
 73
     3
 90
        0
 40
-0.6
 41
-30.0
 62
     5
 63
     8
421
  8421504
 74
     1
 91
        4
 64
     7
 65
   257
 75
     1
175
     1
 42
1.0
 92
        8
 66
     8
424
  8421504
 43
1.0
 76
     1
 77
     6
 78
     2
 67
     7
 79
     5
170
     0
171
     0
290
     0
174
     0
 93
        1
 44
0.0
173
     0
291
     1
 45
0.0
1001
ACAD
1000
AcDbSavedByObjectVersion
1070
     0
  0
VISUALSTYLE
  5
34
102
{ACAD_REACTORS
330
2A
102
}
330
2A
100
AcDbVisualStyle
  2
Conceptual
 70
     9
 71
     3
 72
     2
 73
     0
 90
        0
 40
-0.6
 41
-30.0
 62
     5
 63
     7
421
 16777215
 74
     2
 91
        2
 64
     7
 65
   257
 75
     1
175
     1
 42
40.0
 92
        8
 66
     7
 43
1.0
 76
     1
 77
     6
 78
     2
 67
     7
 79
     3
170
     0
171
     0
290
     0
174
     0
 93
        1
 44
0.0
173
     0
291
     0
 45
0.0
1001
ACAD
1000
AcDbSavedByObjectVersion
1070
     0
  0
VISUALSTYLE
  5
35
102
{ACAD_REACTORS
330
2A
102
}
330
2A
100
AcDbVisualStyle
  2
Dim
 70
    11
 71
     2
 72
     2
 73
     0
 90
        0
 40
-0.6
 41
-30.0
 62
     5
 63
     7
421
 16777215
 74
     1
 91
        4
 64
     7
 65
   257
 75
     1
175
     1
 42
1.0
 92
        8
 66
     7
 43
1.0
 76
     1
 77
     6
 78
     2
 67
     7
 79
     5
170
     0
171
     0
290
     0
174
     0
 93
        1
 44
-50.0
173
     0
291
     1
 45
0.0
1001
ACAD
1000
AcDbSavedByObjectVersion
1070
     0
  0
VISUALSTYLE
  5
39
102
{ACAD_REACTORS
330
2A
102
}
330
2A
100
AcDbVisualStyle
  2
Facepattern
 70
    15
 71
     2
 72
     2
 73
     0
 90
        0
 40
-0.6
 41
-30.0
 62
     5
 63
     7
421
 16777215
 74
     1
 91
        4
 64
     7
 65
   257
 75
     1
175
     1
 42
1.0
 92
        8
 66
     7
 43
1.0
 76
     1
 77
     6
 78
     2
 67
     7
 79
     5
170
     0
171
     0
290
     0
174
     0
 93
        1
 44
0.0
173
     0
291
     1
 45
0.0
1001
ACAD
1000
AcDbSavedByObjectVersion
1070
     0
  0
VISUALSTYLE
  5
2B
102
{ACAD_REACTORS
330
2A
102
}
330
2A
100
AcDbVisualStyle
  2
Flat
 70
     0
 71
     2
 72
     1
 73
     1
 90
        2
 40
-0.6
 41
30.0
 62
     5
 63
     7
421
 16777215
 74
     0
 91
        4
 64
     7
 65
   257
 75
     1
175
     1
 42
1.0
 92
        8
 66
     7
 43
1.0
 76
     1
 77
     6
 78
     2
 67
     7
 79
     5
170
     0
171
     0
290
     0
174
     0
 93
       13
 44
0.0
173
     0
291
     1
 45
0.0
1001
ACAD
1000
AcDbSavedByObjectVersion
1070
     0
  0
VISUALSTYLE
  5
2C
102
{ACAD_REACTORS
330
2A
102
}
330
2A
100
AcDbVisualStyle
  2
FlatWithEdges
 70
     1
 71
     2
 72
     1
 73
     1
 90
        2
 40
-0.6
 41
30.0
 62
     5
 63
     7
421
 16777215
 74
     1
 91
        4
 64
     7
 65
   257
 75
     1
175
     1
 42
1.0
 92
        0
 66
   257
 43
1.0
 76
     1
 77
     6
 78
     2
 67
     7
 79
     5
170
     0
171
     0
290
     0
174
     0
 93
       13
 44
0.0
173
     0
291
     1
 45
0.0
1001
ACAD
1000
AcDbSavedByObjectVersion
1070
     0
  0
VISUALSTYLE
  5
2D
102
{ACAD_REACTORS
330
2A
102
}
330
2A
100
AcDbVisualStyle
  2
Gouraud
 70
     2
 71
     2
 72
     2
 73
     1
 90
        2
 40
-0.6
 41
30.0
 62
     5
 63
     7
421
 16777215
 74
     0
 91
        4
 64
     7
 65
   257
 75
     1
175
     1
 42
1.0
 92
        0
 66
     7
 43
1.0
 76
     1
 77
     6
 78
     2
 67
     7
 79
     5
170
     0
171
     0
290
     0
174
     0
 93
       13
 44
0.0
173
     0
291
     1
 45
0.0
1001
ACAD
1000
AcDbSavedByObjectVersion
1070
     0
  0
VISUALSTYLE
  5
2E
102
{ACAD_REACTORS
330
2A
102
}
330
2A
100
AcDbVisualStyle
  2
GouraudWithEdges
 70
     3
 71
     2
 72
     2
 73
     1
 90
        2
 40
-0.6
 41
30.0
 62
     5
 63
     7
421
 16777215
 74
     1
 91
        4
 64
     7
 65
   257
 75
     1
175
     1
 42
1.0
 92
        0
 66
   257
 43
1.0
 76
     1
 77
     6
 78
     2
 67
     7
 79
     5
170
     0
171
     0
290
     0
174
     0
 93
       13
 44
0.0
173
     0
291
     1
 45
0.0
1001
ACAD
1000
AcDbSavedByObjectVersion
1070
     0
  0
VISUALSTYLE
  5
38
102
{ACAD_REACTORS
330
2A
102
}
330
2A
100
AcDbVisualStyle
  2
Linepattern
 70
    14
 71
     2
 72
     2
 73
     0
 90
        0
 40
-0.6
 41
-30.0
 62
     5
 63
     7
421
 16777215
 74
     1
 91
        4
 64
     7
 65
   257
 75
     7
175
     7
 42
1.0
 92
        8
 66
     7
 43
1.0
 76
     1
 77
     6
 78
     2
 67
     7
 79
     5
170
     0
171
     0
290
     0
174
     0
 93
        1
 44
0.0
173
     0
291
     1
 45
0.0
1001
ACAD
1000
AcDbSavedByObjectVersion
1070
     0
  0
VISUALSTYLE
  5
33
102
{ACAD_REACTORS
330
2A
102
}
330
2A
100
AcDbVisualStyle
  2
Realistic
 70
     8
 71
     2
 72
     2
 73
     0
 90
        0
 40
-0.6
 41
-30.0
 62
     5
 63
     7
421
 16777215
 74
     1
 91
        0
 64
     7
 65
   257
 75
     1
175
     1
 42
1.0
 92
        8
 66
     8
424
  7895160
 43
1.0
 76
     1
 77
     6
 78
     2
 67
     7
 79
     5
170
     0
171
     0
290
     0
174
     0
 93
       13
 44
0.0
173
     0
291
     0
 45
0.0
1001
ACAD
1000
AcDbSavedByObjectVersion
1070
     0
  0
VISUALSTYLE
  5
37
102
{ACAD_REACTORS
330
2A
102
}
330
2A
100
AcDbVisualStyle
  2
Thicken
 70
    13
 71
     2
 72
     2
 73
     0
 90
        0
 40
-0.6
 41
-30.0
 62
     5
 63
     7
421
 16777215
 74
     1
 91
        4
 64
     7
 65
   257
 75
     1
175
     1
 42
1.0
 92
       12
 66
     7
 43
1.0
 76
     1
 77
     6
 78
     2
 67
     7
 79
     5
170
     0
171
     0
290
     0
174
     0
 93
        1
 44
0.0
173
     0
291
     1
 45
0.0
1001
ACAD
1000
AcDbSavedByObjectVersion
1070
     0
  0
ENDSEC
  0
EOF
