  0
SECTION
  2
HEADER
  9
$ACADVER
  1
AC1015
  9
$ACADMAINTVER
 70
     6
  9
$DWGCODEPAGE
  3
ANSI_1252
  9
$INSBASE
 10
0.0
 20
0.0
 30
0.0
  9
$EXTMIN
 10
0.0
 20
0.0
 30
0.0
  9
$EXTMAX
 10
726.0
 20
590.0
 30
0.0
  9
$LIMMIN
 10
0.0
 20
0.0
  9
$LIMMAX
 10
726.0
 20
590.0
  9
$ORTHOMODE
 70
     0
  9
$REGENMODE
 70
     1
  9
$FILLMODE
 70
     1
  9
$QTEXTMODE
 70
     0
  9
$MIRRTEXT
 70
     1
  9
$LTSCALE
 40
1.0
  9
$ATTMODE
 70
     1
  9
$TEXTSIZE
 40
0.2
  9
$TRACEWID
 40
0.05
  9
$TEXTSTYLE
  7
Standard
  9
$CLAYER
  8
0
  9
$CELTYPE
  6
ByBlock
  9
$CECOLOR
 62
   256
  9
$CELTSCALE
 40
1.0
  9
$DISPSILH
 70
     0
  9
$DIMSCALE
 40
1.0
  9
$DIMASZ
 40
0.18
  9
$DIMEXO
 40
0.0625
  9
$DIMDLI
 40
0.38
  9
$DIMRND
 40
0.0
  9
$DIMDLE
 40
0.0
  9
$DIMEXE
 40
0.18
  9
$DIMTP
 40
0.0
  9
$DIMTM
 40
0.0
  9
$DIMTXT
 40
0.18
  9
$DIMCEN
 40
0.09
  9
$DIMTSZ
 40
0.0
  9
$DIMTOL
 70
     0
  9
$DIMLIM
 70
     0
  9
$DIMTIH
 70
     1
  9
$DIMTOH
 70
     1
  9
$DIMSE1
 70
     0
  9
$DIMSE2
 70
     0
  9
$DIMTAD
 70
     0
  9
$DIMZIN
 70
     0
  9
$DIMBLK
  1

  9
$DIMASO
 70
     1
  9
$DIMSHO
 70
     1
  9
$DIMPOST
  1

  9
$DIMAPOST
  1

  9
$DIMALT
 70
     0
  9
$DIMALTD
 70
     2
  9
$DIMALTF
 40
25.4
  9
$DIMLFAC
 40
1.0
  9
$DIMTOFL
 70
     0
  9
$DIMTVP
 40
0.0
  9
$DIMTIX
 70
     0
  9
$DIMSOXD
 70
     0
  9
$DIMSAH
 70
     0
  9
$DIMBLK1
  1

  9
$DIMBLK2
  1

  9
$DIMSTYLE
  2
Standard
  9
$DIMCLRD
 70
     0
  9
$DIMCLRE
 70
     0
  9
$DIMCLRT
 70
     0
  9
$DIMTFAC
 40
1.0
  9
$DIMGAP
 40
0.09
  9
$DIMJUST
 70
     0
  9
$DIMSD1
 70
     0
  9
$DIMSD2
 70
     0
  9
$DIMTOLJ
 70
     1
  9
$DIMTZIN
 70
     0
  9
$DIMALTZ
 70
     0
  9
$DIMALTTZ
 70
     0
  9
$DIMUPT
 70
     0
  9
$DIMDEC
 70
     3
  9
$DIMTDEC
 70
     3
  9
$DIMALTU
 70
     2
  9
$DIMALTTD
 70
     2
  9
$DIMTXSTY
  7
Standard
  9
$DIMAUNIT
 70
     0
  9
$DIMADEC
 70
     0
  9
$DIMALTRND
 40
0.0
  9
$DIMAZIN
 70
     0
  9
$DIMDSEP
 70
    46
  9
$DIMATFIT
 70
     3
  9
$DIMFRAC
 70
     0
  9
$DIMLDRBLK
  1

  9
$DIMLUNIT
 70
     2
  9
$DIMLWD
 70
    -2
  9
$DIMLWE
 70
    -2
  9
$DIMTMOVE
 70
     2
  9
$LUNITS
 70
     2
  9
$LUPREC
 70
     3
  9
$SKETCHINC
 40
0.1
  9
$FILLETRAD
 40
0.5
  9
$AUNITS
 70
     0
  9
$AUPREC
 70
     0
  9
$MENU
  1
.
  9
$ELEVATION
 40
0.0
  9
$PELEVATION
 40
0.0
  9
$THICKNESS
 40
0.0
  9
$LIMCHECK
 70
     0
  9
$CHAMFERA
 40
0.5
  9
$CHAMFERB
 40
0.5
  9
$CHAMFERC
 40
1.0
  9
$CHAMFERD
 40
0.0
  9
$SKPOLY
 70
     0
  9
$TDCREATE
 40
2455610.601542963
  9
$TDUCREATE
 40
2455611.01820963
  9
$TDUPDATE
 40
2455610.601543692
  9
$TDUUPDATE
 40
2455611.018210359
  9
$TDINDWG
 40
0.0000000116
  9
$TDUSRTIMER
 40
0.0000000116
  9
$USRTIMER
 70
     1
  9
$ANGBASE
 50
0.0
  9
$ANGDIR
 70
     0
  9
$PDMODE
 70
     0
  9
$PDSIZE
 40
0.0
  9
$PLINEWID
 40
0.0
  9
$SPLFRAME
 70
     0
  9
$SPLINETYPE
 70
     6
  9
$SPLINESEGS
 70
     8
  9
$HANDSEED
  5
5AD
  9
$SURFTAB1
 70
     6
  9
$SURFTAB2
 70
     6
  9
$SURFTYPE
 70
     6
  9
$SURFU
 70
     6
  9
$SURFV
 70
     6
  9
$UCSBASE
  2

  9
$UCSNAME
  2

  9
$UCSORG
 10
0.0
 20
0.0
 30
0.0
  9
$UCSXDIR
 10
1.0
 20
0.0
 30
0.0
  9
$UCSYDIR
 10
0.0
 20
1.0
 30
0.0
  9
$UCSORTHOREF
  2

  9
$UCSORTHOVIEW
 70
     0
  9
$UCSORGTOP
 10
0.0
 20
0.0
 30
0.0
  9
$UCSORGBOTTOM
 10
0.0
 20
0.0
 30
0.0
  9
$UCSORGLEFT
 10
0.0
 20
0.0
 30
0.0
  9
$UCSORGRIGHT
 10
0.0
 20
0.0
 30
0.0
  9
$UCSORGFRONT
 10
0.0
 20
0.0
 30
0.0
  9
$UCSORGBACK
 10
0.0
 20
0.0
 30
0.0
  9
$PUCSBASE
  2

  9
$PUCSNAME
  2

  9
$PUCSORG
 10
0.0
 20
0.0
 30
0.0
  9
$PUCSXDIR
 10
1.0
 20
0.0
 30
0.0
  9
$PUCSYDIR
 10
0.0
 20
1.0
 30
0.0
  9
$PUCSORTHOREF
  2

  9
$PUCSORTHOVIEW
 70
     0
  9
$PUCSORGTOP
 10
0.0
 20
0.0
 30
0.0
  9
$PUCSORGBOTTOM
 10
0.0
 20
0.0
 30
0.0
  9
$PUCSORGLEFT
 10
0.0
 20
0.0
 30
0.0
  9
$PUCSORGRIGHT
 10
0.0
 20
0.0
 30
0.0
  9
$PUCSORGFRONT
 10
0.0
 20
0.0
 30
0.0
  9
$PUCSORGBACK
 10
0.0
 20
0.0
 30
0.0
  9
$USERI1
 70
     0
  9
$USERI2
 70
     0
  9
$USERI3
 70
     0
  9
$USERI4
 70
     0
  9
$USERI5
 70
     0
  9
$USERR1
 40
0.0
  9
$USERR2
 40
0.0
  9
$USERR3
 40
0.0
  9
$USERR4
 40
0.0
  9
$USERR5
 40
0.0
  9
$WORLDVIEW
 70
     1
  9
$SHADEDGE
 70
     3
  9
$SHADEDIF
 70
    70
  9
$TILEMODE
 70
     1
  9
$MAXACTVP
 70
    64
  9
$PINSBASE
 10
0.0
 20
0.0
 30
0.0
  9
$PLIMCHECK
 70
     0
  9
$PEXTMIN
 10
1.000000000000000E+20
 20
1.000000000000000E+20
 30
1.000000000000000E+20
  9
$PEXTMAX
 10
-1.000000000000000E+20
 20
-1.000000000000000E+20
 30
-1.000000000000000E+20
  9
$PLIMMIN
 10
0.0
 20
0.0
  9
$PLIMMAX
 10
12.0
 20
9.0
  9
$UNITMODE
 70
     0
  9
$VISRETAIN
 70
     1
  9
$PLINEGEN
 70
     0
  9
$PSLTSCALE
 70
     1
  9
$TREEDEPTH
 70
  3020
  9
$CMLSTYLE
  2
Standard
  9
$CMLJUST
 70
     0
  9
$CMLSCALE
 40
1.0
  9
$PROXYGRAPHICS
 70
     1
  9
$MEASUREMENT
 70
     0
  9
$CELWEIGHT
370
    -1
  9
$ENDCAPS
280
     0
  9
$JOINSTYLE
280
     0
  9
$LWDISPLAY
290
     0
  9
$INSUNITS
 70
     0
  9
$HYPERLINKBASE
  1

  9
$STYLESHEET
  1

  9
$XEDIT
290
     1
  9
$CEPSNTYPE
380
     0
  9
$PSTYLEMODE
290
     1
  9
$FINGERPRINTGUID
  2
{0ECFF1B5-BAFD-46D0-B8DF-3D5E017BFAEE}
  9
$VERSIONGUID
  2
{FAEB1C32-E019-11D5-929B-00C0DF256EC4}
  9
$EXTNAMES
290
     1
  9
$PSVPSCALE
 40
0.0
  9
$OLESTARTUP
290
     0
  0
ENDSEC
  0
SECTION
  2
CLASSES
  0
CLASS
  1
ACDBDICTIONARYWDFLT
  2
AcDbDictionaryWithDefault
  3
ObjectDBX Classes
 90
        0
280
     0
281
     0
  0
CLASS
  1
MATERIAL
  2
AcDbMaterial
  3
ObjectDBX Classes
 90
     1153
280
     0
281
     0
  0
CLASS
  1
SCALE
  2
AcDbScale
  3
ObjectDBX Classes
 90
     1153
280
     0
281
     0
  0
CLASS
  1
DICTIONARYVAR
  2
AcDbDictionaryVar
  3
ObjectDBX Classes
 90
        0
280
     0
281
     0
  0
CLASS
  1
ACDBPLACEHOLDER
  2
AcDbPlaceHolder
  3
ObjectDBX Classes
 90
        0
280
     0
281
     0
  0
CLASS
  1
LAYOUT
  2
AcDbLayout
  3
ObjectDBX Classes
 90
        0
280
     0
281
     0
  0
ENDSEC
  0
SECTION
  2
TABLES
  0
TABLE
  2
VPORT
  5
8
330
0
100
AcDbSymbolTable
 70
     1
  0
VPORT
  5
20
330
8
100
AcDbSymbolTableRecord
100
AcDbViewportTableRecord
  2
*ACTIVE
 70
     0
 10
0.0
 20
0.0
 11
1.0
 21
1.0
 12
363.0
 22
295.0
 13
0.0
 23
0.0
 14
1.0
 24
1.0
 15
0.0
 25
0.0
 16
0.0
 26
0.0
 36
1.0
 17
0.0
 27
0.0
 37
0.0
 40
500.0
 41
0.813
 42
50.0
 43
0.0
 44
0.0
 50
0.0
 51
0.0
 71
     0
 72
   100
 73
     1
 74
     1
 75
     0
 76
     0
 77
     0
 78
     0
281
     0
 65
     0
110
0.0
120
0.0
130
0.0
111
1.0
121
0.0
131
0.0
112
0.0
122
1.0
132
0.0
 79
     0
146
0.0
  0
ENDTAB
  0
TABLE
  2
LTYPE
  5
5
330
0
100
AcDbSymbolTable
 70
     1
  0
LTYPE
  5
14
330
5
100
AcDbSymbolTableRecord
100
AcDbLinetypeTableRecord
  2
ByBlock
 70
     0
  3

 72
    65
 73
     0
 40
0.0
  0
LTYPE
  5
15
330
5
100
AcDbSymbolTableRecord
100
AcDbLinetypeTableRecord
  2
ByLayer
 70
     0
  3

 72
    65
 73
     0
 40
0.0
  0
LTYPE
  5
16
330
5
100
AcDbSymbolTableRecord
100
AcDbLinetypeTableRecord
  2
CONTINUOUS
 70
     0
  3
Solid line
 72
    65
 73
     0
 40
0.0
  0
ENDTAB
  0
TABLE
  2
LAYER
  5
2
330
0
100
AcDbSymbolTable
 70
     1
  0
LAYER
  5
10
330
2
100
AcDbSymbolTableRecord
100
AcDbLayerTableRecord
  2
0
 70
     0
 62
     7
  6
CONTINUOUS
370
    -3
390
F
  0
ENDTAB
  0
TABLE
  2
STYLE
  5
3
330
0
100
AcDbSymbolTable
 70
     1
  0
STYLE
  5
11
330
3
100
AcDbSymbolTableRecord
100
AcDbTextStyleTableRecord
  2
Standard
 70
     0
 40
0.0
 41
1.0
 50
0.0
 71
     0
 42
0.2
  3
txt
  4

  0
ENDTAB
  0
TABLE
  2
VIEW
  5
6
330
0
100
AcDbSymbolTable
 70
     0
  0
ENDTAB
  0
TABLE
  2
UCS
  5
7
330
0
100
AcDbSymbolTable
 70
     0
  0
ENDTAB
  0
TABLE
  2
APPID
  5
9
330
0
100
AcDbSymbolTable
 70
     1
  0
APPID
  5
12
330
9
100
AcDbSymbolTableRecord
100
AcDbRegAppTableRecord
  2
ACAD
 70
     0
  0
ENDTAB
  0
TABLE
  2
DIMSTYLE
  5
A
330
0
100
AcDbSymbolTable
 70
     1
100
AcDbDimStyleTable
  0
DIMSTYLE
105
27
330
A
100
AcDbSymbolTableRecord
100
AcDbDimStyleTableRecord
  2
Standard
 70
     0
178
     0
340
11
  0
ENDTAB
  0
TABLE
  2
BLOCK_RECORD
  5
1
330
0
100
AcDbSymbolTable
 70
     0
  0
BLOCK_RECORD
  5
1D
330
1
100
AcDbSymbolTableRecord
100
AcDbBlockTableRecord
  2
*Model_Space
340
1E
  0
BLOCK_RECORD
  5
1B
330
1
100
AcDbSymbolTableRecord
100
AcDbBlockTableRecord
  2
*Paper_Space
340
1C
  0
ENDTAB
  0
ENDSEC
  0
SECTION
  2
BLOCKS
  0
BLOCK
  5
57D
330
1D
100
AcDbEntity
  8
0
100
AcDbBlockBegin
  2
*Model_Space
 70
     0
 10
0.0
 20
0.0
 30
0.0
  3
*Model_Space
  1

  0
ENDBLK
  5
57E
330
1D
100
AcDbEntity
  8
0
100
AcDbBlockEnd
  0
BLOCK
  5
57B
330
1B
100
AcDbEntity
 67
     1
  8
0
100
AcDbBlockBegin
  2
*Paper_Space
 70
     0
 10
0.0
 20
0.0
 30
0.0
  3
*Paper_Space
  1

  0
ENDBLK
  5
57C
330
1B
100
AcDbEntity
 67
     1
  8
0
100
AcDbBlockEnd
  0
ENDSEC
  0
SECTION
  2
ENTITIES
  0
LWPOLYLINE
  5
28
330
1D
100
AcDbEntity
  8
0
  6
Continuous
 62
     7
100
AcDbPolyline
 90
       10
 70
     0
 43
0.0
 10
99.0
 20
419.0
 10
103.0
 20
425.0
 10
102.352941
 20
429.088235
 10
100.0
 20
435.0
 10
98.0
 20
437.0
 10
91.0
 20
434.0
 10
89.647059
 20
424.088235
 10
89.0
 20
423.0
 10
91.0
 20
421.0
 10
99.0
 20
419.0
  0
LWPOLYLINE
  5
34
330
1D
100
AcDbEntity
  8
0
  6
Continuous
 62
     7
100
AcDbPolyline
 90
        2
 70
     0
 43
0.0
 10
153.0
 20
408.0
 10
152.0
 20
408.0
  0
LWPOLYLINE
  5
38
330
1D
100
AcDbEntity
  8
0
  6
Continuous
 62
     7
100
AcDbPolyline
 90
       15
 70
     0
 43
0.0
 10
260.0
 20
406.0
 10
266.1
 20
409.8
 10
270.0
 20
411.0
 10
272.0
 20
413.0
 10
273.7
 20
421.1
 10
274.0
 20
423.0
 10
273.0
 20
424.0
 10
270.0
 20
423.0
 10
268.0
 20
424.0
 10
267.0
 20
426.0
 10
259.769231
 20
418.153846
 10
258.792
 20
415.856
 10
258.0
 20
407.0
 10
259.0
 20
406.0
 10
260.0
 20
406.0
  0
LWPOLYLINE
  5
49
330
1D
100
AcDbEntity
  8
0
  6
Continuous
 62
     7
100
AcDbPolyline
 90
       12
 70
     0
 43
0.0
 10
130.0
 20
405.0
 10
132.0
 20
407.0
 10
131.0
 20
411.0
 10
132.769231
 20
413.153846
 10
133.3
 20
416.1
 10
130.0
 20
423.0
 10
121.25
 20
419.75
 10
121.0
 20
419.0
 10
120.0
 20
412.0
 10
121.0
 20
410.0
 10
123.9
 20
407.8
 10
130.0
 20
405.0
  0
LWPOLYLINE
  5
57
330
1D
100
AcDbEntity
  8
0
  6
Continuous
 62
     7
100
AcDbPolyline
 90
       14
 70
     0
 43
0.0
 10
153.0
 20
408.0
 10
153.8
 20
406.9
 10
155.0
 20
404.0
 10
154.384615
 20
402.923077
 10
154.25
 20
398.25
 10
162.0
 20
398.0
 10
166.2
 20
402.9
 10
167.0
 20
404.0
 10
165.8
 20
407.9
 10
165.2
 20
409.1
 10
164.0
 20
412.0
 10
161.0
 20
415.0
 10
160.0
 20
413.0
 10
153.0
 20
408.0
  0
LWPOLYLINE
  5
67
330
1D
100
AcDbEntity
  8
0
  6
Continuous
 62
     7
100
AcDbPolyline
 90
       12
 70
     0
 43
0.0
 10
227.0
 20
397.0
 10
236.0
 20
402.0
 10
237.352941
 20
408.911765
 10
238.0
 20
411.0
 10
236.1
 20
412.2
 10
235.0
 20
413.0
 10
229.0
 20
413.0
 10
227.0
 20
412.0
 10
225.8
 20
410.1
 10
225.352941
 20
408.911765
 10
224.0
 20
402.0
 10
227.0
 20
397.0
  0
LWPOLYLINE
  5
75
330
1D
100
AcDbEntity
  8
0
  6
Continuous
 62
     7
100
AcDbPolyline
 90
       13
 70
     0
 43
0.0
 10
197.0
 20
394.0
 10
202.2
 20
400.9
 10
204.0
 20
404.0
 10
201.0
 20
407.0
 10
200.0
 20
407.0
 10
198.0
 20
409.0
 10
197.0
 20
411.0
 10
192.1
 20
406.8
 10
188.0
 20
404.0
 10
190.7
 20
397.9
 10
191.0
 20
396.0
 10
193.0
 20
394.0
 10
197.0
 20
394.0
  0
LWPOLYLINE
  5
84
330
1D
100
AcDbEntity
  8
0
  6
Continuous
 62
     7
100
AcDbPolyline
 90
       10
 70
     0
 43
0.0
 10
113.0
 20
392.0
 10
115.2
 20
395.9
 10
117.0
 20
399.0
 10
117.0
 20
402.0
 10
113.0
 20
408.0
 10
110.0
 20
411.0
 10
103.0
 20
408.0
 10
103.0
 20
401.0
 10
104.0
 20
399.0
 10
113.0
 20
392.0
  0
LWPOLYLINE
  5
90
330
1D
100
AcDbEntity
  8
0
  6
Continuous
 62
     7
100
AcDbPolyline
 90
       12
 70
     0
 43
0.0
 10
97.0
 20
385.0
 10
100.0
 20
390.0
 10
96.2
 20
396.1
 10
95.0
 20
399.0
 10
93.0
 20
401.0
 10
92.0
 20
401.0
 10
87.0
 20
397.0
 10
87.0
 20
390.0
 10
88.0
 20
388.0
 10
90.0
 20
386.0
 10
94.088235
 20
385.352941
 10
97.0
 20
385.0
  0
LWPOLYLINE
  5
9E
330
1D
100
AcDbEntity
  8
0
  6
Continuous
 62
     7
100
AcDbPolyline
 90
        8
 70
     0
 43
0.0
 10
243.0
 20
383.0
 10
249.0
 20
386.0
 10
252.0
 20
389.0
 10
255.0
 20
398.0
 10
251.0
 20
401.0
 10
244.0
 20
399.0
 10
240.0
 20
394.0
 10
243.0
 20
383.0
  0
LWPOLYLINE
  5
A8
330
1D
100
AcDbEntity
  8
0
  6
Continuous
 62
     7
100
AcDbPolyline
 90
        9
 70
     0
 43
0.0
 10
147.0
 20
382.0
 10
148.647059
 20
388.088235
 10
150.0
 20
393.0
 10
145.18
 20
396.24
 10
142.0
 20
399.0
 10
137.0
 20
398.0
 10
134.0
 20
395.0
 10
137.0
 20
383.0
 10
147.0
 20
382.0
  0
LWPOLYLINE
  5
B3
330
1D
100
AcDbEntity
  8
0
  6
Continuous
 62
     7
100
AcDbPolyline
 90
       10
 70
     0
 43
0.0
 10
174.0
 20
377.0
 10
183.0
 20
378.0
 10
187.0
 20
386.0
 10
183.0
 20
390.0
 10
178.7
 20
392.4
 10
177.18
 20
391.76
 10
171.0
 20
387.0
 10
171.0
 20
378.0
 10
172.0
 20
377.0
 10
174.0
 20
377.0
  0
LWPOLYLINE
  5
BF
330
1D
100
AcDbEntity
  8
0
  6
Continuous
 62
     7
100
AcDbPolyline
 90
       12
 70
     0
 43
0.0
 10
210.0
 20
376.0
 10
211.1
 20
376.7
 10
218.0
 20
378.0
 10
220.0
 20
380.0
 10
221.0
 20
390.0
 10
215.153846
 20
393.230769
 10
213.4
 20
393.8
 10
204.0
 20
388.0
 10
205.647059
 20
382.911765
 10
206.352941
 20
380.088235
 10
208.0
 20
376.0
 10
210.0
 20
376.0
  0
LWPOLYLINE
  5
CD
330
1D
100
AcDbEntity
  8
0
  6
Continuous
 62
     7
100
AcDbPolyline
 90
       14
 70
     0
 43
0.0
 10
261.0
 20
370.0
 10
263.153846
 20
371.769231
 10
269.0
 20
373.0
 10
271.0
 20
375.0
 10
270.0
 20
376.0
 10
270.647059
 20
381.088235
 10
271.352941
 20
383.911765
 10
273.0
 20
387.0
 10
272.0
 20
388.0
 10
269.088235
 20
388.352941
 10
263.0
 20
391.0
 10
256.0
 20
381.0
 10
257.769231
 20
377.846154
 10
261.0
 20
370.0
  0
LWPOLYLINE
  5
DD
330
1D
100
AcDbEntity
  8
0
  6
Continuous
 62
     7
100
AcDbPolyline
 90
       13
 70
     0
 43
0.0
 10
133.0
 20
369.0
 10
133.0
 20
370.0
 10
134.352941
 20
377.911765
 10
135.0
 20
379.0
 10
133.153846
 20
380.230769
 10
130.846154
 20
381.769231
 10
127.0
 20
386.0
 10
118.0
 20
383.0
 10
120.647059
 20
376.911765
 10
121.0
 20
374.0
 10
123.0
 20
372.0
 10
129.846154
 20
370.769231
 10
133.0
 20
369.0
  0
LWPOLYLINE
  5
EC
330
1D
100
AcDbEntity
  8
0
  6
Continuous
 62
     7
100
AcDbPolyline
 90
        2
 70
     0
 43
0.0
 10
134.0
 20
368.0
 10
133.0
 20
369.0
  0
LWPOLYLINE
  5
F0
330
1D
100
AcDbEntity
  8
0
  6
Continuous
 62
     7
100
AcDbPolyline
 90
       10
 70
     0
 43
0.0
 10
169.0
 20
361.0
 10
170.0
 20
366.0
 10
167.0
 20
372.0
 10
164.0
 20
375.0
 10
162.0
 20
375.5
 10
154.0
 20
372.0
 10
155.7
 20
367.9
 10
157.0
 20
364.0
 10
159.0
 20
362.0
 10
169.0
 20
361.0
  0
LWPOLYLINE
  5
FC
330
1D
100
AcDbEntity
  8
0
  6
Continuous
 62
     7
100
AcDbPolyline
 90
       12
 70
     0
 43
0.0
 10
231.0
 20
361.0
 10
238.0
 20
365.0
 10
238.0
 20
374.0
 10
237.0
 20
376.0
 10
231.0
 20
379.0
 10
228.8
 20
376.1
 10
225.6
 20
369.8
 10
227.2
 20
366.1
 10
227.7
 20
364.9
 10
228.0
 20
363.0
 10
230.0
 20
361.0
 10
231.0
 20
361.0
  0
LWPOLYLINE
  5
10A
330
1D
100
AcDbEntity
  8
0
  6
Continuous
 62
     7
100
AcDbPolyline
 90
        2
 70
     0
 43
0.0
 10
140.0
 20
359.0
 10
139.0
 20
359.0
  0
LWPOLYLINE
  5
10E
330
1D
100
AcDbEntity
  8
0
  6
Continuous
 62
     7
100
AcDbPolyline
 90
       11
 70
     0
 43
0.0
 10
117.0
 20
358.0
 10
119.0
 20
360.0
 10
114.0
 20
371.0
 10
110.0
 20
375.0
 10
106.0
 20
374.0
 10
104.0
 20
372.0
 10
105.647059
 20
366.911765
 10
106.0
 20
364.0
 10
109.0
 20
361.0
 10
112.1
 20
360.2
 10
117.0
 20
358.0
  0
LWPOLYLINE
  5
11B
330
1D
100
AcDbEntity
  8
0
  6
Continuous
 62
     7
100
AcDbPolyline
 90
       11
 70
     0
 43
0.0
 10
199.0
 20
358.0
 10
204.0
 20
359.0
 10
205.0
 20
360.0
 10
206.0
 20
368.0
 10
200.0
 20
373.0
 10
199.0
 20
373.0
 10
194.8
 20
368.1
 10
194.0
 20
367.0
 10
194.0
 20
360.0
 10
196.0
 20
358.0
 10
199.0
 20
358.0
  0
LWPOLYLINE
  5
128
330
1D
100
AcDbEntity
  8
0
  6
Continuous
 62
     7
100
AcDbPolyline
 90
       12
 70
     0
 43
0.0
 10
252.0
 20
348.0
 10
259.0
 20
352.0
 10
258.42
 20
356.06
 10
258.0
 20
362.0
 10
256.1
 20
363.2
 10
254.9
 20
363.8
 10
251.0
 20
365.0
 10
249.0
 20
363.0
 10
247.0
 20
358.0
 10
247.0
 20
355.0
 10
250.0
 20
348.0
 10
252.0
 20
348.0
  0
LWPOLYLINE
  5
136
330
1D
100
AcDbEntity
  8
0
  6
Continuous
 62
     7
100
AcDbPolyline
 90
       11
 70
     0
 43
0.0
 10
104.0
 20
347.0
 10
106.0
 20
349.0
 10
105.352941
 20
354.088235
 10
105.0
 20
357.0
 10
96.1
 20
363.2
 10
90.0
 20
363.0
 10
89.0
 20
362.0
 10
90.2
 20
360.1
 10
93.0
 20
353.0
 10
96.0
 20
350.0
 10
104.0
 20
347.0
  0
LWPOLYLINE
  5
143
330
1D
100
AcDbEntity
  8
0
  6
Continuous
 62
     7
100
AcDbPolyline
 90
        9
 70
     0
 43
0.0
 10
140.0
 20
359.0
 10
142.8
 20
353.9
 10
145.0
 20
347.0
 10
155.0
 20
347.0
 10
157.352941
 20
354.911765
 10
158.0
 20
356.0
 10
151.846154
 20
359.769231
 10
146.0
 20
363.0
 10
140.0
 20
359.0
  0
LWPOLYLINE
  5
14E
330
1D
100
AcDbEntity
  8
0
  6
Continuous
 62
     7
100
AcDbPolyline
 90
       10
 70
     0
 43
0.0
 10
191.0
 20
341.0
 10
193.0
 20
343.0
 10
193.0
 20
347.0
 10
192.0
 20
350.0
 10
189.153846
 20
352.230769
 10
184.0
 20
355.0
 10
178.0
 20
351.0
 10
179.769231
 20
348.846154
 10
184.0
 20
341.0
 10
191.0
 20
341.0
  0
LWPOLYLINE
  5
15A
330
1D
100
AcDbEntity
  8
0
  6
Continuous
 62
     7
100
AcDbPolyline
 90
       10
 70
     0
 43
0.0
 10
222.0
 20
340.0
 10
227.0
 20
343.0
 10
227.0
 20
349.0
 10
225.0
 20
354.0
 10
219.0
 20
357.0
 10
215.769231
 20
353.153846
 10
214.0
 20
351.0
 10
218.0
 20
341.0
 10
219.0
 20
340.0
 10
222.0
 20
340.0
  0
LWPOLYLINE
  5
166
330
1D
100
AcDbEntity
  8
0
  6
Continuous
 62
     7
100
AcDbPolyline
 90
       13
 70
     0
 43
0.0
 10
273.0
 20
335.0
 10
280.0
 20
339.0
 10
280.0
 20
343.0
 10
278.75
 20
350.75
 10
278.0
 20
351.0
 10
272.153846
 20
352.230769
 10
269.0
 20
354.0
 10
266.8
 20
350.1
 10
264.0
 20
345.0
 10
267.769231
 20
338.846154
 10
268.2
 20
338.1
 10
270.0
 20
335.0
 10
273.0
 20
335.0
  0
LWPOLYLINE
  5
175
330
1D
100
AcDbEntity
  8
0
  6
Continuous
 62
     7
100
AcDbPolyline
 90
        2
 70
     0
 43
0.0
 10
599.0
 20
334.0
 10
600.0
 20
335.0
  0
LWPOLYLINE
  5
179
330
1D
100
AcDbEntity
  8
0
  6
Continuous
 62
     7
100
AcDbPolyline
 90
       10
 70
     0
 43
0.0
 10
142.0
 20
333.0
 10
142.705882
 20
339.823529
 10
144.0
 20
342.0
 10
142.1
 20
343.2
 10
132.0
 20
350.0
 10
126.0
 20
348.0
 10
125.0
 20
347.0
 10
131.0
 20
337.0
 10
132.0
 20
336.0
 10
142.0
 20
333.0
  0
LWPOLYLINE
  5
185
330
1D
100
AcDbEntity
  8
0
  6
Continuous
 62
     7
100
AcDbPolyline
 90
        4
 70
     0
 43
0.0
 10
599.0
 20
334.0
 10
600.0
 20
333.0
 10
601.0
 20
334.0
 10
600.0
 20
335.0
  0
LWPOLYLINE
  5
18B
330
1D
100
AcDbEntity
  8
0
  6
Continuous
 62
     7
100
AcDbPolyline
 90
       10
 70
     0
 43
0.0
 10
180.0
 20
326.0
 10
179.0
 20
336.0
 10
175.18
 20
338.24
 10
170.0
 20
342.0
 10
166.8
 20
337.1
 10
166.0
 20
336.0
 10
166.8
 20
332.9
 10
167.230769
 20
332.153846
 10
171.0
 20
327.0
 10
180.0
 20
326.0
  0
LWPOLYLINE
  5
197
330
1D
100
AcDbEntity
  8
0
  6
Continuous
 62
     7
100
AcDbPolyline
 90
       11
 70
     0
 43
0.0
 10
242.0
 20
325.0
 10
249.75
 20
326.25
 10
247.75
 20
338.75
 10
244.1
 20
340.2
 10
241.0
 20
342.0
 10
239.0
 20
342.0
 10
234.0
 20
334.0
 10
236.0
 20
333.0
 10
238.0
 20
331.0
 10
240.0
 20
325.0
 10
242.0
 20
325.0
  0
LWPOLYLINE
  5
1A4
330
1D
100
AcDbEntity
  8
0
  6
Continuous
 62
     7
100
AcDbPolyline
 90
       12
 70
     0
 43
0.0
 10
129.0
 20
322.0
 10
129.0
 20
323.0
 10
128.0
 20
327.0
 10
131.0
 20
330.0
 10
121.1
 20
337.2
 10
119.1
 20
338.2
 10
115.846154
 20
337.230769
 10
115.0
 20
337.0
 10
114.0
 20
336.0
 10
118.2
 20
329.1
 10
121.0
 20
325.0
 10
129.0
 20
322.0
  0
LWPOLYLINE
  5
1B2
330
1D
100
AcDbEntity
  8
0
  6
Continuous
 62
     7
100
AcDbPolyline
 90
        2
 70
     0
 43
0.0
 10
130.0
 20
321.0
 10
129.0
 20
322.0
  0
LWPOLYLINE
  5
1B6
330
1D
100
AcDbEntity
  8
0
  6
Continuous
 62
     7
100
AcDbPolyline
 90
       12
 70
     0
 43
0.0
 10
209.0
 20
321.0
 10
212.0
 20
324.0
 10
216.0
 20
322.0
 10
218.0
 20
323.0
 10
216.0
 20
333.0
 10
210.153846
 20
336.230769
 10
208.230769
 20
336.846154
 10
202.0
 20
334.0
 10
201.0
 20
333.0
 10
201.0
 20
331.0
 10
208.2
 20
322.1
 10
209.0
 20
321.0
  0
LWPOLYLINE
  5
1C4
330
1D
100
AcDbEntity
  8
0
  6
Continuous
 62
     7
100
AcDbPolyline
 90
        9
 70
     0
 43
0.0
 10
116.0
 20
312.0
 10
118.0
 20
315.0
 10
118.0
 20
320.0
 10
108.1
 20
326.2
 10
104.0
 20
328.0
 10
101.0
 20
326.0
 10
105.0
 20
318.0
 10
107.846154
 20
315.769231
 10
116.0
 20
312.0
  0
LWPOLYLINE
  5
1CF
330
1D
100
AcDbEntity
  8
0
  6
Continuous
 62
     7
100
AcDbPolyline
 90
       12
 70
     0
 43
0.0
 10
167.0
 20
310.0
 10
168.0
 20
311.0
 10
167.42
 20
316.06
 10
167.0
 20
322.0
 10
159.153846
 20
326.230769
 10
156.8
 20
327.4
 10
155.0
 20
327.0
 10
153.0
 20
325.0
 10
152.5
 20
323.0
 10
156.2
 20
316.1
 10
158.0
 20
313.0
 10
167.0
 20
310.0
  0
LWPOLYLINE
  5
1DD
330
1D
100
AcDbEntity
  8
0
  6
Continuous
 62
     7
100
AcDbPolyline
 90
       13
 70
     0
 43
0.0
 10
264.0
 20
310.0
 10
272.0
 20
314.0
 10
270.3
 20
320.1
 10
269.0
 20
325.0
 10
266.1
 20
326.3
 10
264.1
 20
327.2
 10
263.0
 20
328.0
 10
260.0
 20
328.0
 10
256.8
 20
322.1
 10
259.8
 20
315.9
 10
260.2
 20
315.1
 10
263.0
 20
310.0
 10
264.0
 20
310.0
  0
LWPOLYLINE
  5
1EC
330
1D
100
AcDbEntity
  8
0
  6
Continuous
 62
     7
100
AcDbPolyline
 90
       12
 70
     0
 43
0.0
 10
201.0
 20
303.0
 10
202.076923
 20
303.615385
 10
206.0
 20
304.0
 10
208.0
 20
306.0
 10
207.352941
 20
309.088235
 10
205.0
 20
315.0
 10
195.0
 20
322.0
 10
193.0
 20
319.0
 10
192.0
 20
319.0
 10
189.0
 20
316.0
 10
198.0
 20
303.0
 10
201.0
 20
303.0
  0
LWPOLYLINE
  5
1FA
330
1D
100
AcDbEntity
  8
0
  6
Continuous
 62
     7
100
AcDbPolyline
 90
       13
 70
     0
 43
0.0
 10
232.0
 20
303.0
 10
237.1
 20
305.7
 10
239.0
 20
306.0
 10
240.0
 20
307.0
 10
239.647059
 20
309.911765
 10
237.8
 20
313.9
 10
237.2
 20
315.1
 10
232.0
 20
321.0
 10
231.1
 20
321.2
 10
226.0
 20
319.0
 10
223.0
 20
316.0
 10
229.2
 20
308.1
 10
232.0
 20
303.0
  0
LWPOLYLINE
  5
209
330
1D
100
AcDbEntity
  8
0
  6
Continuous
 62
     7
100
AcDbPolyline
 90
       12
 70
     0
 43
0.0
 10
158.0
 20
298.0
 10
159.0
 20
299.0
 10
158.405405
 20
302.067568
 10
158.0
 20
307.0
 10
152.1
 20
310.2
 10
146.1
 20
314.2
 10
143.0
 20
314.0
 10
141.0
 20
312.0
 10
142.230769
 20
308.153846
 10
144.0
 20
305.0
 10
148.9
 20
300.8
 10
158.0
 20
298.0
  0
LWPOLYLINE
  5
217
330
1D
100
AcDbEntity
  8
0
  6
Continuous
 62
     7
100
AcDbPolyline
 90
       11
 70
     0
 43
0.0
 10
285.0
 20
298.0
 10
295.0
 20
301.0
 10
296.0
 20
302.0
 10
293.0
 20
312.0
 10
291.0
 20
314.0
 10
285.1
 20
315.3
 10
284.0
 20
316.0
 10
282.0
 20
316.0
 10
280.7
 20
313.1
 10
278.6
 20
307.3
 10
285.0
 20
298.0
  0
LWPOLYLINE
  5
224
330
1D
100
AcDbEntity
  8
0
  6
Continuous
 62
     7
100
AcDbPolyline
 90
       13
 70
     0
 43
0.0
 10
195.0
 20
288.0
 10
196.0
 20
289.0
 10
196.0
 20
294.0
 10
195.0
 20
297.0
 10
190.1
 20
301.2
 10
187.0
 20
303.0
 10
185.0
 20
303.0
 10
181.0
 20
300.0
 10
182.7
 20
295.9
 10
184.0
 20
291.0
 10
186.0
 20
289.0
 10
193.1
 20
288.3
 10
195.0
 20
288.0
  0
LWPOLYLINE
  5
233
330
1D
100
AcDbEntity
  8
0
  6
Continuous
 62
     7
100
AcDbPolyline
 90
       13
 70
     0
 43
0.0
 10
258.0
 20
288.0
 10
259.1
 20
288.8
 10
264.0
 20
290.0
 10
266.0
 20
292.0
 10
264.0
 20
301.0
 10
262.0
 20
303.0
 10
256.9
 20
304.8
 10
254.0
 20
306.0
 10
250.0
 20
300.0
 10
250.0
 20
298.0
 10
253.230769
 20
294.153846
 10
257.0
 20
288.0
 10
258.0
 20
288.0
  0
LWPOLYLINE
  5
242
330
1D
100
AcDbEntity
  8
0
  6
Continuous
 62
     7
100
AcDbPolyline
 90
       11
 70
     0
 43
0.0
 10
145.0
 20
287.0
 10
136.0
 20
289.0
 10
132.8
 20
293.9
 10
130.0
 20
299.0
 10
132.0
 20
300.0
 10
133.0
 20
302.0
 10
135.0
 20
303.0
 10
137.0
 20
302.0
 10
140.230769
 20
298.153846
 10
145.7
 20
289.9
 10
146.0
 20
288.0
  0
LWPOLYLINE
  5
24F
330
1D
100
AcDbEntity
  8
0
  6
Continuous
 62
     7
100
AcDbPolyline
 90
        2
 70
     0
 43
0.0
 10
145.0
 20
287.0
 10
146.0
 20
288.0
  0
LWPOLYLINE
  5
253
330
1D
100
AcDbEntity
  8
0
  6
Continuous
 62
     7
100
AcDbPolyline
 90
        4
 70
     0
 43
0.0
 10
145.0
 20
287.0
 10
146.0
 20
286.0
 10
147.0
 20
287.0
 10
146.0
 20
288.0
  0
LWPOLYLINE
  5
259
330
1D
100
AcDbEntity
  8
0
  6
Continuous
 62
     7
100
AcDbPolyline
 90
       10
 70
     0
 43
0.0
 10
235.0
 20
285.0
 10
233.8
 20
288.9
 10
232.0
 20
296.0
 10
231.153846
 20
296.230769
 10
226.0
 20
300.0
 10
223.0
 20
300.0
 10
218.0
 20
296.0
 10
220.0
 20
291.0
 10
224.9
 20
286.8
 10
235.0
 20
285.0
  0
LWPOLYLINE
  5
265
330
1D
100
AcDbEntity
  8
0
  6
Continuous
 62
     7
100
AcDbPolyline
 90
       36
 70
     0
 43
0.0
 10
624.0
 20
281.0
 10
621.2
 20
288.1
 10
613.0
 20
304.0
 10
606.1
 20
308.2
 10
564.1
 20
326.2
 10
561.1
 20
327.3
 10
530.911765
 20
337.647059
 10
525.1
 20
339.3
 10
489.923077
 20
347.615385
 10
481.076923
 20
349.384615
 10
474.0
 20
351.0
 10
460.0
 20
351.0
 10
446.032995
 20
349.538071
 10
444.932432
 20
349.405405
 10
409.9
 20
342.3
 10
394.9
 20
337.2
 10
372.153846
 20
324.769231
 10
330.1
 20
299.8
 10
325.0
 20
297.0
 10
313.8
 20
316.9
 10
313.0
 20
318.0
 10
314.0
 20
323.0
 10
326.846154
 20
330.230769
 10
333.18
 20
334.76
 10
358.153846
 20
349.769231
 10
369.9
 20
356.2
 10
386.1
 20
363.7
 10
405.911765
 20
369.352941
 10
423.932432
 20
373.405405
 10
450.0
 20
377.0
 10
461.0
 20
377.0
 10
493.911765
 20
370.647059
 10
511.911765
 20
366.647059
 10
563.9
 20
347.8
 10
596.088235
 20
334.352941
 10
599.0
 20
334.0
  0
LWPOLYLINE
  5
28B
330
1D
100
AcDbEntity
  8
0
  6
Continuous
 62
     7
100
AcDbPolyline
 90
        2
 70
     0
 43
0.0
 10
623.0
 20
280.0
 10
624.0
 20
281.0
  0
LWPOLYLINE
  5
28F
330
1D
100
AcDbEntity
  8
0
  6
Continuous
 62
     7
100
AcDbPolyline
 90
        4
 70
     0
 43
0.0
 10
623.0
 20
280.0
 10
624.0
 20
279.0
 10
625.0
 20
280.0
 10
624.0
 20
281.0
  0
LWPOLYLINE
  5
295
330
1D
100
AcDbEntity
  8
0
  6
Continuous
 62
     7
100
AcDbPolyline
 90
       10
 70
     0
 43
0.0
 10
138.0
 20
275.0
 10
129.9
 20
276.7
 10
126.0
 20
278.0
 10
121.8
 20
284.9
 10
119.0
 20
289.0
 10
121.0
 20
291.0
 10
125.0
 20
292.0
 10
128.0
 20
290.0
 10
134.230769
 20
282.153846
 10
138.0
 20
276.0
  0
LWPOLYLINE
  5
2A1
330
1D
100
AcDbEntity
  8
0
  6
Continuous
 62
     7
100
AcDbPolyline
 90
        2
 70
     0
 43
0.0
 10
138.0
 20
275.0
 10
138.0
 20
276.0
  0
LWPOLYLINE
  5
2A5
330
1D
100
AcDbEntity
  8
0
  6
Continuous
 62
     7
100
AcDbPolyline
 90
       12
 70
     0
 43
0.0
 10
186.0
 20
275.0
 10
186.0
 20
276.0
 10
184.8
 20
280.9
 10
184.2
 20
282.1
 10
183.0
 20
285.0
 10
175.0
 20
291.0
 10
174.0
 20
291.0
 10
167.0
 20
288.0
 10
172.2
 20
280.1
 10
174.0
 20
277.0
 10
185.0
 20
275.0
 10
186.0
 20
275.0
  0
LWPOLYLINE
  5
2B3
330
1D
100
AcDbEntity
  8
0
  6
Continuous
 62
     7
100
AcDbPolyline
 90
        2
 70
     0
 43
0.0
 10
139.0
 20
274.0
 10
138.0
 20
275.0
  0
LWPOLYLINE
  5
2B7
330
1D
100
AcDbEntity
  8
0
  6
Continuous
 62
     7
100
AcDbPolyline
 90
       12
 70
     0
 43
0.0
 10
281.0
 20
274.0
 10
286.1
 20
276.7
 10
288.0
 20
277.0
 10
290.0
 20
279.0
 10
287.0
 20
292.0
 10
283.076923
 20
292.384615
 10
277.25
 20
292.75
 10
277.0
 20
292.0
 10
276.4
 20
289.3
 10
274.0
 20
286.0
 10
279.8
 20
275.9
 10
281.0
 20
274.0
  0
LWPOLYLINE
  5
2C5
330
1D
100
AcDbEntity
  8
0
  6
Continuous
 62
     7
100
AcDbPolyline
 90
       11
 70
     0
 43
0.0
 10
225.0
 20
269.0
 10
223.0
 20
279.0
 10
221.1
 20
280.2
 10
213.0
 20
283.0
 10
210.0
 20
281.0
 10
209.8
 20
280.1
 10
210.2
 20
277.1
 10
211.0
 20
275.0
 10
216.9
 20
270.8
 10
218.1
 20
270.2
 10
225.0
 20
269.0
  0
LWPOLYLINE
  5
2D2
330
1D
100
AcDbEntity
  8
0
  6
Continuous
 62
     7
100
AcDbPolyline
 90
       10
 70
     0
 43
0.0
 10
255.0
 20
269.0
 10
258.0
 20
271.0
 10
256.0
 20
281.0
 10
250.1
 20
283.3
 10
247.0
 20
285.0
 10
243.8
 20
279.1
 10
245.76
 20
274.82
 10
250.0
 20
270.0
 10
253.1
 20
269.3
 10
255.0
 20
269.0
  0
LWPOLYLINE
  5
2DE
330
1D
100
AcDbEntity
  8
0
  6
Continuous
 62
     7
100
AcDbPolyline
 90
        9
 70
     0
 43
0.0
 10
174.0
 20
261.0
 10
173.3
 20
266.1
 10
169.0
 20
274.0
 10
165.0
 20
277.0
 10
161.0
 20
277.0
 10
157.0
 20
275.0
 10
160.24
 20
270.18
 10
166.0
 20
263.0
 10
174.0
 20
261.0
  0
LWPOLYLINE
  5
2E9
330
1D
100
AcDbEntity
  8
0
  6
Continuous
 62
     7
100
AcDbPolyline
 90
       11
 70
     0
 43
0.0
 10
304.0
 20
261.0
 10
311.0
 20
266.0
 10
311.0
 20
270.0
 10
309.75
 20
277.75
 10
300.0
 20
281.0
 10
298.0
 20
280.0
 10
295.0
 20
272.0
 10
299.769231
 20
264.846154
 10
300.2
 20
264.1
 10
302.0
 20
261.0
 10
304.0
 20
261.0
  0
LWPOLYLINE
  5
2F6
330
1D
100
AcDbEntity
  8
0
  6
Continuous
 62
     7
100
AcDbPolyline
 90
        2
 70
     0
 43
0.0
 10
175.0
 20
260.0
 10
174.0
 20
261.0
  0
LWPOLYLINE
  5
2FA
330
1D
100
AcDbEntity
  8
0
  6
Continuous
 62
     7
100
AcDbPolyline
 90
       11
 70
     0
 43
0.0
 10
213.0
 20
253.0
 10
213.5
 20
254.0
 10
212.0
 20
262.0
 10
209.1
 20
264.2
 10
205.0
 20
266.0
 10
198.0
 20
266.0
 10
197.0
 20
265.0
 10
197.0
 20
263.0
 10
200.2
 20
259.1
 10
203.0
 20
254.0
 10
213.0
 20
253.0
  0
LWPOLYLINE
  5
307
330
1D
100
AcDbEntity
  8
0
  6
Continuous
 62
     7
100
AcDbPolyline
 90
       11
 70
     0
 43
0.0
 10
276.0
 20
251.0
 10
283.0
 20
255.0
 10
280.75
 20
266.75
 10
274.9
 20
268.7
 10
270.0
 20
270.0
 10
268.7
 20
267.1
 10
265.0
 20
262.0
 10
267.0
 20
261.0
 10
270.2
 20
256.1
 10
273.0
 20
251.0
 10
276.0
 20
251.0
  0
LWPOLYLINE
  5
314
330
1D
100
AcDbEntity
  8
0
  6
Continuous
 62
     7
100
AcDbPolyline
 90
        9
 70
     0
 43
0.0
 10
245.0
 20
248.0
 10
252.0
 20
250.0
 10
250.2
 20
257.1
 10
247.0
 20
262.0
 10
239.0
 20
267.0
 10
235.2
 20
259.6
 10
239.0
 20
250.0
 10
241.0
 20
248.0
 10
245.0
 20
248.0
  0
LWPOLYLINE
  5
31F
330
1D
100
AcDbEntity
  8
0
  6
Continuous
 62
     7
100
AcDbPolyline
 90
      142
 70
     0
 43
0.0
 10
600.0
 20
335.0
 10
598.647059
 20
340.911765
 10
592.8
 20
355.9
 10
591.0
 20
359.0
 10
553.9
 20
375.8
 10
534.1
 20
384.2
 10
508.1
 20
392.3
 10
494.088235
 20
396.352941
 10
472.0
 20
401.0
 10
442.0
 20
401.0
 10
415.06
 20
397.58
 10
413.911765
 20
397.352941
 10
383.1
 20
388.8
 10
355.1
 20
375.8
 10
306.0
 20
349.0
 10
304.0
 20
349.0
 10
297.0
 20
370.0
 10
297.0
 20
371.0
 10
333.9
 20
391.2
 10
347.9
 20
398.2
 10
381.1
 20
411.7
 10
394.911765
 20
416.352941
 10
415.067568
 20
421.594595
 10
419.932432
 20
422.405405
 10
446.0
 20
426.0
 10
476.0
 20
426.0
 10
489.911765
 20
422.647059
 10
500.911765
 20
419.647059
 10
523.9
 20
411.7
 10
531.9
 20
408.7
 10
572.9
 20
390.8
 10
584.9
 20
384.8
 10
586.0
 20
384.0
 10
589.0
 20
392.0
 10
589.0
 20
397.0
 10
587.594595
 20
402.932432
 10
587.0
 20
406.0
 10
585.18
 20
407.24
 10
581.82
 20
409.76
 10
562.1
 20
422.2
 10
555.846154
 20
425.769231
 10
538.9
 20
433.7
 10
533.1
 20
436.2
 10
511.911765
 20
443.647059
 10
502.088235
 20
446.352941
 10
493.955446
 20
448.554455
 10
485.044554
 20
449.445545
 10
467.0
 20
451.0
 10
435.0
 20
451.0
 10
372.9
 20
432.3
 10
351.9
 20
424.2
 10
299.1
 20
397.8
 10
298.0
 20
397.0
 10
297.0
 20
398.0
 10
297.0
 20
411.0
 10
298.615385
 20
418.076923
 10
299.0
 20
422.0
 10
304.9
 20
425.2
 10
341.1
 20
440.7
 10
358.1
 20
447.7
 10
401.911765
 20
464.352941
 10
411.911765
 20
467.352941
 10
437.06
 20
473.58
 10
442.94
 20
474.42
 10
465.0
 20
477.0
 10
484.0
 20
477.0
 10
510.923077
 20
472.615385
 10
514.911765
 20
471.647059
 10
544.9
 20
460.7
 10
546.1
 20
460.2
 10
570.1
 20
448.2
 10
584.82
 20
438.76
 10
588.18
 20
436.24
 10
592.1
 20
434.8
 10
594.0
 20
436.0
 10
597.7
 20
445.1
 10
598.647059
 20
448.088235
 10
601.0
 20
456.0
 10
599.0
 20
459.0
 10
596.18
 20
461.24
 10
592.82
 20
463.76
 10
571.9
 20
475.8
 10
566.846154
 20
478.769231
 10
533.911765
 20
494.647059
 10
531.088235
 20
495.352941
 10
505.053846
 20
500.430769
 10
492.0
 20
502.0
 10
480.0
 20
502.0
 10
442.932432
 20
497.405405
 10
438.067568
 20
496.594595
 10
421.1
 20
491.7
 10
385.1
 20
479.7
 10
300.1
 20
445.8
 10
298.9
 20
445.2
 10
271.9
 20
435.3
 10
270.1
 20
434.7
 10
239.923077
 20
425.384615
 10
236.076923
 20
424.615385
 10
217.970817
 20
420.466926
 10
203.029183
 20
419.533074
 10
186.0
 20
419.0
 10
152.088235
 20
424.352941
 10
124.9
 20
434.8
 10
98.9
 20
447.8
 10
83.0
 20
457.0
 10
80.2
 20
451.9
 10
72.384615
 20
425.923077
 10
71.615385
 20
422.076923
 10
70.0
 20
415.0
 10
70.0
 20
381.0
 10
71.458824
 20
368.035294
 10
73.352941
 20
360.088235
 10
81.3
 20
333.1
 10
82.7
 20
328.9
 10
95.8
 20
297.9
 10
98.8
 20
291.9
 10
104.0
 20
281.0
 10
107.0
 20
278.0
 10
111.1
 20
276.2
 10
111.9
 20
275.8
 10
149.088235
 20
261.352941
 10
201.911765
 20
245.647059
 10
225.040984
 20
241.45082
 10
234.959016
 20
240.54918
 10
249.0
 20
240.0
 10
283.932432
 20
244.405405
 10
288.923077
 20
245.384615
 10
296.9
 20
248.2
 10
312.1
 20
254.8
 10
333.846154
 20
266.230769
 10
372.153846
 20
290.769231
 10
408.1
 20
310.7
 10
417.9
 20
314.3
 10
435.088235
 20
319.647059
 10
456.0
 20
324.0
 10
484.040984
 20
322.45082
 10
493.959016
 20
321.54918
 10
505.911765
 20
319.647059
 10
532.1
 20
312.3
 10
542.1
 20
309.3
 10
592.1
 20
292.3
 10
623.0
 20
280.0
  0
LWPOLYLINE
  5
3AF
330
1D
100
AcDbEntity
  8
0
  6
Continuous
 62
     7
100
AcDbPolyline
 90
       58
 70
     0
 43
0.0
 10
271.0
 20
188.0
 10
287.95122
 20
190.439024
 10
303.9
 20
194.3
 10
308.1
 20
195.7
 10
326.9
 20
202.2
 10
345.1
 20
209.8
 10
418.9
 20
252.2
 10
436.9
 20
260.2
 10
451.088235
 20
265.647059
 10
453.911765
 20
266.352941
 10
463.029183
 20
268.533074
 10
479.0
 20
270.0
 10
508.027586
 20
269.468966
 10
523.972414
 20
268.531034
 10
536.923077
 20
265.615385
 10
568.911765
 20
256.647059
 10
597.9
 20
247.7
 10
637.1
 20
231.2
 10
637.9
 20
230.8
 10
645.0
 20
227.0
 10
646.0
 20
228.0
 10
645.3
 20
230.1
 10
641.2
 20
242.1
 10
636.0
 20
252.0
 10
634.0
 20
254.0
 10
619.9
 20
260.8
 10
566.9
 20
281.7
 10
545.9
 20
288.7
 10
504.962069
 20
296.544828
 10
494.037931
 20
297.455172
 10
464.0
 20
298.0
 10
441.1
 20
292.7
 10
436.911765
 20
291.352941
 10
417.1
 20
283.8
 10
397.846154
 20
273.230769
 10
329.1
 20
232.8
 10
308.1
 20
224.8
 10
276.088235
 20
216.647059
 10
265.0
 20
215.0
 10
252.0
 20
215.0
 10
223.067568
 20
219.405405
 10
211.067568
 20
221.405405
 10
187.1
 20
227.3
 10
177.911765
 20
229.647059
 10
163.1
 20
234.3
 10
156.1
 20
237.3
 10
119.0
 20
254.0
 10
118.0
 20
253.0
 10
126.0
 20
230.0
 10
129.0
 20
227.0
 10
135.1
 20
224.2
 10
167.1
 20
209.2
 10
183.911765
 20
202.647059
 10
197.9
 20
198.7
 10
224.076923
 20
192.384615
 10
232.923077
 20
190.615385
 10
239.029183
 20
189.466926
 10
271.0
 20
188.0
  0
LWPOLYLINE
  5
3EB
330
1D
100
AcDbEntity
  8
0
  6
Continuous
 62
     7
100
AcDbPolyline
 90
       57
 70
     0
 43
0.0
 10
263.0
 20
137.0
 10
292.076923
 20
141.615385
 10
295.923077
 20
142.384615
 10
334.9
 20
154.3
 10
347.9
 20
159.3
 10
417.9
 20
193.2
 10
425.9
 20
197.2
 10
460.1
 20
210.7
 10
471.1
 20
214.7
 10
482.030973
 20
216.535398
 10
511.0
 20
219.0
 10
523.044554
 20
218.445545
 10
541.955446
 20
216.554455
 10
555.911765
 20
213.647059
 10
570.911765
 20
209.647059
 10
599.9
 20
199.7
 10
602.9
 20
198.7
 10
624.9
 20
188.8
 10
626.1
 20
188.2
 10
650.0
 20
177.0
 10
650.75
 20
177.25
 10
652.0
 20
191.0
 10
651.405405
 20
192.067568
 10
650.0
 20
200.0
 10
648.0
 20
202.0
 10
639.9
 20
206.8
 10
599.9
 20
223.7
 10
578.9
 20
231.7
 10
535.923077
 20
242.615385
 10
532.076923
 20
243.384615
 10
526.0
 20
245.0
 10
497.0
 20
245.0
 10
471.088235
 20
241.647059
 10
463.088235
 20
239.647059
 10
447.1
 20
234.7
 10
428.9
 20
227.2
 10
350.9
 20
186.2
 10
340.9
 20
182.2
 10
308.911765
 20
170.352941
 10
295.088235
 20
166.647059
 10
271.0
 20
163.0
 10
245.0
 20
163.0
 10
225.076923
 20
166.384615
 10
195.1
 20
174.3
 10
185.1
 20
177.3
 10
163.1
 20
186.3
 10
133.0
 20
201.0
 10
132.0
 20
200.0
 10
133.464602
 20
180.030973
 10
134.2
 20
178.1
 10
135.0
 20
176.0
 10
149.9
 20
166.8
 10
156.9
 20
162.8
 10
185.1
 20
149.3
 10
189.9
 20
147.7
 10
225.026154
 20
138.470769
 10
263.0
 20
137.0
  0
LWPOLYLINE
  5
426
330
1D
100
AcDbEntity
  8
0
  6
Continuous
 62
     7
100
AcDbPolyline
 90
       63
 70
     0
 43
0.0
 10
249.0
 20
82.0
 10
256.946154
 20
83.430769
 10
284.911765
 20
90.352941
 10
288.911765
 20
91.352941
 10
304.9
 20
96.2
 10
329.9
 20
105.3
 10
412.1
 20
138.8
 10
429.9
 20
145.3
 10
461.088235
 20
155.647059
 10
463.911765
 20
156.352941
 10
486.040984
 20
161.54918
 10
495.959016
 20
162.45082
 10
526.0
 20
164.0
 10
551.923077
 20
159.615385
 10
572.9
 20
153.7
 10
582.1
 20
150.3
 10
605.1
 20
140.2
 10
613.1
 20
136.2
 10
623.82
 20
130.76
 10
636.0
 20
122.0
 10
638.0
 20
122.0
 10
644.2
 20
137.9
 10
648.0
 20
149.0
 10
643.1
 20
152.2
 10
633.153846
 20
158.230769
 10
598.9
 20
175.7
 10
595.1
 20
177.2
 10
574.911765
 20
184.647059
 10
569.1
 20
186.3
 10
551.076923
 20
190.384615
 10
537.970817
 20
192.533074
 10
523.029183
 20
193.466926
 10
506.0
 20
194.0
 10
485.06
 20
190.58
 10
462.1
 20
184.7
 10
458.088235
 20
183.647059
 10
444.1
 20
178.8
 10
441.1
 20
177.7
 10
355.9
 20
140.2
 10
353.9
 20
139.2
 10
303.9
 20
120.3
 10
302.1
 20
119.7
 10
269.067568
 20
113.594595
 10
248.0
 20
110.0
 10
239.0
 20
110.0
 10
204.088235
 20
116.352941
 10
191.1
 20
120.3
 10
164.1
 20
130.2
 10
162.1
 20
131.2
 10
134.1
 20
147.2
 10
131.0
 20
148.0
 10
127.8
 20
143.1
 10
122.7
 20
131.1
 10
121.0
 20
127.0
 10
121.0
 20
121.0
 10
134.82
 20
110.76
 10
138.18
 20
108.24
 10
168.1
 20
93.3
 10
178.9
 20
88.8
 10
186.067568
 20
86.405405
 10
195.923077
 20
84.615385
 10
217.970817
 20
82.533074
 10
249.0
 20
82.0
  0
LWPOLYLINE
  5
467
330
1D
100
AcDbEntity
  8
0
  6
Continuous
 62
     7
100
AcDbPolyline
 90
      145
 70
     0
 43
0.0
 10
252.0
 20
51.0
 10
267.94
 20
53.42
 10
317.1
 20
66.7
 10
324.9
 20
69.3
 10
381.9
 20
92.2
 10
383.1
 20
92.8
 10
423.1
 20
109.8
 10
454.1
 20
120.7
 10
461.9
 20
123.3
 10
483.067568
 20
129.594595
 10
487.932432
 20
130.405405
 10
508.967005
 20
132.461929
 10
524.0
 20
133.0
 10
537.967005
 20
131.538071
 10
566.1
 20
123.2
 10
569.9
 20
121.7
 10
593.1
 20
111.2
 10
614.82
 20
98.76
 10
618.18
 20
96.24
 10
626.1
 20
92.2
 10
626.9
 20
91.8
 10
631.0
 20
90.0
 10
644.0
 20
90.0
 10
655.846154
 20
95.230769
 10
659.0
 20
97.0
 10
661.230769
 20
99.846154
 10
662.769231
 20
102.153846
 10
672.7
 20
123.1
 10
676.3
 20
132.9
 10
680.0
 20
142.0
 10
680.0
 20
150.0
 10
677.0
 20
159.0
 10
677.0
 20
162.0
 10
681.647059
 20
171.088235
 10
683.0
 20
175.0
 10
683.0
 20
200.0
 10
681.384615
 20
205.076923
 10
676.0
 20
220.0
 10
677.0
 20
221.0
 10
677.0
 20
234.0
 10
674.615385
 20
242.923077
 10
674.3
 20
244.1
 10
665.2
 20
264.1
 10
662.752212
 20
268.783186
 10
656.0
 20
276.0
 10
655.54918
 20
285.959016
 10
653.8
 20
290.9
 10
653.2
 20
292.1
 10
639.756098
 20
319.804878
 10
636.243902
 20
324.195122
 10
633.369295
 20
329.365145
 10
631.544828
 20
339.962069
 10
629.7
 20
345.9
 10
627.647059
 20
353.911765
 10
620.8
 20
369.9
 10
618.8
 20
373.9
 10
618.0
 20
375.0
 10
618.0
 20
381.0
 10
620.0
 20
389.0
 10
620.0
 20
399.0
 10
618.560976
 20
407.95122
 10
617.0
 20
413.0
 10
618.2
 20
416.9
 10
620.769231
 20
421.153846
 10
628.3
 20
438.9
 10
628.7
 20
440.1
 10
632.0
 20
454.0
 10
632.0
 20
462.0
 10
628.8
 20
469.9
 10
628.2
 20
471.1
 10
625.0
 20
477.0
 10
617.0
 20
485.0
 10
603.82
 20
494.76
 10
581.153846
 20
507.230769
 10
564.9
 20
515.7
 10
561.1
 20
517.2
 10
540.911765
 20
524.647059
 10
535.1
 20
526.3
 10
517.94
 20
530.58
 10
512.06
 20
531.42
 10
504.0
 20
533.0
 10
467.0
 20
533.0
 10
459.053846
 20
531.569231
 10
446.067568
 20
529.594595
 10
415.088235
 20
522.647059
 10
398.088235
 20
517.647059
 10
341.1
 20
496.7
 10
302.1
 20
479.8
 10
253.9
 20
461.3
 10
252.1
 20
460.7
 10
219.932432
 20
452.405405
 10
215.067568
 20
451.594595
 10
208.0
 20
450.0
 10
188.0
 20
450.0
 10
172.053846
 20
452.430769
 10
155.9
 20
456.7
 10
147.1
 20
459.3
 10
116.1
 20
474.2
 10
92.0
 20
488.0
 10
77.0
 20
488.0
 10
69.1
 20
484.8
 10
59.0
 20
478.0
 10
53.8
 20
469.1
 10
46.7
 20
451.1
 10
42.7
 20
437.1
 10
39.58
 20
422.06
 10
38.0
 20
410.0
 10
38.541176
 20
382.964706
 10
40.430769
 20
363.053846
 10
43.352941
 20
351.088235
 10
45.352941
 20
343.088235
 10
52.2
 20
321.1
 10
54.3
 20
315.1
 10
67.2
 20
286.1
 10
79.24
 20
263.18
 10
85.7
 20
253.9
 10
86.3
 20
252.1
 10
96.8
 20
217.9
 10
97.2
 20
217.1
 10
102.0
 20
210.0
 10
102.0
 20
206.0
 10
101.0
 20
205.0
 10
102.615385
 20
175.923077
 10
103.7
 20
170.9
 10
105.0
 20
167.0
 10
100.3
 20
158.9
 10
99.7
 20
157.1
 10
91.352941
 20
134.911765
 10
89.615385
 20
127.076923
 10
89.0
 20
120.0
 10
90.405405
 20
114.067568
 10
93.2
 20
107.1
 10
93.8
 20
105.9
 10
96.0
 20
101.0
 10
103.0
 20
94.0
 10
126.1
 20
79.2
 10
126.846154
 20
78.769231
 10
147.1
 20
68.3
 10
148.9
 20
67.7
 10
163.088235
 20
61.352941
 10
171.9
 20
58.7
 10
192.06
 20
53.42
 10
197.94
 20
52.58
 10
210.011351
 20
51.488108
 10
252.0
 20
51.0
  0
LWPOLYLINE
  5
4FA
330
1D
100
AcDbEntity
  8
0
  6
Continuous
 62
     7
100
AcDbPolyline
 90
      127
 70
     0
 43
0.0
 10
245.0
 20
35.0
 10
270.946154
 20
38.430769
 10
306.911765
 20
47.352941
 10
316.9
 20
50.3
 10
381.9
 20
74.3
 10
411.1
 20
88.7
 10
478.911765
 20
112.352941
 10
492.037931
 20
115.544828
 10
502.962069
 20
116.455172
 10
530.0
 20
117.0
 10
546.1
 20
113.3
 10
563.9
 20
107.8
 10
565.1
 20
107.2
 10
581.846154
 20
99.769231
 10
584.153846
 20
98.230769
 10
601.82
 20
88.76
 10
609.846154
 20
82.769231
 10
623.088235
 20
76.352941
 10
625.911765
 20
75.647059
 10
634.0
 20
74.0
 10
645.0
 20
74.0
 10
653.9
 20
77.2
 10
662.1
 20
80.8
 10
669.0
 20
85.0
 10
673.0
 20
89.0
 10
678.8
 20
98.1
 10
689.7
 20
125.1
 10
691.3
 20
129.9
 10
695.0
 20
139.0
 10
694.0
 20
160.0
 10
695.647059
 20
163.088235
 10
696.352941
 20
165.911765
 10
698.0
 20
173.0
 10
698.0
 20
205.0
 10
695.8
 20
213.9
 10
693.769231
 20
217.846154
 10
690.8
 20
242.9
 10
687.3
 20
252.1
 10
680.8
 20
266.9
 10
676.8
 20
274.9
 10
671.705882
 20
283.176471
 10
669.615385
 20
293.923077
 10
662.8
 20
308.9
 10
661.8
 20
310.9
 10
647.384615
 20
338.076923
 10
645.352941
 20
347.088235
 10
639.8
 20
366.9
 10
637.2
 20
373.1
 10
634.0
 20
379.0
 10
635.0
 20
380.0
 10
635.0
 20
409.0
 10
634.0
 20
410.0
 10
644.7
 20
439.1
 10
645.594595
 20
442.067568
 10
648.0
 20
460.0
 10
645.2
 20
471.1
 10
637.0
 20
488.0
 10
619.804878
 20
502.756098
 10
606.9
 20
510.8
 10
585.846154
 20
522.769231
 10
558.9
 20
534.7
 10
553.9
 20
536.7
 10
537.911765
 20
541.647059
 10
532.1
 20
543.3
 10
512.969027
 20
547.535398
 10
499.030973
 20
548.464602
 10
478.0
 20
549.0
 10
443.06
 20
545.58
 10
438.076923
 20
544.615385
 10
400.088235
 20
534.647059
 10
383.9
 20
529.3
 10
347.1
 20
515.7
 10
296.9
 20
494.2
 10
245.9
 20
475.3
 10
241.1
 20
473.7
 10
211.955446
 20
466.445545
 10
195.0
 20
465.0
 10
170.076923
 20
468.384615
 10
159.076923
 20
471.384615
 10
151.1
 20
475.2
 10
143.1
 20
478.3
 10
124.1
 20
487.2
 10
96.0
 20
504.0
 10
81.0
 20
504.0
 10
74.06
 20
502.58
 10
65.9
 20
500.2
 10
63.9
 20
499.3
 10
58.153846
 20
496.769231
 10
51.0
 20
492.0
 10
47.76
 20
488.18
 10
42.24
 20
480.82
 10
32.3
 20
457.9
 10
31.7
 20
456.1
 10
23.0
 20
421.0
 10
23.0
 20
373.0
 10
31.352941
 20
335.088235
 10
40.3
 20
308.1
 10
52.2
 20
281.1
 10
52.8
 20
279.9
 10
64.243902
 20
257.195122
 10
68.243902
 20
252.195122
 10
70.875912
 20
247.591241
 10
72.8
 20
239.9
 10
83.230769
 20
210.153846
 10
86.0
 20
206.0
 10
86.0
 20
204.0
 10
85.0
 20
203.0
 10
86.615385
 20
173.923077
 10
87.384615
 20
170.076923
 10
82.3
 20
156.9
 10
79.7
 20
150.1
 10
74.0
 20
127.0
 10
74.0
 20
118.0
 10
75.430769
 20
110.053846
 10
77.2
 20
105.1
 10
78.3
 20
102.1
 10
82.230769
 20
95.153846
 10
88.0
 20
87.0
 10
93.82
 20
81.76
 10
101.18
 20
76.24
 10
120.1
 20
65.2
 10
140.9
 20
53.8
 10
165.088235
 20
44.352941
 10
178.911765
 20
40.647059
 10
195.946154
 20
37.569231
 10
224.021649
 20
35.476289
 10
245.0
 20
35.0
  0
ENDSEC
  0
SECTION
  2
OBJECTS
  0
DICTIONARY
  5
C
330
0
100
AcDbDictionary
281
     1
  3
ACAD_GROUP
350
D
  3
ACAD_LAYOUT
350
1A
  3
ACAD_MATERIAL
350
23
  3
ACAD_MLEADERSTYLE
350
5A3
  3
ACAD_MLINESTYLE
350
17
  3
ACAD_PLOTSETTINGS
350
19
  3
ACAD_PLOTSTYLENAME
350
E
  3
ACAD_SCALELIST
350
57F
  3
AcDbVariableDictionary
350
5A1
  0
DICTIONARY
  5
D
102
{ACAD_REACTORS
330
C
102
}
330
C
100
AcDbDictionary
281
     1
  0
DICTIONARY
  5
1A
102
{ACAD_REACTORS
330
C
102
}
330
C
100
AcDbDictionary
281
     1
  3
Layout1
350
1C
  3
Model
350
1E
  0
DICTIONARY
  5
23
102
{ACAD_REACTORS
330
C
102
}
330
C
100
AcDbDictionary
281
     1
  3
ByBlock
350
25
  3
ByLayer
350
24
  3
Global
350
26
  0
DICTIONARY
  5
5A3
102
{ACAD_REACTORS
330
C
102
}
330
C
100
AcDbDictionary
281
     1
  0
DICTIONARY
  5
17
102
{ACAD_REACTORS
330
C
102
}
330
C
100
AcDbDictionary
281
     1
  3
Standard
350
18
  0
DICTIONARY
  5
19
102
{ACAD_REACTORS
330
C
102
}
330
C
100
AcDbDictionary
281
     1
  0
ACDBDICTIONARYWDFLT
  5
E
102
{ACAD_REACTORS
330
C
102
}
330
C
100
AcDbDictionary
281
     1
  3
Normal
350
F
100
AcDbDictionaryWithDefault
340
F
  0
DICTIONARY
  5
57F
102
{ACAD_REACTORS
330
C
102
}
330
C
100
AcDbDictionary
281
     1
  3
A0
350
580
  3
A1
350
581
  3
A2
350
582
  3
A3
350
583
  3
A4
350
584
  3
A5
350
585
  3
A6
350
586
  3
A7
350
587
  3
A8
350
588
  3
A9
350
589
  3
B0
350
58A
  3
B1
350
58B
  3
B2
350
58C
  3
B3
350
58D
  3
B4
350
58E
  3
B5
350
58F
  3
B6
350
590
  3
B7
350
591
  3
B8
350
592
  3
B9
350
593
  3
C0
350
594
  3
C1
350
595
  3
C2
350
596
  3
C3
350
597
  3
C4
350
598
  3
C5
350
599
  3
C6
350
59A
  3
C7
350
59B
  3
C8
350
59C
  3
C9
350
59D
  3
D0
350
59E
  3
D1
350
59F
  3
D2
350
5A0
  0
DICTIONARY
  5
5A1
102
{ACAD_REACTORS
330
C
102
}
330
C
100
AcDbDictionary
281
     1
  3
CANNOSCALE
350
5A4
  3
DIMASSOC
350
5A5
  3
HIDETEXT
350
5A6
  0
LAYOUT
  5
1C
102
{ACAD_REACTORS
330
1A
102
}
330
1A
100
AcDbPlotSettings
  1

  2
none_device
  4

  6

 40
0.0
 41
0.0
 42
0.0
 43
0.0
 44
0.0
 45
0.0
 46
0.0
 47
0.0
 48
0.0
 49
0.0
140
0.0
141
0.0
142
1.0
143
1.0
 70
   688
 72
     0
 73
     0
 74
     5
  7

 75
    16
147
1.0
148
0.0
149
0.0
100
AcDbLayout
  1
Layout1
 70
     1
 71
     1
 10
0.0
 20
0.0
 11
12.0
 21
9.0
 12
0.0
 22
0.0
 32
0.0
 14
1.000000000000000E+20
 24
1.000000000000000E+20
 34
1.000000000000000E+20
 15
-1.000000000000000E+20
 25
-1.000000000000000E+20
 35
-1.000000000000000E+20
146
0.0
 13
0.0
 23
0.0
 33
0.0
 16
1.0
 26
0.0
 36
0.0
 17
0.0
 27
1.0
 37
0.0
 76
     0
330
1B
  0
LAYOUT
  5
1E
102
{ACAD_REACTORS
330
1A
102
}
330
1A
100
AcDbPlotSettings
  1

  2
none_device
  4

  6

 40
0.0
 41
0.0
 42
0.0
 43
0.0
 44
0.0
 45
0.0
 46
0.0
 47
0.0
 48
0.0
 49
0.0
140
0.0
141
0.0
142
1.0
143
1.0
 70
  1712
 72
     0
 73
     0
 74
     0
  7

 75
     0
147
1.0
148
0.0
149
0.0
100
AcDbLayout
  1
Model
 70
     1
 71
     0
 10
0.0
 20
0.0
 11
12.0
 21
9.0
 12
0.0
 22
0.0
 32
0.0
 14
0.0
 24
0.0
 34
0.0
 15
726.0
 25
590.0
 35
0.0
146
0.0
 13
0.0
 23
0.0
 33
0.0
 16
1.0
 26
0.0
 36
0.0
 17
0.0
 27
1.0
 37
0.0
 76
     0
330
1D
331
20
  0
MATERIAL
  5
25
102
{ACAD_REACTORS
330
23
102
}
102
{ACAD_XDICTIONARY
360
5A9
102
}
330
23
100
AcDbMaterial
  1
ByBlock
  0
MATERIAL
  5
24
102
{ACAD_REACTORS
330
23
102
}
102
{ACAD_XDICTIONARY
360
5A7
102
}
330
23
100
AcDbMaterial
  1
ByLayer
  0
MATERIAL
  5
26
102
{ACAD_REACTORS
330
23
102
}
102
{ACAD_XDICTIONARY
360
5AB
102
}
330
23
100
AcDbMaterial
  1
Global
  0
MLINESTYLE
  5
18
102
{ACAD_REACTORS
330
17
102
}
330
17
100
AcDbMlineStyle
  2
Standard
 70
     0
  3

 62
   256
 51
90.0
 52
90.0
 71
     2
 49
0.5
 62
   256
  6
BYLAYER
 49
-0.5
 62
   256
  6
BYLAYER
  0
ACDBPLACEHOLDER
  5
F
102
{ACAD_REACTORS
330
E
102
}
330
E
  0
SCALE
  5
580
102
{ACAD_REACTORS
330
57F
102
}
330
57F
100
AcDbScale
 70
     0
300
1:1
140
1.0
141
1.0
290
     1
  0
SCALE
  5
581
102
{ACAD_REACTORS
330
57F
102
}
330
57F
100
AcDbScale
 70
     0
300
1:2
140
1.0
141
2.0
290
     0
  0
SCALE
  5
582
102
{ACAD_REACTORS
330
57F
102
}
330
57F
100
AcDbScale
 70
     0
300
1:4
140
1.0
141
4.0
290
     0
  0
SCALE
  5
583
102
{ACAD_REACTORS
330
57F
102
}
330
57F
100
AcDbScale
 70
     0
300
1:5
140
1.0
141
5.0
290
     0
  0
SCALE
  5
584
102
{ACAD_REACTORS
330
57F
102
}
330
57F
100
AcDbScale
 70
     0
300
1:8
140
1.0
141
8.0
290
     0
  0
SCALE
  5
585
102
{ACAD_REACTORS
330
57F
102
}
330
57F
100
AcDbScale
 70
     0
300
1:10
140
1.0
141
10.0
290
     0
  0
SCALE
  5
586
102
{ACAD_REACTORS
330
57F
102
}
330
57F
100
AcDbScale
 70
     0
300
1:16
140
1.0
141
16.0
290
     0
  0
SCALE
  5
587
102
{ACAD_REACTORS
330
57F
102
}
330
57F
100
AcDbScale
 70
     0
300
1:20
140
1.0
141
20.0
290
     0
  0
SCALE
  5
588
102
{ACAD_REACTORS
330
57F
102
}
330
57F
100
AcDbScale
 70
     0
300
1:30
140
1.0
141
30.0
290
     0
  0
SCALE
  5
589
102
{ACAD_REACTORS
330
57F
102
}
330
57F
100
AcDbScale
 70
     0
300
1:40
140
1.0
141
40.0
290
     0
  0
SCALE
  5
58A
102
{ACAD_REACTORS
330
57F
102
}
330
57F
100
AcDbScale
 70
     0
300
1:50
140
1.0
141
50.0
290
     0
  0
SCALE
  5
58B
102
{ACAD_REACTORS
330
57F
102
}
330
57F
100
AcDbScale
 70
     0
300
1:100
140
1.0
141
100.0
290
     0
  0
SCALE
  5
58C
102
{ACAD_REACTORS
330
57F
102
}
330
57F
100
AcDbScale
 70
     0
300
2:1
140
2.0
141
1.0
290
     0
  0
SCALE
  5
58D
102
{ACAD_REACTORS
330
57F
102
}
330
57F
100
AcDbScale
 70
     0
300
4:1
140
4.0
141
1.0
290
     0
  0
SCALE
  5
58E
102
{ACAD_REACTORS
330
57F
102
}
330
57F
100
AcDbScale
 70
     0
300
8:1
140
8.0
141
1.0
290
     0
  0
SCALE
  5
58F
102
{ACAD_REACTORS
330
57F
102
}
330
57F
100
AcDbScale
 70
     0
300
10:1
140
10.0
141
1.0
290
     0
  0
SCALE
  5
590
102
{ACAD_REACTORS
330
57F
102
}
330
57F
100
AcDbScale
 70
     0
300
100:1
140
100.0
141
1.0
290
     0
  0
SCALE
  5
591
102
{ACAD_REACTORS
330
57F
102
}
330
57F
100
AcDbScale
 70
     0
300
1/128" = 1'-0"
140
0.0078125
141
12.0
290
     0
  0
SCALE
  5
592
102
{ACAD_REACTORS
330
57F
102
}
330
57F
100
AcDbScale
 70
     0
300
1/64" = 1'-0"
140
0.015625
141
12.0
290
     0
  0
SCALE
  5
593
102
{ACAD_REACTORS
330
57F
102
}
330
57F
100
AcDbScale
 70
     0
300
1/32" = 1'-0"
140
0.03125
141
12.0
290
     0
  0
SCALE
  5
594
102
{ACAD_REACTORS
330
57F
102
}
330
57F
100
AcDbScale
 70
     0
300
1/16" = 1'-0"
140
0.0625
141
12.0
290
     0
  0
SCALE
  5
595
102
{ACAD_REACTORS
330
57F
102
}
330
57F
100
AcDbScale
 70
     0
300
3/32" = 1'-0"
140
0.09375
141
12.0
290
     0
  0
SCALE
  5
596
102
{ACAD_REACTORS
330
57F
102
}
330
57F
100
AcDbScale
 70
     0
300
1/8" = 1'-0"
140
0.125
141
12.0
290
     0
  0
SCALE
  5
597
102
{ACAD_REACTORS
330
57F
102
}
330
57F
100
AcDbScale
 70
     0
300
3/16" = 1'-0"
140
0.1875
141
12.0
290
     0
  0
SCALE
  5
598
102
{ACAD_REACTORS
330
57F
102
}
330
57F
100
AcDbScale
 70
     0
300
1/4" = 1'-0"
140
0.25
141
12.0
290
     0
  0
SCALE
  5
599
102
{ACAD_REACTORS
330
57F
102
}
330
57F
100
AcDbScale
 70
     0
300
3/8" = 1'-0"
140
0.375
141
12.0
290
     0
  0
SCALE
  5
59A
102
{ACAD_REACTORS
330
57F
102
}
330
57F
100
AcDbScale
 70
     0
300
1/2" = 1'-0"
140
0.5
141
12.0
290
     0
  0
SCALE
  5
59B
102
{ACAD_REACTORS
330
57F
102
}
330
57F
100
AcDbScale
 70
     0
300
3/4" = 1'-0"
140
0.75
141
12.0
290
     0
  0
SCALE
  5
59C
102
{ACAD_REACTORS
330
57F
102
}
330
57F
100
AcDbScale
 70
     0
300
1" = 1'-0"
140
1.0
141
12.0
290
     0
  0
SCALE
  5
59D
102
{ACAD_REACTORS
330
57F
102
}
330
57F
100
AcDbScale
 70
     0
300
1-1/2" = 1'-0"
140
1.5
141
12.0
290
     0
  0
SCALE
  5
59E
102
{ACAD_REACTORS
330
57F
102
}
330
57F
100
AcDbScale
 70
     0
300
3" = 1'-0"
140
3.0
141
12.0
290
     0
  0
SCALE
  5
59F
102
{ACAD_REACTORS
330
57F
102
}
330
57F
100
AcDbScale
 70
     0
300
6" = 1'-0"
140
6.0
141
12.0
290
     0
  0
SCALE
  5
5A0
102
{ACAD_REACTORS
330
57F
102
}
330
57F
100
AcDbScale
 70
     0
300
1'-0" = 1'-0"
140
12.0
141
12.0
290
     0
  0
DICTIONARYVAR
  5
5A4
102
{ACAD_REACTORS
330
5A1
102
}
330
5A1
100
DictionaryVariables
280
     0
  1
1:1
  0
DICTIONARYVAR
  5
5A5
102
{ACAD_REACTORS
330
5A1
102
}
330
5A1
100
DictionaryVariables
280
     0
  1
2
  0
DICTIONARYVAR
  5
5A6
102
{ACAD_REACTORS
330
5A1
102
}
330
5A1
100
DictionaryVariables
280
     0
  1
1
  0
DICTIONARY
  5
5A9
330
25
100
AcDbDictionary
280
     1
281
     1
  3
ACAD_XREC_ROUNDTRIP
360
5AA
  0
DICTIONARY
  5
5A7
330
24
100
AcDbDictionary
280
     1
281
     1
  3
ACAD_XREC_ROUNDTRIP
360
5A8
  0
DICTIONARY
  5
5AB
330
26
100
AcDbDictionary
280
     1
281
     1
  3
ACAD_XREC_ROUNDTRIP
360
5AC
  0
XRECORD
  5
5AA
102
{ACAD_REACTORS
330
5A9
102
}
330
5A9
100
AcDbXrecord
280
     1
102
MATERIAL
148
0.0
149
0.0
149
0.0
 93
        0
 94
      127
282
     0
 72
     1
 77
     1
171
     1
175
     1
179
     1
273
     0
  0
XRECORD
  5
5A8
102
{ACAD_REACTORS
330
5A7
102
}
330
5A7
100
AcDbXrecord
280
     1
102
MATERIAL
148
0.0
149
0.0
149
0.0
 93
        0
 94
      127
282
     0
 72
     1
 77
     1
171
     1
175
     1
179
     1
273
     0
  0
XRECORD
  5
5AC
102
{ACAD_REACTORS
330
5AB
102
}
330
5AB
100
AcDbXrecord
280
     1
102
MATERIAL
148
0.0
149
0.0
149
0.0
 93
        0
 94
      127
282
     0
 72
     1
 77
     1
171
     1
175
     1
179
     1
273
     0
  0
ENDSEC
  0
EOF
