  0
SECTION
  2
HEADER
  9
$ACADVER
  1
AC1014
  9
$ACADMAINTVER
 70
     9
  9
$DWGCODEPAGE
  3
ANSI_1252
  9
$INSBASE
 10
0.0
 20
0.0
 30
0.0
  9
$EXTMIN
 10
1.000000000000000E+20
 20
1.000000000000000E+20
 30
1.000000000000000E+20
  9
$EXTMAX
 10
-1.000000000000000E+20
 20
-1.000000000000000E+20
 30
-1.000000000000000E+20
  9
$LIMMIN
 10
0.0
 20
0.0
  9
$LIMMAX
 10
12.0
 20
9.0
  9
$ORTHOMODE
 70
     0
  9
$REGENMODE
 70
     1
  9
$FILLMODE
 70
     1
  9
$QTEXTMODE
 70
     0
  9
$MIRRTEXT
 70
     1
  9
$DRAGMODE
 70
     2
  9
$LTSCALE
 40
1.0
  9
$OSMODE
 70
    37
  9
$ATTMODE
 70
     1
  9
$TEXTSIZE
 40
0.2
  9
$TRACEWID
 40
0.05
  9
$TEXTSTYLE
  7
STANDARD
  9
$CLAYER
  8
0
  9
$CELTYPE
  6
BYLAYER
  9
$CECOLOR
 62
   256
  9
$CELTSCALE
 40
1.0
  9
$DELOBJ
 70
     1
  9
$DISPSILH
 70
     0
  9
$DIMSCALE
 40
1.0
  9
$DIMASZ
 40
0.18
  9
$DIMEXO
 40
0.0625
  9
$DIMDLI
 40
0.38
  9
$DIMRND
 40
0.0
  9
$DIMDLE
 40
0.0
  9
$DIMEXE
 40
0.18
  9
$DIMTP
 40
0.0
  9
$DIMTM
 40
0.0
  9
$DIMTXT
 40
0.18
  9
$DIMCEN
 40
0.09
  9
$DIMTSZ
 40
0.0
  9
$DIMTOL
 70
     0
  9
$DIMLIM
 70
     0
  9
$DIMTIH
 70
     1
  9
$DIMTOH
 70
     1
  9
$DIMSE1
 70
     0
  9
$DIMSE2
 70
     0
  9
$DIMTAD
 70
     0
  9
$DIMZIN
 70
     0
  9
$DIMBLK
  1

  9
$DIMASO
 70
     1
  9
$DIMSHO
 70
     1
  9
$DIMPOST
  1

  9
$DIMAPOST
  1

  9
$DIMALT
 70
     0
  9
$DIMALTD
 70
     2
  9
$DIMALTF
 40
25.4
  9
$DIMLFAC
 40
1.0
  9
$DIMTOFL
 70
     0
  9
$DIMTVP
 40
0.0
  9
$DIMTIX
 70
     0
  9
$DIMSOXD
 70
     0
  9
$DIMSAH
 70
     0
  9
$DIMBLK1
  1

  9
$DIMBLK2
  1

  9
$DIMSTYLE
  2
STANDARD
  9
$DIMCLRD
 70
     0
  9
$DIMCLRE
 70
     0
  9
$DIMCLRT
 70
     0
  9
$DIMTFAC
 40
1.0
  9
$DIMGAP
 40
0.09
  9
$DIMJUST
 70
     0
  9
$DIMSD1
 70
     0
  9
$DIMSD2
 70
     0
  9
$DIMTOLJ
 70
     1
  9
$DIMTZIN
 70
     0
  9
$DIMALTZ
 70
     0
  9
$DIMALTTZ
 70
     0
  9
$DIMFIT
 70
     3
  9
$DIMUPT
 70
     0
  9
$DIMUNIT
 70
     2
  9
$DIMDEC
 70
     4
  9
$DIMTDEC
 70
     4
  9
$DIMALTU
 70
     2
  9
$DIMALTTD
 70
     2
  9
$DIMTXSTY
  7
STANDARD
  9
$DIMAUNIT
 70
     0
  9
$LUNITS
 70
     2
  9
$LUPREC
 70
     4
  9
$SKETCHINC
 40
0.1
  9
$FILLETRAD
 40
0.5
  9
$AUNITS
 70
     0
  9
$AUPREC
 70
     0
  9
$MENU
  1
.
  9
$ELEVATION
 40
0.0
  9
$PELEVATION
 40
0.0
  9
$THICKNESS
 40
0.0
  9
$LIMCHECK
 70
     0
  9
$CHAMFERA
 40
0.0
  9
$CHAMFERB
 40
0.0
  9
$CHAMFERC
 40
0.0
  9
$CHAMFERD
 40
0.0
  9
$SKPOLY
 70
     0
  9
$TDCREATE
 40
2458368.637587847
  9
$TDUPDATE
 40
2458368.637587905
  9
$TDINDWG
 40
0.0000000116
  9
$TDUSRTIMER
 40
0.0000000116
  9
$USRTIMER
 70
     1
  9
$ANGBASE
 50
0.0
  9
$ANGDIR
 70
     0
  9
$PDMODE
 70
     0
  9
$PDSIZE
 40
0.0
  9
$PLINEWID
 40
0.0
  9
$COORDS
 70
     1
  9
$SPLFRAME
 70
     0
  9
$SPLINETYPE
 70
     6
  9
$SPLINESEGS
 70
     8
  9
$ATTDIA
 70
     0
  9
$ATTREQ
 70
     1
  9
$HANDLING
 70
     1
  9
$HANDSEED
  5
22E
  9
$SURFTAB1
 70
     6
  9
$SURFTAB2
 70
     6
  9
$SURFTYPE
 70
     6
  9
$SURFU
 70
     6
  9
$SURFV
 70
     6
  9
$UCSNAME
  2

  9
$UCSORG
 10
0.0
 20
0.0
 30
0.0
  9
$UCSXDIR
 10
1.0
 20
0.0
 30
0.0
  9
$UCSYDIR
 10
0.0
 20
1.0
 30
0.0
  9
$PUCSNAME
  2

  9
$PUCSORG
 10
0.0
 20
0.0
 30
0.0
  9
$PUCSXDIR
 10
1.0
 20
0.0
 30
0.0
  9
$PUCSYDIR
 10
0.0
 20
1.0
 30
0.0
  9
$USERI1
 70
     0
  9
$USERI2
 70
     0
  9
$USERI3
 70
     0
  9
$USERI4
 70
     0
  9
$USERI5
 70
     0
  9
$USERR1
 40
0.0
  9
$USERR2
 40
0.0
  9
$USERR3
 40
0.0
  9
$USERR4
 40
0.0
  9
$USERR5
 40
0.0
  9
$WORLDVIEW
 70
     1
  9
$SHADEDGE
 70
     3
  9
$SHADEDIF
 70
    70
  9
$TILEMODE
 70
     1
  9
$MAXACTVP
 70
    64
  9
$PINSBASE
 10
0.0
 20
0.0
 30
0.0
  9
$PLIMCHECK
 70
     0
  9
$PEXTMIN
 10
1.000000000000000E+20
 20
1.000000000000000E+20
 30
1.000000000000000E+20
  9
$PEXTMAX
 10
-1.000000000000000E+20
 20
-1.000000000000000E+20
 30
-1.000000000000000E+20
  9
$PLIMMIN
 10
0.0
 20
0.0
  9
$PLIMMAX
 10
12.0
 20
9.0
  9
$UNITMODE
 70
     0
  9
$VISRETAIN
 70
     1
  9
$PLINEGEN
 70
     0
  9
$PSLTSCALE
 70
     1
  9
$TREEDEPTH
 70
  3020
  9
$PICKSTYLE
 70
     1
  9
$CMLSTYLE
  2
STANDARD
  9
$CMLJUST
 70
     0
  9
$CMLSCALE
 40
1.0
  9
$PROXYGRAPHICS
 70
     1
  9
$MEASUREMENT
 70
     0
  0
ENDSEC
  0
SECTION
  2
CLASSES
  0
CLASS
  1
ACDBDICTIONARYWDFLT
  2
AcDbDictionaryWithDefault
  3
ObjectDBX Classes
 90
        0
280
     0
281
     0
  0
CLASS
  1
VISUALSTYLE
  2
AcDbVisualStyle
  3
ObjectDBX Classes
 90
     4095
280
     0
281
     0
  0
CLASS
  1
MATERIAL
  2
AcDbMaterial
  3
ObjectDBX Classes
 90
     1153
280
     0
281
     0
  0
CLASS
  1
SCALE
  2
AcDbScale
  3
ObjectDBX Classes
 90
     1153
280
     0
281
     0
  0
CLASS
  1
TABLESTYLE
  2
AcDbTableStyle
  3
ObjectDBX Classes
 90
     4095
280
     0
281
     0
  0
CLASS
  1
MLEADERSTYLE
  2
AcDbMLeaderStyle
  3
ACDB_MLEADERSTYLE_CLASS
 90
     4095
280
     0
281
     0
  0
CLASS
  1
SUN
  2
AcDbSun
  3
SCENEOE
 90
     1153
280
     0
281
     0
  0
CLASS
  1
DICTIONARYVAR
  2
AcDbDictionaryVar
  3
ObjectDBX Classes
 90
        0
280
     0
281
     0
  0
CLASS
  1
XRECORD
  2
AcDbXrecord
  3
ObjectDBX Classes
 90
        0
280
     0
281
     0
  0
CLASS
  1
LWPOLYLINE
  2
AcDbPolyline
  3
ObjectDBX Classes
 90
        0
280
     0
281
     1
  0
CLASS
  1
HATCH
  2
AcDbHatch
  3
ObjectDBX Classes
 90
        0
280
     0
281
     1
  0
CLASS
  1
ACDBPLACEHOLDER
  2
AcDbPlaceHolder
  3
ObjectDBX Classes
 90
        0
280
     0
281
     0
  0
CLASS
  1
LAYOUT
  2
AcDbLayout
  3
ObjectDBX Classes
 90
        0
280
     0
281
     0
  0
ENDSEC
  0
SECTION
  2
TABLES
  0
TABLE
  2
VPORT
  5
8
102
{ACAD_XDICTIONARY
360
223
102
}
330
0
100
AcDbSymbolTable
 70
     1
  0
VPORT
  5
29
330
8
100
AcDbSymbolTableRecord
100
AcDbViewportTableRecord
  2
*ACTIVE
 70
     0
 10
0.0
 20
0.0
 11
1.0
 21
1.0
 12
0.0
 22
0.0
 13
0.0
 23
0.0
 14
0.5
 24
0.5
 15
0.5
 25
0.5
 16
0.0
 26
0.0
 36
18.03869639323524
 17
1.068635891306514
 27
4.260410348947886
 37
0.0
 40
8.658574268752915
 41
1.3333
 42
50.0
 43
-17.03869639323524
 44
981.9613036067648
 50
0.0
 51
0.0
 71
     0
 72
   100
 73
     1
 74
     3
 75
     0
 76
     0
 77
     0
 78
     0
  0
ENDTAB
  0
TABLE
  2
LTYPE
  5
5
330
0
100
AcDbSymbolTable
 70
     1
  0
LTYPE
  5
14
330
5
100
AcDbSymbolTableRecord
100
AcDbLinetypeTableRecord
  2
BYBLOCK
 70
     0
  3

 72
    65
 73
     0
 40
0.0
  0
LTYPE
  5
15
330
5
100
AcDbSymbolTableRecord
100
AcDbLinetypeTableRecord
  2
BYLAYER
 70
     0
  3

 72
    65
 73
     0
 40
0.0
  0
LTYPE
  5
16
330
5
100
AcDbSymbolTableRecord
100
AcDbLinetypeTableRecord
  2
CONTINUOUS
 70
     0
  3
Solid line
 72
    65
 73
     0
 40
0.0
  0
ENDTAB
  0
TABLE
  2
LAYER
  5
2
330
0
100
AcDbSymbolTable
 70
     1
  0
LAYER
  5
10
330
2
100
AcDbSymbolTableRecord
100
AcDbLayerTableRecord
  2
0
 70
     0
 62
    13
  6
CONTINUOUS
  0
ENDTAB
  0
TABLE
  2
STYLE
  5
3
330
0
100
AcDbSymbolTable
 70
     2
  0
STYLE
  5
11
330
3
100
AcDbSymbolTableRecord
100
AcDbTextStyleTableRecord
  2
STANDARD
 70
     0
 40
0.0
 41
1.0
 50
0.0
 71
     0
 42
0.2
  3
txt
  4

  0
STYLE
  5
6E
330
3
100
AcDbSymbolTableRecord
100
AcDbTextStyleTableRecord
  2
TAHOMA
 70
     0
 40
0.0
 41
1.0
 50
0.0
 71
     0
 42
0.2
  3
Tahoma
  4

1001
ACAD
1000
Tahoma
1071
       34
  0
ENDTAB
  0
TABLE
  2
VIEW
  5
6
330
0
100
AcDbSymbolTable
 70
     0
  0
ENDTAB
  0
TABLE
  2
UCS
  5
7
330
0
100
AcDbSymbolTable
 70
     0
  0
ENDTAB
  0
TABLE
  2
APPID
  5
9
330
0
100
AcDbSymbolTable
 70
     2
  0
APPID
  5
12
330
9
100
AcDbSymbolTableRecord
100
AcDbRegAppTableRecord
  2
ACAD
 70
     0
  0
APPID
  5
22D
330
9
100
AcDbSymbolTableRecord
100
AcDbRegAppTableRecord
  2
ACAD_MLEADERVER
 70
     0
  0
ENDTAB
  0
TABLE
  2
DIMSTYLE
  5
A
330
0
100
AcDbSymbolTable
 70
     1
  0
DIMSTYLE
105
27
330
A
100
AcDbSymbolTableRecord
100
AcDbDimStyleTableRecord
  2
STANDARD
 70
     0
  3

  4

  5

  6

  7

 40
1.0
 41
0.18
 42
0.0625
 43
0.38
 44
0.18
 45
0.0
 46
0.0
 47
0.0
 48
0.0
140
0.18
141
0.09
142
0.0
143
25.4
144
1.0
145
0.0
146
1.0
147
0.09
 71
     0
 72
     0
 73
     1
 74
     1
 75
     0
 76
     0
 77
     0
 78
     0
170
     0
171
     2
172
     0
173
     0
174
     0
175
     0
176
     0
177
     0
178
     0
270
     2
271
     4
272
     4
273
     2
274
     2
340
11
275
     0
280
     0
281
     0
282
     0
283
     1
284
     0
285
     0
286
     0
287
     3
288
     0
  0
ENDTAB
  0
TABLE
  2
BLOCK_RECORD
  5
1
330
0
100
AcDbSymbolTable
 70
    26
  0
BLOCK_RECORD
  5
1F
330
1
100
AcDbSymbolTableRecord
100
AcDbBlockTableRecord
  2
*MODEL_SPACE
  0
BLOCK_RECORD
  5
1B
330
1
100
AcDbSymbolTableRecord
100
AcDbBlockTableRecord
  2
*PAPER_SPACE
  0
BLOCK_RECORD
  5
6F
330
1
100
AcDbSymbolTableRecord
100
AcDbBlockTableRecord
  2
BLOCK_25
  0
BLOCK_RECORD
  5
72
330
1
100
AcDbSymbolTableRecord
100
AcDbBlockTableRecord
  2
BLOCK_24
  0
BLOCK_RECORD
  5
75
330
1
100
AcDbSymbolTableRecord
100
AcDbBlockTableRecord
  2
BLOCK_23
  0
BLOCK_RECORD
  5
78
330
1
100
AcDbSymbolTableRecord
100
AcDbBlockTableRecord
  2
BLOCK_22
  0
BLOCK_RECORD
  5
7B
330
1
100
AcDbSymbolTableRecord
100
AcDbBlockTableRecord
  2
BLOCK_21
  0
BLOCK_RECORD
  5
7E
330
1
100
AcDbSymbolTableRecord
100
AcDbBlockTableRecord
  2
BLOCK_20
  0
BLOCK_RECORD
  5
81
330
1
100
AcDbSymbolTableRecord
100
AcDbBlockTableRecord
  2
BLOCK_19
  0
BLOCK_RECORD
  5
84
330
1
100
AcDbSymbolTableRecord
100
AcDbBlockTableRecord
  2
BLOCK_18
  0
BLOCK_RECORD
  5
87
330
1
100
AcDbSymbolTableRecord
100
AcDbBlockTableRecord
  2
BLOCK_17
  0
BLOCK_RECORD
  5
8A
330
1
100
AcDbSymbolTableRecord
100
AcDbBlockTableRecord
  2
BLOCK_16
  0
BLOCK_RECORD
  5
8D
330
1
100
AcDbSymbolTableRecord
100
AcDbBlockTableRecord
  2
BLOCK_15
  0
BLOCK_RECORD
  5
90
330
1
100
AcDbSymbolTableRecord
100
AcDbBlockTableRecord
  2
BLOCK_14
  0
BLOCK_RECORD
  5
93
330
1
100
AcDbSymbolTableRecord
100
AcDbBlockTableRecord
  2
BLOCK_13
  0
BLOCK_RECORD
  5
96
330
1
100
AcDbSymbolTableRecord
100
AcDbBlockTableRecord
  2
BLOCK_12
  0
BLOCK_RECORD
  5
99
330
1
100
AcDbSymbolTableRecord
100
AcDbBlockTableRecord
  2
BLOCK_11
  0
BLOCK_RECORD
  5
9C
330
1
100
AcDbSymbolTableRecord
100
AcDbBlockTableRecord
  2
BLOCK_10
  0
BLOCK_RECORD
  5
9F
330
1
100
AcDbSymbolTableRecord
100
AcDbBlockTableRecord
  2
BLOCK_9
  0
BLOCK_RECORD
  5
A2
330
1
100
AcDbSymbolTableRecord
100
AcDbBlockTableRecord
  2
BLOCK_8
  0
BLOCK_RECORD
  5
A5
330
1
100
AcDbSymbolTableRecord
100
AcDbBlockTableRecord
  2
BLOCK_7
  0
BLOCK_RECORD
  5
A8
330
1
100
AcDbSymbolTableRecord
100
AcDbBlockTableRecord
  2
BLOCK_6
  0
BLOCK_RECORD
  5
AB
330
1
100
AcDbSymbolTableRecord
100
AcDbBlockTableRecord
  2
BLOCK_5
  0
BLOCK_RECORD
  5
AE
330
1
100
AcDbSymbolTableRecord
100
AcDbBlockTableRecord
  2
BLOCK_4
  0
BLOCK_RECORD
  5
B1
330
1
100
AcDbSymbolTableRecord
100
AcDbBlockTableRecord
  2
BLOCK_3
  0
BLOCK_RECORD
  5
B4
330
1
100
AcDbSymbolTableRecord
100
AcDbBlockTableRecord
  2
BLOCK_2
  0
BLOCK_RECORD
  5
B7
330
1
100
AcDbSymbolTableRecord
100
AcDbBlockTableRecord
  2
BEAN_DEFLECTOR_AILLIO_BULL
  0
ENDTAB
  0
ENDSEC
  0
SECTION
  2
BLOCKS
  0
BLOCK
  5
20
330
1F
100
AcDbEntity
  8
0
100
AcDbBlockBegin
  2
*MODEL_SPACE
 70
     0
 10
0.0
 20
0.0
 30
0.0
  3
*MODEL_SPACE
  1

  0
ENDBLK
  5
21
330
1F
100
AcDbEntity
  8
0
100
AcDbBlockEnd
  0
BLOCK
  5
1C
330
1B
100
AcDbEntity
 67
     1
  8
0
100
AcDbBlockBegin
  2
*PAPER_SPACE
 70
     0
 10
0.0
 20
0.0
 30
0.0
  3
*PAPER_SPACE
  1

  0
ENDBLK
  5
1D
330
1B
100
AcDbEntity
 67
     1
  8
0
100
AcDbBlockEnd
  0
BLOCK
  5
70
330
6F
100
AcDbEntity
  8
0
100
AcDbBlockBegin
  2
BLOCK_25
 70
     0
 10
0.0
 20
0.0
 30
0.0
  3
BLOCK_25
  1

  0
LINE
  5
BA
330
6F
100
AcDbEntity
  8
0
 62
     7
100
AcDbLine
 10
0.4957772786194425
 20
2.131451641917845
 30
0.0
 11
0.5136885215530729
 21
1.553564546015437
 31
0.0
  0
LINE
  5
BB
330
6F
100
AcDbEntity
  8
0
 62
     7
100
AcDbLine
 10
0.5136885215530729
 20
1.553564546015437
 30
0.0
 11
0.5525408038838329
 21
1.064747577127786
 31
0.0
  0
LINE
  5
BC
330
6F
100
AcDbEntity
  8
0
 62
     7
100
AcDbLine
 10
0.5525408038838329
 20
1.064747577127786
 30
0.0
 11
0.6057469324295894
 21
0.6497693501432131
 31
0.0
  0
LINE
  5
BD
330
6F
100
AcDbEntity
  8
0
 62
     7
100
AcDbLine
 10
0.6057469324295894
 20
0.6497693501432131
 30
0.0
 11
0.6667197140082166
 21
0.2933984799500564
 31
0.0
  0
LINE
  5
BE
330
6F
100
AcDbEntity
  8
0
 62
     7
100
AcDbLine
 10
0.6667197140082166
 20
0.2933984799500564
 30
0.0
 11
0.7288719554375955
 21
-0.0195964185633564
 31
0.0
  0
LINE
  5
BF
330
6F
100
AcDbEntity
  8
0
 62
     7
100
AcDbLine
 10
0.7288719554375955
 20
-0.0195964185633564
 30
0.0
 11
0.7856164635355913
 21
-0.3044467305086851
 31
0.0
  0
LINE
  5
C0
330
6F
100
AcDbEntity
  8
0
 62
     7
100
AcDbLine
 10
0.7856164635355913
 20
-0.3044467305086851
 30
0.0
 11
0.8303660451200781
 21
-0.5763838409976003
 31
0.0
  0
LINE
  5
C1
330
6F
100
AcDbEntity
  8
0
 62
     7
100
AcDbLine
 10
0.8303660451200781
 20
-0.5763838409976003
 30
0.0
 11
0.8565335070089279
 21
-0.8506391351417726
 31
0.0
  0
LINE
  5
C2
330
6F
100
AcDbEntity
  8
0
 62
     7
100
AcDbLine
 10
0.8565335070089279
 20
-0.8506391351417726
 30
0.0
 11
0.8605309463300017
 21
-0.984005739394938
 31
0.0
  0
LINE
  5
C3
330
6F
100
AcDbEntity
  8
0
 62
     7
100
AcDbLine
 10
0.8605309463300017
 20
-0.984005739394938
 30
0.0
 11
0.8603330525856432
 21
-1.042739700651902
 31
0.0
  0
LINE
  5
C4
330
6F
100
AcDbEntity
  8
0
 62
     7
100
AcDbLine
 10
0.8603330525856432
 20
-1.042739700651902
 30
0.0
 11
0.8588045847397971
 21
-1.101793189095146
 31
0.0
  0
LINE
  5
C5
330
6F
100
AcDbEntity
  8
0
 62
     7
100
AcDbLine
 10
0.8588045847397971
 20
-1.101793189095146
 30
0.0
 11
0.8558150528101542
 21
-1.160805707743704
 31
0.0
  0
LINE
  5
C6
330
6F
100
AcDbEntity
  8
0
 62
     7
100
AcDbLine
 10
0.8558150528101542
 20
-1.160805707743704
 30
0.0
 11
0.8512339668144051
 21
-1.219416759616621
 31
0.0
  0
LINE
  5
C7
330
6F
100
AcDbEntity
  8
0
 62
     7
100
AcDbLine
 10
0.8512339668144051
 20
-1.219416759616621
 30
0.0
 11
0.8449308367702368
 21
-1.277265847732947
 31
0.0
  0
LINE
  5
C8
330
6F
100
AcDbEntity
  8
0
 62
     7
100
AcDbLine
 10
0.8449308367702368
 20
-1.277265847732947
 30
0.0
 11
0.8367751726953419
 21
-1.333992475111716
 31
0.0
  0
LINE
  5
C9
330
6F
100
AcDbEntity
  8
0
 62
     7
100
AcDbLine
 10
0.8367751726953419
 20
-1.333992475111716
 30
0.0
 11
0.8266364846074055
 21
-1.38923614477198
 31
0.0
  0
LINE
  5
CA
330
6F
100
AcDbEntity
  8
0
 62
     7
100
AcDbLine
 10
0.8266364846074055
 20
-1.38923614477198
 30
0.0
 11
0.7997229181370216
 21
-1.4946780271633
 31
0.0
  0
LINE
  5
CB
330
6F
100
AcDbEntity
  8
0
 62
     7
100
AcDbLine
 10
0.7997229181370216
 20
-1.4946780271633
 30
0.0
 11
0.718769288913931
 21
-1.681074400888557
 31
0.0
  0
LINE
  5
CC
330
6F
100
AcDbEntity
  8
0
 62
     7
100
AcDbLine
 10
0.718769288913931
 20
-1.681074400888557
 30
0.0
 11
0.6017809193876023
 21
-1.834314511744649
 31
0.0
  0
LINE
  5
CD
330
6F
100
AcDbEntity
  8
0
 62
     7
100
AcDbLine
 10
0.6017809193876023
 20
-1.834314511744649
 30
0.0
 11
0.4486912821359823
 21
-1.955060678759212
 31
0.0
  0
LINE
  5
CE
330
6F
100
AcDbEntity
  8
0
 62
     7
100
AcDbLine
 10
0.4486912821359823
 20
-1.955060678759212
 30
0.0
 11
0.2594338497370376
 21
-2.043975220959876
 31
0.0
  0
LINE
  5
CF
330
6F
100
AcDbEntity
  8
0
 62
     7
100
AcDbLine
 10
0.2594338497370376
 20
-2.043975220959876
 30
0.0
 11
0.0339420947687188
 21
-2.101720457374276
 31
0.0
  0
LINE
  5
D0
330
6F
100
AcDbEntity
  8
0
 62
     7
100
AcDbLine
 10
0.0339420947687188
 20
-2.101720457374276
 30
0.0
 11
-0.2278505101910131
 21
-2.128958707030041
 31
0.0
  0
LINE
  5
D1
330
6F
100
AcDbEntity
  8
0
 62
     7
100
AcDbLine
 10
-0.2278505101910131
 20
-2.128958707030041
 30
0.0
 11
-0.5260104925641951
 21
-2.126352288954806
 31
0.0
  0
LINE
  5
D2
330
6F
100
AcDbEntity
  8
0
 62
     7
100
AcDbLine
 10
-0.5260104925641951
 20
-2.126352288954806
 30
0.0
 11
-0.8606043797728713
 21
-2.094563522176207
 31
0.0
  0
ENDBLK
  5
71
330
6F
100
AcDbEntity
  8
0
100
AcDbBlockEnd
  0
BLOCK
  5
73
330
72
100
AcDbEntity
  8
0
100
AcDbBlockBegin
  2
BLOCK_24
 70
     0
 10
0.0
 20
0.0
 30
0.0
  3
BLOCK_24
  1

  0
LINE
  5
D3
330
72
100
AcDbEntity
  8
0
 62
     7
100
AcDbLine
 10
-0.1043264407015183
 20
0.0000127696593317
 30
0.0
 11
-0.1023073238614352
 21
0.0205416664113116
 31
0.0
  0
LINE
  5
D4
330
72
100
AcDbEntity
  8
0
 62
     7
100
AcDbLine
 10
-0.1023073238614352
 20
0.0205416664113116
 30
0.0
 11
-0.0965096956269633
 21
0.0397074690265953
 31
0.0
  0
LINE
  5
D5
330
72
100
AcDbEntity
  8
0
 62
     7
100
AcDbLine
 10
-0.0965096956269633
 20
0.0397074690265953
 30
0.0
 11
-0.0873231394267613
 21
0.057120594076526
 31
0.0
  0
LINE
  5
D6
330
72
100
AcDbEntity
  8
0
 62
     7
100
AcDbLine
 10
-0.0873231394267613
 20
0.057120594076526
 30
0.0
 11
-0.0751372386894911
 21
0.0723914581324472
 31
0.0
  0
LINE
  5
D7
330
72
100
AcDbEntity
  8
0
 62
     7
100
AcDbLine
 10
-0.0751372386894911
 20
0.0723914581324472
 30
0.0
 11
-0.0603415768438165
 21
0.0851304777656878
 31
0.0
  0
LINE
  5
D8
330
72
100
AcDbEntity
  8
0
 62
     7
100
AcDbLine
 10
-0.0603415768438165
 20
0.0851304777656878
 30
0.0
 11
-0.0433257373183924
 21
0.0949480695475984
 31
0.0
  0
LINE
  5
D9
330
72
100
AcDbEntity
  8
0
 62
     7
100
AcDbLine
 10
-0.0433257373183924
 20
0.0949480695475984
 30
0.0
 11
-0.0244793035418827
 21
0.1014546500495044
 31
0.0
  0
LINE
  5
DA
330
72
100
AcDbEntity
  8
0
 62
     7
100
AcDbLine
 10
-0.0244793035418827
 20
0.1014546500495044
 30
0.0
 11
-0.0041918589429493
 21
0.1042606358427598
 31
0.0
  0
LINE
  5
DB
330
72
100
AcDbEntity
  8
0
 62
     7
100
AcDbLine
 10
-0.0041918589429493
 20
0.1042606358427598
 30
0.0
 11
0.0165239661966066
 21
0.1030429324038487
 31
0.0
  0
LINE
  5
DC
330
72
100
AcDbEntity
  8
0
 62
     7
100
AcDbLine
 10
0.0165239661966066
 20
0.1030429324038487
 30
0.0
 11
0.0359935543135279
 21
0.0979698397739668
 31
0.0
  0
LINE
  5
DD
330
72
100
AcDbEntity
  8
0
 62
     7
100
AcDbLine
 10
0.0359935543135279
 20
0.0979698397739668
 30
0.0
 11
0.0537883815508273
 21
0.0894299024926148
 31
0.0
  0
LINE
  5
DE
330
72
100
AcDbEntity
  8
0
 62
     7
100
AcDbLine
 10
0.0537883815508273
 20
0.0894299024926148
 30
0.0
 11
0.0695188644798481
 21
0.0778127039884708
 31
0.0
  0
LINE
  5
DF
330
72
100
AcDbEntity
  8
0
 62
     7
100
AcDbLine
 10
0.0695188644798481
 20
0.0778127039884708
 30
0.0
 11
0.0827954196719283
 21
0.0635078276901844
 31
0.0
  0
LINE
  5
E0
330
72
100
AcDbEntity
  8
0
 62
     7
100
AcDbLine
 10
0.0827954196719283
 20
0.0635078276901844
 30
0.0
 11
0.0932284636983987
 21
0.0469048570264121
 31
0.0
  0
LINE
  5
E1
330
72
100
AcDbEntity
  8
0
 62
     7
100
AcDbLine
 10
0.0932284636983987
 20
0.0469048570264121
 30
0.0
 11
0.1004284131306079
 21
0.0283933754258321
 31
0.0
  0
LINE
  5
E2
330
72
100
AcDbEntity
  8
0
 62
     7
100
AcDbLine
 10
0.1004284131306079
 20
0.0283933754258321
 30
0.0
 11
0.1040056845398887
 21
0.0083629663170903
 31
0.0
  0
LINE
  5
E3
330
72
100
AcDbEntity
  8
0
 62
     7
100
AcDbLine
 10
0.1040056845398887
 20
0.0083629663170903
 30
0.0
 11
0.1035987445044402
 21
-0.0124463230162561
 31
0.0
  0
LINE
  5
E4
330
72
100
AcDbEntity
  8
0
 62
     7
100
AcDbLine
 10
0.1035987445044402
 20
-0.0124463230162561
 30
0.0
 11
0.0992657708162827
 21
-0.0322041132976629
 31
0.0
  0
LINE
  5
E5
330
72
100
AcDbEntity
  8
0
 62
     7
100
AcDbLine
 10
0.0992657708162827
 20
-0.0322041132976629
 30
0.0
 11
0.0913880357909296
 21
-0.0503650593851788
 31
0.0
  0
LINE
  5
E6
330
72
100
AcDbEntity
  8
0
 62
     7
100
AcDbLine
 10
0.0913880357909296
 20
-0.0503650593851788
 30
0.0
 11
0.0803551228570427
 21
-0.0665395778501505
 31
0.0
  0
LINE
  5
E7
330
72
100
AcDbEntity
  8
0
 62
     7
100
AcDbLine
 10
0.0803551228570427
 20
-0.0665395778501505
 30
0.0
 11
0.0665566154432824
 21
-0.0803380852639108
 31
0.0
  0
LINE
  5
E8
330
72
100
AcDbEntity
  8
0
 62
     7
100
AcDbLine
 10
0.0665566154432824
 20
-0.0803380852639108
 30
0.0
 11
0.0503820969783124
 21
-0.0913709981977995
 31
0.0
  0
LINE
  5
E9
330
72
100
AcDbEntity
  8
0
 62
     7
100
AcDbLine
 10
0.0503820969783124
 20
-0.0913709981977995
 30
0.0
 11
0.0322211508907948
 21
-0.0992487332231526
 31
0.0
  0
LINE
  5
EA
330
72
100
AcDbEntity
  8
0
 62
     7
100
AcDbLine
 10
0.0322211508907948
 20
-0.0992487332231526
 30
0.0
 11
0.0124633606093916
 21
-0.1035817069113065
 31
0.0
  0
LINE
  5
EB
330
72
100
AcDbEntity
  8
0
 62
     7
100
AcDbLine
 10
0.0124633606093916
 20
-0.1035817069113065
 30
0.0
 11
-0.0083459287239513
 21
-0.1039886469467568
 31
0.0
  0
LINE
  5
EC
330
72
100
AcDbEntity
  8
0
 62
     7
100
AcDbLine
 10
-0.0083459287239513
 20
-0.1039886469467568
 30
0.0
 11
-0.0283763378326949
 21
-0.1004113755374725
 31
0.0
  0
LINE
  5
ED
330
72
100
AcDbEntity
  8
0
 62
     7
100
AcDbLine
 10
-0.0283763378326949
 20
-0.1004113755374725
 30
0.0
 11
-0.046887819433282
 21
-0.0932114261052668
 31
0.0
  0
LINE
  5
EE
330
72
100
AcDbEntity
  8
0
 62
     7
100
AcDbLine
 10
-0.046887819433282
 20
-0.0932114261052668
 30
0.0
 11
-0.0634907900970472
 21
-0.0827783820787964
 31
0.0
  0
LINE
  5
EF
330
72
100
AcDbEntity
  8
0
 62
     7
100
AcDbLine
 10
-0.0634907900970472
 20
-0.0827783820787964
 30
0.0
 11
-0.0777956663953354
 21
-0.0695018268867145
 31
0.0
  0
LINE
  5
F0
330
72
100
AcDbEntity
  8
0
 62
     7
100
AcDbLine
 10
-0.0777956663953354
 20
-0.0695018268867145
 30
0.0
 11
-0.0894128648994865
 21
-0.053771343957699
 31
0.0
  0
LINE
  5
F1
330
72
100
AcDbEntity
  8
0
 62
     7
100
AcDbLine
 10
-0.0894128648994865
 20
-0.053771343957699
 30
0.0
 11
-0.0979528021808331
 21
-0.0359765167203925
 31
0.0
  0
LINE
  5
F2
330
72
100
AcDbEntity
  8
0
 62
     7
100
AcDbLine
 10
-0.0979528021808331
 20
-0.0359765167203925
 30
0.0
 11
-0.1030258948107186
 21
-0.0165069286034694
 31
0.0
  0
LINE
  5
F3
330
72
100
AcDbEntity
  8
0
 62
     7
100
AcDbLine
 10
-0.1030258948107186
 20
-0.0165069286034694
 30
0.0
 11
-0.1043264407015183
 21
0.0000127696593317
 31
0.0
  0
ENDBLK
  5
74
330
72
100
AcDbEntity
  8
0
100
AcDbBlockEnd
  0
BLOCK
  5
76
330
75
100
AcDbEntity
  8
0
100
AcDbBlockBegin
  2
BLOCK_23
 70
     0
 10
0.0
 20
0.0
 30
0.0
  3
BLOCK_23
  1

  0
LINE
  5
F4
330
75
100
AcDbEntity
  8
0
 62
     7
100
AcDbLine
 10
0.0984251968257883
 20
0.1968503936515766
 30
0.0
 11
0.0610190378470357
 21
0.1933008863581982
 31
0.0
  0
LINE
  5
F5
330
75
100
AcDbEntity
  8
0
 62
     7
100
AcDbLine
 10
0.0610190378470357
 20
0.1933008863581982
 30
0.0
 11
0.0259822697287628
 21
0.1830923294758726
 31
0.0
  0
LINE
  5
F6
330
75
100
AcDbEntity
  8
0
 62
     7
100
AcDbLine
 10
0.0259822697287628
 20
0.1830923294758726
 30
0.0
 11
-0.006025160032344
 21
0.1668846705012754
 31
0.0
  0
LINE
  5
F7
330
75
100
AcDbEntity
  8
0
 62
     7
100
AcDbLine
 10
-0.006025160032344
 20
0.1668846705012754
 30
0.0
 11
-0.0343433039395951
 21
0.1453378569311035
 31
0.0
  0
LINE
  5
F8
330
75
100
AcDbEntity
  8
0
 62
     7
100
AcDbLine
 10
-0.0343433039395951
 20
0.1453378569311035
 30
0.0
 11
-0.0583122144963024
 21
0.1191118362620323
 31
0.0
  0
LINE
  5
F9
330
75
100
AcDbEntity
  8
0
 62
     7
100
AcDbLine
 10
-0.0583122144963024
 20
0.1191118362620323
 30
0.0
 11
-0.0772719442057763
 21
0.0888665559907693
 31
0.0
  0
LINE
  5
FA
330
75
100
AcDbEntity
  8
0
 62
     7
100
AcDbLine
 10
-0.0772719442057763
 20
0.0888665559907693
 30
0.0
 11
-0.0905625455713288
 21
0.0552619636139902
 31
0.0
  0
LINE
  5
FB
330
75
100
AcDbEntity
  8
0
 62
     7
100
AcDbLine
 10
-0.0905625455713288
 20
0.0552619636139902
 30
0.0
 11
-0.0975240710962666
 21
0.0189580066283916
 31
0.0
  0
LINE
  5
FC
330
75
100
AcDbEntity
  8
0
 62
     7
100
AcDbLine
 10
-0.0975240710962666
 20
0.0189580066283916
 30
0.0
 11
-0.0975240710962666
 21
-0.0189580066283952
 31
0.0
  0
LINE
  5
FD
330
75
100
AcDbEntity
  8
0
 62
     7
100
AcDbLine
 10
-0.0975240710962666
 20
-0.0189580066283952
 30
0.0
 11
-0.0905625455713288
 21
-0.0552619636140008
 31
0.0
  0
LINE
  5
FE
330
75
100
AcDbEntity
  8
0
 62
     7
100
AcDbLine
 10
-0.0905625455713288
 20
-0.0552619636140008
 30
0.0
 11
-0.0772719442057763
 21
-0.08886655599078
 31
0.0
  0
LINE
  5
FF
330
75
100
AcDbEntity
  8
0
 62
     7
100
AcDbLine
 10
-0.0772719442057763
 20
-0.08886655599078
 30
0.0
 11
-0.0583122144963042
 21
-0.1191118362620465
 31
0.0
  0
LINE
  5
100
330
75
100
AcDbEntity
  8
0
 62
     7
100
AcDbLine
 10
-0.0583122144963042
 20
-0.1191118362620465
 30
0.0
 11
-0.0343433039395951
 21
-0.145337856931107
 31
0.0
  0
LINE
  5
101
330
75
100
AcDbEntity
  8
0
 62
     7
100
AcDbLine
 10
-0.0343433039395951
 20
-0.145337856931107
 30
0.0
 11
-0.0060251600323422
 21
-0.166884670501279
 31
0.0
  0
LINE
  5
102
330
75
100
AcDbEntity
  8
0
 62
     7
100
AcDbLine
 10
-0.0060251600323422
 20
-0.166884670501279
 30
0.0
 11
0.0259822697287628
 21
-0.1830923294758726
 31
0.0
  0
LINE
  5
103
330
75
100
AcDbEntity
  8
0
 62
     7
100
AcDbLine
 10
0.0259822697287628
 20
-0.1830923294758726
 30
0.0
 11
0.0610190378470357
 21
-0.1933008863582018
 31
0.0
  0
LINE
  5
104
330
75
100
AcDbEntity
  8
0
 62
     7
100
AcDbLine
 10
0.0610190378470357
 20
-0.1933008863582018
 30
0.0
 11
0.0984251968257883
 21
-0.1968503936515731
 31
0.0
  0
ENDBLK
  5
77
330
75
100
AcDbEntity
  8
0
100
AcDbBlockEnd
  0
BLOCK
  5
79
330
78
100
AcDbEntity
  8
0
100
AcDbBlockBegin
  2
BLOCK_22
 70
     0
 10
0.0
 20
0.0
 30
0.0
  3
BLOCK_22
  1

  0
LINE
  5
105
330
78
100
AcDbEntity
  8
0
 62
     7
100
AcDbLine
 10
-0.1231921235105524
 20
0.0
 30
0.0
 11
0.1231921235105524
 21
0.0
 31
0.0
  0
ENDBLK
  5
7A
330
78
100
AcDbEntity
  8
0
100
AcDbBlockEnd
  0
BLOCK
  5
7C
330
7B
100
AcDbEntity
  8
0
100
AcDbBlockBegin
  2
BLOCK_21
 70
     0
 10
0.0
 20
0.0
 30
0.0
  3
BLOCK_21
  1

  0
LINE
  5
106
330
7B
100
AcDbEntity
  8
0
 62
     7
100
AcDbLine
 10
-0.0295275590477377
 20
-0.0590551180954737
 30
0.0
 11
-0.018305711354115
 21
-0.0579902659074616
 31
0.0
  0
LINE
  5
107
330
7B
100
AcDbEntity
  8
0
 62
     7
100
AcDbLine
 10
-0.018305711354115
 20
-0.0579902659074616
 30
0.0
 11
-0.0077946809186322
 21
-0.0549276988427607
 31
0.0
  0
LINE
  5
108
330
7B
100
AcDbEntity
  8
0
 62
     7
100
AcDbLine
 10
-0.0077946809186322
 20
-0.0549276988427607
 30
0.0
 11
0.0018075480097011
 21
-0.0500654011503894
 31
0.0
  0
LINE
  5
109
330
7B
100
AcDbEntity
  8
0
 62
     7
100
AcDbLine
 10
0.0018075480097011
 20
-0.0500654011503894
 30
0.0
 11
0.0103029911818737
 21
-0.0436013570793339
 31
0.0
  0
LINE
  5
10A
330
7B
100
AcDbEntity
  8
0
 62
     7
100
AcDbLine
 10
0.0103029911818737
 20
-0.0436013570793339
 30
0.0
 11
0.0174936643488888
 21
-0.0357335508786178
 31
0.0
  0
LINE
  5
10B
330
7B
100
AcDbEntity
  8
0
 62
     7
100
AcDbLine
 10
0.0174936643488888
 20
-0.0357335508786178
 30
0.0
 11
0.0231815832617315
 21
-0.0266599667972383
 31
0.0
  0
LINE
  5
10C
330
7B
100
AcDbEntity
  8
0
 62
     7
100
AcDbLine
 10
0.0231815832617315
 20
-0.0266599667972383
 30
0.0
 11
0.0271687636713942
 21
-0.0165785890842081
 31
0.0
  0
LINE
  5
10D
330
7B
100
AcDbEntity
  8
0
 62
     7
100
AcDbLine
 10
0.0271687636713942
 20
-0.0165785890842081
 30
0.0
 11
0.0292572213288782
 21
-0.0056874019885225
 31
0.0
  0
LINE
  5
10E
330
7B
100
AcDbEntity
  8
0
 62
     7
100
AcDbLine
 10
0.0292572213288782
 20
-0.0056874019885225
 30
0.0
 11
0.0292572213288764
 21
0.0056874019885154
 31
0.0
  0
LINE
  5
10F
330
7B
100
AcDbEntity
  8
0
 62
     7
100
AcDbLine
 10
0.0292572213288764
 20
0.0056874019885154
 30
0.0
 11
0.027168763671396
 21
0.0165785890841939
 31
0.0
  0
LINE
  5
110
330
7B
100
AcDbEntity
  8
0
 62
     7
100
AcDbLine
 10
0.027168763671396
 20
0.0165785890841939
 30
0.0
 11
0.0231815832617279
 21
0.0266599667972258
 31
0.0
  0
LINE
  5
111
330
7B
100
AcDbEntity
  8
0
 62
     7
100
AcDbLine
 10
0.0231815832617279
 20
0.0266599667972258
 30
0.0
 11
0.017493664348887
 21
0.0357335508786036
 31
0.0
  0
LINE
  5
112
330
7B
100
AcDbEntity
  8
0
 62
     7
100
AcDbLine
 10
0.017493664348887
 20
0.0357335508786036
 30
0.0
 11
0.0103029911818737
 21
0.043601357079325
 31
0.0
  0
LINE
  5
113
330
7B
100
AcDbEntity
  8
0
 62
     7
100
AcDbLine
 10
0.0103029911818737
 20
0.043601357079325
 30
0.0
 11
0.0018075480096975
 21
0.0500654011503769
 31
0.0
  0
LINE
  5
114
330
7B
100
AcDbEntity
  8
0
 62
     7
100
AcDbLine
 10
0.0018075480096975
 20
0.0500654011503769
 30
0.0
 11
-0.007794680918634
 21
0.0549276988427572
 31
0.0
  0
LINE
  5
115
330
7B
100
AcDbEntity
  8
0
 62
     7
100
AcDbLine
 10
-0.007794680918634
 20
0.0549276988427572
 30
0.0
 11
-0.018305711354115
 21
0.0579902659074598
 31
0.0
  0
LINE
  5
116
330
7B
100
AcDbEntity
  8
0
 62
     7
100
AcDbLine
 10
-0.018305711354115
 20
0.0579902659074598
 30
0.0
 11
-0.0295275590477377
 21
0.0590551180954719
 31
0.0
  0
ENDBLK
  5
7D
330
7B
100
AcDbEntity
  8
0
100
AcDbBlockEnd
  0
BLOCK
  5
7F
330
7E
100
AcDbEntity
  8
0
100
AcDbBlockBegin
  2
BLOCK_20
 70
     0
 10
0.0
 20
0.0
 30
0.0
  3
BLOCK_20
  1

  0
LINE
  5
117
330
7E
100
AcDbEntity
  8
0
 62
     7
100
AcDbLine
 10
0.0039370103513825
 20
0.0
 30
0.0
 11
-0.0039370103513843
 21
0.0
 31
0.0
  0
ENDBLK
  5
80
330
7E
100
AcDbEntity
  8
0
100
AcDbBlockEnd
  0
BLOCK
  5
82
330
81
100
AcDbEntity
  8
0
100
AcDbBlockBegin
  2
BLOCK_19
 70
     0
 10
0.0
 20
0.0
 30
0.0
  3
BLOCK_19
  1

  0
LINE
  5
118
330
81
100
AcDbEntity
  8
0
 62
     7
100
AcDbLine
 10
0.1415282810514604
 20
1.702055170081282
 30
0.0
 11
0.1331013361696254
 21
1.337945036746497
 31
0.0
  0
LINE
  5
119
330
81
100
AcDbEntity
  8
0
 62
     7
100
AcDbLine
 10
0.1331013361696254
 20
1.337945036746497
 30
0.0
 11
0.1189184452276102
 21
0.9703038161853357
 31
0.0
  0
LINE
  5
11A
330
81
100
AcDbEntity
  8
0
 62
     7
100
AcDbLine
 10
0.1189184452276102
 20
0.9703038161853357
 30
0.0
 11
0.0989796082254184
 21
0.5991315083978019
 31
0.0
  0
LINE
  5
11B
330
81
100
AcDbEntity
  8
0
 62
     7
100
AcDbLine
 10
0.0989796082254184
 20
0.5991315083978019
 30
0.0
 11
0.0732848251630465
 21
0.2244281133838921
 31
0.0
  0
LINE
  5
11C
330
81
100
AcDbEntity
  8
0
 62
     7
100
AcDbLine
 10
0.0732848251630465
 20
0.2244281133838921
 30
0.0
 11
0.0418340960404997
 21
-0.153806368856392
 31
0.0
  0
LINE
  5
11D
330
81
100
AcDbEntity
  8
0
 62
     7
100
AcDbLine
 10
0.0418340960404997
 20
-0.153806368856392
 30
0.0
 11
0.0046274208577763
 21
-0.5355719383230486
 31
0.0
  0
LINE
  5
11E
330
81
100
AcDbEntity
  8
0
 62
     7
100
AcDbLine
 10
0.0046274208577763
 20
-0.5355719383230486
 30
0.0
 11
-0.0383352003851218
 21
-0.9208685950160831
 31
0.0
  0
LINE
  5
11F
330
81
100
AcDbEntity
  8
0
 62
     7
100
AcDbLine
 10
-0.0383352003851218
 20
-0.9208685950160831
 30
0.0
 11
-0.0870537676882055
 21
-1.309696338935492
 31
0.0
  0
LINE
  5
120
330
81
100
AcDbEntity
  8
0
 62
     7
100
AcDbLine
 10
-0.0870537676882055
 20
-1.309696338935492
 30
0.0
 11
-0.1415282810514586
 21
-1.70205517008128
 31
0.0
  0
ENDBLK
  5
83
330
81
100
AcDbEntity
  8
0
100
AcDbBlockEnd
  0
BLOCK
  5
85
330
84
100
AcDbEntity
  8
0
100
AcDbBlockBegin
  2
BLOCK_18
 70
     0
 10
0.0
 20
0.0
 30
0.0
  3
BLOCK_18
  1

  0
LINE
  5
121
330
84
100
AcDbEntity
  8
0
 62
     7
100
AcDbLine
 10
-0.0038902643297316
 20
0.0006048463463397
 30
0.0
 11
0.0038902643297334
 21
-0.0006048463463415
 31
0.0
  0
ENDBLK
  5
86
330
84
100
AcDbEntity
  8
0
100
AcDbBlockEnd
  0
BLOCK
  5
88
330
87
100
AcDbEntity
  8
0
100
AcDbBlockBegin
  2
BLOCK_17
 70
     0
 10
0.0
 20
0.0
 30
0.0
  3
BLOCK_17
  1

  0
LINE
  5
122
330
87
100
AcDbEntity
  8
0
 62
     7
100
AcDbLine
 10
-0.034035018353908
 20
-0.058032478126087
 30
0.0
 11
-0.0227828031503474
 21
-0.0587043626801176
 31
0.0
  0
LINE
  5
123
330
87
100
AcDbEntity
  8
0
 62
     7
100
AcDbLine
 10
-0.0227828031503474
 20
-0.0587043626801176
 30
0.0
 11
-0.0119260424272394
 21
-0.057293042573793
 31
0.0
  0
LINE
  5
124
330
87
100
AcDbEntity
  8
0
 62
     7
100
AcDbLine
 10
-0.0119260424272394
 20
-0.057293042573793
 30
0.0
 11
-0.0016907875889736
 21
-0.0539637336909848
 31
0.0
  0
LINE
  5
125
330
87
100
AcDbEntity
  8
0
 62
     7
100
AcDbLine
 10
-0.0016907875889736
 20
-0.0539637336909848
 30
0.0
 11
0.0076969099600568
 21
-0.0488816519155595
 31
0.0
  0
LINE
  5
126
330
87
100
AcDbEntity
  8
0
 62
     7
100
AcDbLine
 10
0.0076969099600568
 20
-0.0488816519155595
 30
0.0
 11
0.0160109988154602
 21
-0.0422120131313832
 31
0.0
  0
LINE
  5
127
330
87
100
AcDbEntity
  8
0
 62
     7
100
AcDbLine
 10
0.0160109988154602
 20
-0.0422120131313832
 30
0.0
 11
0.0230254275728434
 21
-0.0341200332223259
 31
0.0
  0
LINE
  5
128
330
87
100
AcDbEntity
  8
0
 62
     7
100
AcDbLine
 10
0.0230254275728434
 20
-0.0341200332223259
 30
0.0
 11
0.028514144827815
 21
-0.0247709280722592
 31
0.0
  0
LINE
  5
129
330
87
100
AcDbEntity
  8
0
 62
     7
100
AcDbLine
 10
0.028514144827815
 20
-0.0247709280722592
 30
0.0
 11
0.0322510991759799
 21
-0.0143299135650423
 31
0.0
  0
LINE
  5
12A
330
87
100
AcDbEntity
  8
0
 62
     7
100
AcDbLine
 10
0.0322510991759799
 20
-0.0143299135650423
 30
0.0
 11
0.0339986930484351
 21
-0.0030901590671544
 31
0.0
  0
LINE
  5
12B
330
87
100
AcDbEntity
  8
0
 62
     7
100
AcDbLine
 10
0.0339986930484351
 20
-0.0030901590671544
 30
0.0
 11
0.0336083232867992
 21
0.007992585321734
 31
0.0
  0
LINE
  5
12C
330
87
100
AcDbEntity
  8
0
 62
     7
100
AcDbLine
 10
0.0336083232867992
 20
0.007992585321734
 30
0.0
 11
0.031217356806744
 21
0.0185668495279714
 31
0.0
  0
LINE
  5
12D
330
87
100
AcDbEntity
  8
0
 62
     7
100
AcDbLine
 10
0.031217356806744
 20
0.0185668495279714
 30
0.0
 11
0.0269910094921411
 21
0.0284065821471664
 31
0.0
  0
LINE
  5
12E
330
87
100
AcDbEntity
  8
0
 62
     7
100
AcDbLine
 10
0.0269910094921411
 20
0.0284065821471664
 30
0.0
 11
0.0210944972268621
 21
0.0372857317749382
 31
0.0
  0
LINE
  5
12F
330
87
100
AcDbEntity
  8
0
 62
     7
100
AcDbLine
 10
0.0210944972268621
 20
0.0372857317749382
 30
0.0
 11
0.013693035894768
 21
0.0449782470068847
 31
0.0
  0
LINE
  5
130
330
87
100
AcDbEntity
  8
0
 62
     7
100
AcDbLine
 10
0.013693035894768
 20
0.0449782470068847
 30
0.0
 11
0.0049518413797252
 21
0.0512580764386179
 31
0.0
  0
LINE
  5
131
330
87
100
AcDbEntity
  8
0
 62
     7
100
AcDbLine
 10
0.0049518413797252
 20
0.0512580764386179
 30
0.0
 11
-0.0049638704344002
 21
0.0558991686657446
 31
0.0
  0
LINE
  5
132
330
87
100
AcDbEntity
  8
0
 62
     7
100
AcDbLine
 10
-0.0049638704344002
 20
0.0558991686657446
 30
0.0
 11
-0.0158888836637363
 21
0.0586754722838698
 31
0.0
  0
ENDBLK
  5
89
330
87
100
AcDbEntity
  8
0
100
AcDbBlockEnd
  0
BLOCK
  5
8B
330
8A
100
AcDbEntity
  8
0
100
AcDbBlockBegin
  2
BLOCK_16
 70
     0
 10
0.0
 20
0.0
 30
0.0
  3
BLOCK_16
  1

  0
LINE
  5
133
330
8A
100
AcDbEntity
  8
0
 62
     7
100
AcDbLine
 10
-0.1249222706046069
 20
0.0194232822825402
 30
0.0
 11
0.1249222706046051
 21
-0.0194232822825384
 31
0.0
  0
ENDBLK
  5
8C
330
8A
100
AcDbEntity
  8
0
100
AcDbBlockEnd
  0
BLOCK
  5
8E
330
8D
100
AcDbEntity
  8
0
100
AcDbBlockBegin
  2
BLOCK_15
 70
     0
 10
0.0
 20
0.0
 30
0.0
  3
BLOCK_15
  1

  0
LINE
  5
134
330
8D
100
AcDbEntity
  8
0
 62
     7
100
AcDbLine
 10
0.1134500611796962
 20
0.1934415937536027
 30
0.0
 11
0.0759426771678182
 21
0.1956812089336868
 31
0.0
  0
LINE
  5
135
330
8D
100
AcDbEntity
  8
0
 62
     7
100
AcDbLine
 10
0.0759426771678182
 20
0.1956812089336868
 30
0.0
 11
0.0397534747574468
 21
0.1909768085792756
 31
0.0
  0
LINE
  5
136
330
8D
100
AcDbEntity
  8
0
 62
     7
100
AcDbLine
 10
0.0397534747574468
 20
0.1909768085792756
 30
0.0
 11
0.0056359586298935
 21
0.1798791123032455
 31
0.0
  0
LINE
  5
137
330
8D
100
AcDbEntity
  8
0
 62
     7
100
AcDbLine
 10
0.0056359586298935
 20
0.1798791123032455
 30
0.0
 11
-0.0256563665335392
 21
0.1629388397184979
 31
0.0
  0
LINE
  5
138
330
8D
100
AcDbEntity
  8
0
 62
     7
100
AcDbLine
 10
-0.0256563665335392
 20
0.1629388397184979
 30
0.0
 11
-0.0533699960515452
 21
0.1407067104379163
 31
0.0
  0
LINE
  5
139
330
8D
100
AcDbEntity
  8
0
 62
     7
100
AcDbLine
 10
-0.0533699960515452
 20
0.1407067104379163
 30
0.0
 11
-0.0767514252428132
 21
0.1137334440743967
 31
0.0
  0
LINE
  5
13A
330
8D
100
AcDbEntity
  8
0
 62
     7
100
AcDbLine
 10
-0.0767514252428132
 20
0.1137334440743967
 30
0.0
 11
-0.0950471494260459
 21
0.0825697602408226
 31
0.0
  0
LINE
  5
13B
330
8D
100
AcDbEntity
  8
0
 62
     7
100
AcDbLine
 10
-0.0950471494260459
 20
0.0825697602408226
 30
0.0
 11
-0.1075036639199283
 21
0.0477663785500866
 31
0.0
  0
LINE
  5
13C
330
8D
100
AcDbEntity
  8
0
 62
     7
100
AcDbLine
 10
-0.1075036639199283
 20
0.0477663785500866
 30
0.0
 11
-0.1133289768281092
 21
0.0103005302237715
 31
0.0
  0
LINE
  5
13D
330
8D
100
AcDbEntity
  8
0
 62
     7
100
AcDbLine
 10
-0.1133289768281092
 20
0.0103005302237715
 30
0.0
 11
-0.1120277442893283
 21
-0.0266419510725093
 31
0.0
  0
LINE
  5
13E
330
8D
100
AcDbEntity
  8
0
 62
     7
100
AcDbLine
 10
-0.1120277442893283
 20
-0.0266419510725093
 30
0.0
 11
-0.1040578560224965
 21
-0.0618894984266287
 31
0.0
  0
LINE
  5
13F
330
8D
100
AcDbEntity
  8
0
 62
     7
100
AcDbLine
 10
-0.1040578560224965
 20
-0.0618894984266287
 30
0.0
 11
-0.089970031640501
 21
-0.0946886071572841
 31
0.0
  0
LINE
  5
140
330
8D
100
AcDbEntity
  8
0
 62
     7
100
AcDbLine
 10
-0.089970031640501
 20
-0.0946886071572841
 30
0.0
 11
-0.0703149907562306
 21
-0.1242857725831676
 31
0.0
  0
LINE
  5
141
330
8D
100
AcDbEntity
  8
0
 62
     7
100
AcDbLine
 10
-0.0703149907562306
 20
-0.1242857725831676
 30
0.0
 11
-0.045643452982576
 21
-0.1499274900229679
 31
0.0
  0
LINE
  5
142
330
8D
100
AcDbEntity
  8
0
 62
     7
100
AcDbLine
 10
-0.045643452982576
 20
-0.1499274900229679
 30
0.0
 11
-0.0165061379324261
 21
-0.1708602547953895
 31
0.0
  0
LINE
  5
143
330
8D
100
AcDbEntity
  8
0
 62
     7
100
AcDbLine
 10
-0.0165061379324261
 20
-0.1708602547953895
 30
0.0
 11
0.0165462347813286
 21
-0.1863305622191174
 31
0.0
  0
LINE
  5
144
330
8D
100
AcDbEntity
  8
0
 62
     7
100
AcDbLine
 10
0.0165462347813286
 20
-0.1863305622191174
 30
0.0
 11
0.0529629455457989
 21
-0.1955849076128491
 31
0.0
  0
ENDBLK
  5
8F
330
8D
100
AcDbEntity
  8
0
100
AcDbBlockEnd
  0
BLOCK
  5
91
330
90
100
AcDbEntity
  8
0
100
AcDbBlockBegin
  2
BLOCK_14
 70
     0
 10
0.0
 20
0.0
 30
0.0
  3
BLOCK_14
  1

  0
LINE
  5
145
330
90
100
AcDbEntity
  8
0
 62
     7
100
AcDbLine
 10
-0.1249222660238889
 20
0.0194232822825384
 30
0.0
 11
0.1249222660238853
 21
-0.0194232822825402
 31
0.0
  0
ENDBLK
  5
92
330
90
100
AcDbEntity
  8
0
100
AcDbBlockEnd
  0
BLOCK
  5
94
330
93
100
AcDbEntity
  8
0
100
AcDbBlockBegin
  2
BLOCK_13
 70
     0
 10
0.0
 20
0.0
 30
0.0
  3
BLOCK_13
  1

  0
LINE
  5
146
330
93
100
AcDbEntity
  8
0
 62
     7
100
AcDbLine
 10
-0.1043264407014988
 20
0.0000127696593513
 30
0.0
 11
-0.1023073238614138
 21
0.0205416664113311
 31
0.0
  0
LINE
  5
147
330
93
100
AcDbEntity
  8
0
 62
     7
100
AcDbLine
 10
-0.1023073238614138
 20
0.0205416664113311
 30
0.0
 11
-0.0965096956269438
 21
0.039707469026613
 31
0.0
  0
LINE
  5
148
330
93
100
AcDbEntity
  8
0
 62
     7
100
AcDbLine
 10
-0.0965096956269438
 20
0.039707469026613
 30
0.0
 11
-0.0873231394267417
 21
0.0571205940765456
 31
0.0
  0
LINE
  5
149
330
93
100
AcDbEntity
  8
0
 62
     7
100
AcDbLine
 10
-0.0873231394267417
 20
0.0571205940765456
 30
0.0
 11
-0.0751372386894751
 21
0.0723914581324667
 31
0.0
  0
LINE
  5
14A
330
93
100
AcDbEntity
  8
0
 62
     7
100
AcDbLine
 10
-0.0751372386894751
 20
0.0723914581324667
 30
0.0
 11
-0.0603415768437987
 21
0.0851304777657091
 31
0.0
  0
LINE
  5
14B
330
93
100
AcDbEntity
  8
0
 62
     7
100
AcDbLine
 10
-0.0603415768437987
 20
0.0851304777657091
 30
0.0
 11
-0.0433257373183764
 21
0.0949480695476179
 31
0.0
  0
LINE
  5
14C
330
93
100
AcDbEntity
  8
0
 62
     7
100
AcDbLine
 10
-0.0433257373183764
 20
0.0949480695476179
 30
0.0
 11
-0.0244793035418684
 21
0.1014546500495275
 31
0.0
  0
LINE
  5
14D
330
93
100
AcDbEntity
  8
0
 62
     7
100
AcDbLine
 10
-0.0244793035418684
 20
0.1014546500495275
 30
0.0
 11
-0.0041918589429351
 21
0.1042606358427793
 31
0.0
  0
LINE
  5
14E
330
93
100
AcDbEntity
  8
0
 62
     7
100
AcDbLine
 10
-0.0041918589429351
 20
0.1042606358427793
 30
0.0
 11
0.0165239661966208
 21
0.10304293240387
 31
0.0
  0
LINE
  5
14F
330
93
100
AcDbEntity
  8
0
 62
     7
100
AcDbLine
 10
0.0165239661966208
 20
0.10304293240387
 30
0.0
 11
0.0359935543135386
 21
0.0979698397739863
 31
0.0
  0
LINE
  5
150
330
93
100
AcDbEntity
  8
0
 62
     7
100
AcDbLine
 10
0.0359935543135386
 20
0.0979698397739863
 30
0.0
 11
0.0537883815508362
 21
0.0894299024926362
 31
0.0
  0
LINE
  5
151
330
93
100
AcDbEntity
  8
0
 62
     7
100
AcDbLine
 10
0.0537883815508362
 20
0.0894299024926362
 30
0.0
 11
0.0695188644798517
 21
0.0778127039884868
 31
0.0
  0
LINE
  5
152
330
93
100
AcDbEntity
  8
0
 62
     7
100
AcDbLine
 10
0.0695188644798517
 20
0.0778127039884868
 30
0.0
 11
0.0827954196719212
 21
0.0635078276902021
 31
0.0
  0
LINE
  5
153
330
93
100
AcDbEntity
  8
0
 62
     7
100
AcDbLine
 10
0.0827954196719212
 20
0.0635078276902021
 30
0.0
 11
0.0932284636983844
 21
0.0469048570264334
 31
0.0
  0
LINE
  5
154
330
93
100
AcDbEntity
  8
0
 62
     7
100
AcDbLine
 10
0.0932284636983844
 20
0.0469048570264334
 30
0.0
 11
0.1004284131305919
 21
0.0283933754258516
 31
0.0
  0
LINE
  5
155
330
93
100
AcDbEntity
  8
0
 62
     7
100
AcDbLine
 10
0.1004284131305919
 20
0.0283933754258516
 30
0.0
 11
0.1040056845398674
 21
0.0083629663171099
 31
0.0
  0
LINE
  5
156
330
93
100
AcDbEntity
  8
0
 62
     7
100
AcDbLine
 10
0.1040056845398674
 20
0.0083629663171099
 30
0.0
 11
0.1035987445044224
 21
-0.0124463230162384
 31
0.0
  0
LINE
  5
157
330
93
100
AcDbEntity
  8
0
 62
     7
100
AcDbLine
 10
0.1035987445044224
 20
-0.0124463230162384
 30
0.0
 11
0.0992657708162685
 21
-0.0322041132976434
 31
0.0
  0
LINE
  5
158
330
93
100
AcDbEntity
  8
0
 62
     7
100
AcDbLine
 10
0.0992657708162685
 20
-0.0322041132976434
 30
0.0
 11
0.0913880357909189
 21
-0.0503650593851663
 31
0.0
  0
LINE
  5
159
330
93
100
AcDbEntity
  8
0
 62
     7
100
AcDbLine
 10
0.0913880357909189
 20
-0.0503650593851663
 30
0.0
 11
0.0803551228570374
 21
-0.0665395778501452
 31
0.0
  0
LINE
  5
15A
330
93
100
AcDbEntity
  8
0
 62
     7
100
AcDbLine
 10
0.0803551228570374
 20
-0.0665395778501452
 30
0.0
 11
0.0665566154432842
 21
-0.0803380852639108
 31
0.0
  0
LINE
  5
15B
330
93
100
AcDbEntity
  8
0
 62
     7
100
AcDbLine
 10
0.0665566154432842
 20
-0.0803380852639108
 30
0.0
 11
0.0503820969783231
 21
-0.0913709981978048
 31
0.0
  0
LINE
  5
15C
330
93
100
AcDbEntity
  8
0
 62
     7
100
AcDbLine
 10
0.0503820969783231
 20
-0.0913709981978048
 30
0.0
 11
0.0322211508908072
 21
-0.0992487332231633
 31
0.0
  0
LINE
  5
15D
330
93
100
AcDbEntity
  8
0
 62
     7
100
AcDbLine
 10
0.0322211508908072
 20
-0.0992487332231633
 30
0.0
 11
0.012463360609404
 21
-0.1035817069113261
 31
0.0
  0
LINE
  5
15E
330
93
100
AcDbEntity
  8
0
 62
     7
100
AcDbLine
 10
0.012463360609404
 20
-0.1035817069113261
 30
0.0
 11
-0.0083459287239407
 21
-0.103988646946771
 31
0.0
  0
LINE
  5
15F
330
93
100
AcDbEntity
  8
0
 62
     7
100
AcDbLine
 10
-0.0083459287239407
 20
-0.103988646946771
 30
0.0
 11
-0.0283763378326825
 21
-0.1004113755374867
 31
0.0
  0
LINE
  5
160
330
93
100
AcDbEntity
  8
0
 62
     7
100
AcDbLine
 10
-0.0283763378326825
 20
-0.1004113755374867
 30
0.0
 11
-0.0468878194332643
 21
-0.0932114261052757
 31
0.0
  0
LINE
  5
161
330
93
100
AcDbEntity
  8
0
 62
     7
100
AcDbLine
 10
-0.0468878194332643
 20
-0.0932114261052757
 30
0.0
 11
-0.0634907900970312
 21
-0.0827783820787964
 31
0.0
  0
LINE
  5
162
330
93
100
AcDbEntity
  8
0
 62
     7
100
AcDbLine
 10
-0.0634907900970312
 20
-0.0827783820787964
 30
0.0
 11
-0.0777956663953177
 21
-0.0695018268867109
 31
0.0
  0
LINE
  5
163
330
93
100
AcDbEntity
  8
0
 62
     7
100
AcDbLine
 10
-0.0777956663953177
 20
-0.0695018268867109
 30
0.0
 11
-0.0894128648994688
 21
-0.0537713439576866
 31
0.0
  0
LINE
  5
164
330
93
100
AcDbEntity
  8
0
 62
     7
100
AcDbLine
 10
-0.0894128648994688
 20
-0.0537713439576866
 30
0.0
 11
-0.0979528021808154
 21
-0.0359765167203783
 31
0.0
  0
LINE
  5
165
330
93
100
AcDbEntity
  8
0
 62
     7
100
AcDbLine
 10
-0.0979528021808154
 20
-0.0359765167203783
 30
0.0
 11
-0.1030258948107008
 21
-0.0165069286034516
 31
0.0
  0
LINE
  5
166
330
93
100
AcDbEntity
  8
0
 62
     7
100
AcDbLine
 10
-0.1030258948107008
 20
-0.0165069286034516
 30
0.0
 11
-0.1043264407014988
 21
0.0000127696593513
 31
0.0
  0
ENDBLK
  5
95
330
93
100
AcDbEntity
  8
0
100
AcDbBlockEnd
  0
BLOCK
  5
97
330
96
100
AcDbEntity
  8
0
100
AcDbBlockBegin
  2
BLOCK_12
 70
     0
 10
0.0
 20
0.0
 30
0.0
  3
BLOCK_12
  1

  0
LINE
  5
167
330
96
100
AcDbEntity
  8
0
 62
     7
100
AcDbLine
 10
0.4957772786194621
 20
-2.131451641917845
 30
0.0
 11
0.5136885215530924
 21
-1.553564546015444
 31
0.0
  0
LINE
  5
168
330
96
100
AcDbEntity
  8
0
 62
     7
100
AcDbLine
 10
0.5136885215530924
 20
-1.553564546015444
 30
0.0
 11
0.5525408038838524
 21
-1.06474757712779
 31
0.0
  0
LINE
  5
169
330
96
100
AcDbEntity
  8
0
 62
     7
100
AcDbLine
 10
0.5525408038838524
 20
-1.06474757712779
 30
0.0
 11
0.605746932429609
 21
-0.6497693501432202
 31
0.0
  0
LINE
  5
16A
330
96
100
AcDbEntity
  8
0
 62
     7
100
AcDbLine
 10
0.605746932429609
 20
-0.6497693501432202
 30
0.0
 11
0.6667197140082362
 21
-0.2933984799500671
 31
0.0
  0
LINE
  5
16B
330
96
100
AcDbEntity
  8
0
 62
     7
100
AcDbLine
 10
0.6667197140082362
 20
-0.2933984799500671
 30
0.0
 11
0.7288719554376151
 21
0.0195964185633422
 31
0.0
  0
LINE
  5
16C
330
96
100
AcDbEntity
  8
0
 62
     7
100
AcDbLine
 10
0.7288719554376151
 20
0.0195964185633422
 30
0.0
 11
0.7856164635356109
 21
0.3044467305086727
 31
0.0
  0
LINE
  5
16D
330
96
100
AcDbEntity
  8
0
 62
     7
100
AcDbLine
 10
0.7856164635356109
 20
0.3044467305086727
 30
0.0
 11
0.8303660451200976
 21
0.5763838409975932
 31
0.0
  0
LINE
  5
16E
330
96
100
AcDbEntity
  8
0
 62
     7
100
AcDbLine
 10
0.8303660451200976
 20
0.5763838409975932
 30
0.0
 11
0.8565335070089475
 21
0.8506391351417761
 31
0.0
  0
LINE
  5
16F
330
96
100
AcDbEntity
  8
0
 62
     7
100
AcDbLine
 10
0.8565335070089475
 20
0.8506391351417761
 30
0.0
 11
0.8605309463300213
 21
0.9840057393949415
 31
0.0
  0
LINE
  5
170
330
96
100
AcDbEntity
  8
0
 62
     7
100
AcDbLine
 10
0.8605309463300213
 20
0.9840057393949415
 30
0.0
 11
0.8603330525856627
 21
1.042739700651911
 31
0.0
  0
LINE
  5
171
330
96
100
AcDbEntity
  8
0
 62
     7
100
AcDbLine
 10
0.8603330525856627
 20
1.042739700651911
 30
0.0
 11
0.8588045847398149
 21
1.101793189095158
 31
0.0
  0
LINE
  5
172
330
96
100
AcDbEntity
  8
0
 62
     7
100
AcDbLine
 10
0.8588045847398149
 20
1.101793189095158
 30
0.0
 11
0.8558150528101702
 21
1.160805707743716
 31
0.0
  0
LINE
  5
173
330
96
100
AcDbEntity
  8
0
 62
     7
100
AcDbLine
 10
0.8558150528101702
 20
1.160805707743716
 30
0.0
 11
0.8512339668144122
 21
1.219416759616639
 31
0.0
  0
LINE
  5
174
330
96
100
AcDbEntity
  8
0
 62
     7
100
AcDbLine
 10
0.8512339668144122
 20
1.219416759616639
 30
0.0
 11
0.8449308367702315
 21
1.277265847732963
 31
0.0
  0
LINE
  5
175
330
96
100
AcDbEntity
  8
0
 62
     7
100
AcDbLine
 10
0.8449308367702315
 20
1.277265847732963
 30
0.0
 11
0.8367751726953241
 21
1.333992475111732
 31
0.0
  0
LINE
  5
176
330
96
100
AcDbEntity
  8
0
 62
     7
100
AcDbLine
 10
0.8367751726953241
 20
1.333992475111732
 30
0.0
 11
0.8266364846073682
 21
1.389236144771985
 31
0.0
  0
LINE
  5
177
330
96
100
AcDbEntity
  8
0
 62
     7
100
AcDbLine
 10
0.8266364846073682
 20
1.389236144771985
 30
0.0
 11
0.7997229181369789
 21
1.494678027163296
 31
0.0
  0
LINE
  5
178
330
96
100
AcDbEntity
  8
0
 62
     7
100
AcDbLine
 10
0.7997229181369789
 20
1.494678027163296
 30
0.0
 11
0.7187692889139115
 21
1.681074400888555
 31
0.0
  0
LINE
  5
179
330
96
100
AcDbEntity
  8
0
 62
     7
100
AcDbLine
 10
0.7187692889139115
 20
1.681074400888555
 30
0.0
 11
0.6017809193875934
 21
1.834314511744648
 31
0.0
  0
LINE
  5
17A
330
96
100
AcDbEntity
  8
0
 62
     7
100
AcDbLine
 10
0.6017809193875934
 20
1.834314511744648
 30
0.0
 11
0.4486912821359823
 21
1.955060678759207
 31
0.0
  0
LINE
  5
17B
330
96
100
AcDbEntity
  8
0
 62
     7
100
AcDbLine
 10
0.4486912821359823
 20
1.955060678759207
 30
0.0
 11
0.2594338497370412
 21
2.043975220959869
 31
0.0
  0
LINE
  5
17C
330
96
100
AcDbEntity
  8
0
 62
     7
100
AcDbLine
 10
0.2594338497370412
 20
2.043975220959869
 30
0.0
 11
0.0339420947687241
 21
2.10172045737427
 31
0.0
  0
LINE
  5
17D
330
96
100
AcDbEntity
  8
0
 62
     7
100
AcDbLine
 10
0.0339420947687241
 20
2.10172045737427
 30
0.0
 11
-0.2278505101910095
 21
2.128958707030041
 31
0.0
  0
LINE
  5
17E
330
96
100
AcDbEntity
  8
0
 62
     7
100
AcDbLine
 10
-0.2278505101910095
 20
2.128958707030041
 30
0.0
 11
-0.5260104925642004
 21
2.126352288954823
 31
0.0
  0
LINE
  5
17F
330
96
100
AcDbEntity
  8
0
 62
     7
100
AcDbLine
 10
-0.5260104925642004
 20
2.126352288954823
 30
0.0
 11
-0.8606043797728873
 21
2.094563522176244
 31
0.0
  0
ENDBLK
  5
98
330
96
100
AcDbEntity
  8
0
100
AcDbBlockEnd
  0
BLOCK
  5
9A
330
99
100
AcDbEntity
  8
0
100
AcDbBlockBegin
  2
BLOCK_11
 70
     0
 10
0.0
 20
0.0
 30
0.0
  3
BLOCK_11
  1

  0
LINE
  5
180
330
99
100
AcDbEntity
  8
0
 62
     7
100
AcDbLine
 10
-0.1249222660238889
 20
-0.0194232822825455
 30
0.0
 11
0.1249222660238853
 21
0.0194232822825384
 31
0.0
  0
ENDBLK
  5
9B
330
99
100
AcDbEntity
  8
0
100
AcDbBlockEnd
  0
BLOCK
  5
9D
330
9C
100
AcDbEntity
  8
0
100
AcDbBlockBegin
  2
BLOCK_10
 70
     0
 10
0.0
 20
0.0
 30
0.0
  3
BLOCK_10
  1

  0
LINE
  5
181
330
9C
100
AcDbEntity
  8
0
 62
     7
100
AcDbLine
 10
0.0529629455457989
 20
0.1955849076128438
 30
0.0
 11
0.0165462347813286
 21
0.1863305622191227
 31
0.0
  0
LINE
  5
182
330
9C
100
AcDbEntity
  8
0
 62
     7
100
AcDbLine
 10
0.0165462347813286
 20
0.1863305622191227
 30
0.0
 11
-0.0165061379324261
 21
0.1708602547954037
 31
0.0
  0
LINE
  5
183
330
9C
100
AcDbEntity
  8
0
 62
     7
100
AcDbLine
 10
-0.0165061379324261
 20
0.1708602547954037
 30
0.0
 11
-0.045643452982576
 21
0.1499274900229857
 31
0.0
  0
LINE
  5
184
330
9C
100
AcDbEntity
  8
0
 62
     7
100
AcDbLine
 10
-0.045643452982576
 20
0.1499274900229857
 30
0.0
 11
-0.0703149907562306
 21
0.1242857725831854
 31
0.0
  0
LINE
  5
185
330
9C
100
AcDbEntity
  8
0
 62
     7
100
AcDbLine
 10
-0.0703149907562306
 20
0.1242857725831854
 30
0.0
 11
-0.0899700316404992
 21
0.0946886071573054
 31
0.0
  0
LINE
  5
186
330
9C
100
AcDbEntity
  8
0
 62
     7
100
AcDbLine
 10
-0.0899700316404992
 20
0.0946886071573054
 30
0.0
 11
-0.1040578560224947
 21
0.0618894984266483
 31
0.0
  0
LINE
  5
187
330
9C
100
AcDbEntity
  8
0
 62
     7
100
AcDbLine
 10
-0.1040578560224947
 20
0.0618894984266483
 30
0.0
 11
-0.11202774428933
 21
0.02664195107252
 31
0.0
  0
LINE
  5
188
330
9C
100
AcDbEntity
  8
0
 62
     7
100
AcDbLine
 10
-0.11202774428933
 20
0.02664195107252
 30
0.0
 11
-0.1133289768281127
 21
-0.0103005302237662
 31
0.0
  0
LINE
  5
189
330
9C
100
AcDbEntity
  8
0
 62
     7
100
AcDbLine
 10
-0.1133289768281127
 20
-0.0103005302237662
 30
0.0
 11
-0.1075036639199283
 21
-0.0477663785500901
 31
0.0
  0
LINE
  5
18A
330
9C
100
AcDbEntity
  8
0
 62
     7
100
AcDbLine
 10
-0.1075036639199283
 20
-0.0477663785500901
 30
0.0
 11
-0.0950471494260423
 21
-0.0825697602408191
 31
0.0
  0
LINE
  5
18B
330
9C
100
AcDbEntity
  8
0
 62
     7
100
AcDbLine
 10
-0.0950471494260423
 20
-0.0825697602408191
 30
0.0
 11
-0.0767514252428132
 21
-0.1137334440743913
 31
0.0
  0
LINE
  5
18C
330
9C
100
AcDbEntity
  8
0
 62
     7
100
AcDbLine
 10
-0.0767514252428132
 20
-0.1137334440743913
 30
0.0
 11
-0.0533699960515452
 21
-0.1407067104379109
 31
0.0
  0
LINE
  5
18D
330
9C
100
AcDbEntity
  8
0
 62
     7
100
AcDbLine
 10
-0.0533699960515452
 20
-0.1407067104379109
 30
0.0
 11
-0.0256563665335392
 21
-0.1629388397184854
 31
0.0
  0
LINE
  5
18E
330
9C
100
AcDbEntity
  8
0
 62
     7
100
AcDbLine
 10
-0.0256563665335392
 20
-0.1629388397184854
 30
0.0
 11
0.0056359586298917
 21
-0.1798791123032295
 31
0.0
  0
LINE
  5
18F
330
9C
100
AcDbEntity
  8
0
 62
     7
100
AcDbLine
 10
0.0056359586298917
 20
-0.1798791123032295
 30
0.0
 11
0.0397534747574451
 21
-0.1909768085792614
 31
0.0
  0
LINE
  5
190
330
9C
100
AcDbEntity
  8
0
 62
     7
100
AcDbLine
 10
0.0397534747574451
 20
-0.1909768085792614
 30
0.0
 11
0.0759426771678164
 21
-0.1956812089336815
 31
0.0
  0
LINE
  5
191
330
9C
100
AcDbEntity
  8
0
 62
     7
100
AcDbLine
 10
0.0759426771678164
 20
-0.1956812089336815
 30
0.0
 11
0.1134500611796962
 21
-0.1934415937536045
 31
0.0
  0
ENDBLK
  5
9E
330
9C
100
AcDbEntity
  8
0
100
AcDbBlockEnd
  0
BLOCK
  5
A0
330
9F
100
AcDbEntity
  8
0
100
AcDbBlockBegin
  2
BLOCK_9
 70
     0
 10
0.0
 20
0.0
 30
0.0
  3
BLOCK_9
  1

  0
LINE
  5
192
330
9F
100
AcDbEntity
  8
0
 62
     7
100
AcDbLine
 10
-0.1249222706046069
 20
-0.019423282282542
 30
0.0
 11
0.1249222706046051
 21
0.019423282282542
 31
0.0
  0
ENDBLK
  5
A1
330
9F
100
AcDbEntity
  8
0
100
AcDbBlockEnd
  0
BLOCK
  5
A3
330
A2
100
AcDbEntity
  8
0
100
AcDbBlockBegin
  2
BLOCK_8
 70
     0
 10
0.0
 20
0.0
 30
0.0
  3
BLOCK_8
  1

  0
LINE
  5
193
330
A2
100
AcDbEntity
  8
0
 62
     7
100
AcDbLine
 10
-0.0158888836637185
 20
-0.0586754722838663
 30
0.0
 11
-0.0049638704343824
 21
-0.0558991686657393
 31
0.0
  0
LINE
  5
194
330
A2
100
AcDbEntity
  8
0
 62
     7
100
AcDbLine
 10
-0.0049638704343824
 20
-0.0558991686657393
 30
0.0
 11
0.0049518413797429
 21
-0.0512580764386179
 31
0.0
  0
LINE
  5
195
330
A2
100
AcDbEntity
  8
0
 62
     7
100
AcDbLine
 10
0.0049518413797429
 20
-0.0512580764386179
 30
0.0
 11
0.0136930358947858
 21
-0.0449782470068882
 31
0.0
  0
LINE
  5
196
330
A2
100
AcDbEntity
  8
0
 62
     7
100
AcDbLine
 10
0.0136930358947858
 20
-0.0449782470068882
 30
0.0
 11
0.0210944972268798
 21
-0.0372857317749435
 31
0.0
  0
LINE
  5
197
330
A2
100
AcDbEntity
  8
0
 62
     7
100
AcDbLine
 10
0.0210944972268798
 20
-0.0372857317749435
 30
0.0
 11
0.0269910094921624
 21
-0.0284065821471771
 31
0.0
  0
LINE
  5
198
330
A2
100
AcDbEntity
  8
0
 62
     7
100
AcDbLine
 10
0.0269910094921624
 20
-0.0284065821471771
 30
0.0
 11
0.0312173568067617
 21
-0.0185668495279749
 31
0.0
  0
LINE
  5
199
330
A2
100
AcDbEntity
  8
0
 62
     7
100
AcDbLine
 10
0.0312173568067617
 20
-0.0185668495279749
 30
0.0
 11
0.0336083232868134
 21
-0.0079925853217411
 31
0.0
  0
LINE
  5
19A
330
A2
100
AcDbEntity
  8
0
 62
     7
100
AcDbLine
 10
0.0336083232868134
 20
-0.0079925853217411
 30
0.0
 11
0.033998693048451
 21
0.0030901590671526
 31
0.0
  0
LINE
  5
19B
330
A2
100
AcDbEntity
  8
0
 62
     7
100
AcDbLine
 10
0.033998693048451
 20
0.0030901590671526
 30
0.0
 11
0.0322510991759923
 21
0.0143299135650459
 31
0.0
  0
LINE
  5
19C
330
A2
100
AcDbEntity
  8
0
 62
     7
100
AcDbLine
 10
0.0322510991759923
 20
0.0143299135650459
 30
0.0
 11
0.0285141448278186
 21
0.024770928072261
 31
0.0
  0
LINE
  5
19D
330
A2
100
AcDbEntity
  8
0
 62
     7
100
AcDbLine
 10
0.0285141448278186
 20
0.024770928072261
 30
0.0
 11
0.0230254275728434
 21
0.0341200332223259
 31
0.0
  0
LINE
  5
19E
330
A2
100
AcDbEntity
  8
0
 62
     7
100
AcDbLine
 10
0.0230254275728434
 20
0.0341200332223259
 30
0.0
 11
0.0160109988154602
 21
0.0422120131313797
 31
0.0
  0
LINE
  5
19F
330
A2
100
AcDbEntity
  8
0
 62
     7
100
AcDbLine
 10
0.0160109988154602
 20
0.0422120131313797
 30
0.0
 11
0.007696909960055
 21
0.0488816519155506
 31
0.0
  0
LINE
  5
1A0
330
A2
100
AcDbEntity
  8
0
 62
     7
100
AcDbLine
 10
0.007696909960055
 20
0.0488816519155506
 30
0.0
 11
-0.0016907875889753
 21
0.0539637336909742
 31
0.0
  0
LINE
  5
1A1
330
A2
100
AcDbEntity
  8
0
 62
     7
100
AcDbLine
 10
-0.0016907875889753
 20
0.0539637336909742
 30
0.0
 11
-0.0119260424272429
 21
0.0572930425737823
 31
0.0
  0
LINE
  5
1A2
330
A2
100
AcDbEntity
  8
0
 62
     7
100
AcDbLine
 10
-0.0119260424272429
 20
0.0572930425737823
 30
0.0
 11
-0.0227828031503581
 21
0.0587043626801105
 31
0.0
  0
LINE
  5
1A3
330
A2
100
AcDbEntity
  8
0
 62
     7
100
AcDbLine
 10
-0.0227828031503581
 20
0.0587043626801105
 30
0.0
 11
-0.0340350183539293
 21
0.058032478126087
 31
0.0
  0
ENDBLK
  5
A4
330
A2
100
AcDbEntity
  8
0
100
AcDbBlockEnd
  0
BLOCK
  5
A6
330
A5
100
AcDbEntity
  8
0
100
AcDbBlockBegin
  2
BLOCK_7
 70
     0
 10
0.0
 20
0.0
 30
0.0
  3
BLOCK_7
  1

  0
LINE
  5
1A4
330
A5
100
AcDbEntity
  8
0
 62
     7
100
AcDbLine
 10
-0.0038902643297316
 20
-0.0006048463463202
 30
0.0
 11
0.0038902643297334
 21
0.0006048463463202
 31
0.0
  0
ENDBLK
  5
A7
330
A5
100
AcDbEntity
  8
0
100
AcDbBlockEnd
  0
BLOCK
  5
A9
330
A8
100
AcDbEntity
  8
0
100
AcDbBlockBegin
  2
BLOCK_6
 70
     0
 10
0.0
 20
0.0
 30
0.0
  3
BLOCK_6
  1

  0
LINE
  5
1A5
330
A8
100
AcDbEntity
  8
0
 62
     7
100
AcDbLine
 10
0.1415282810514604
 20
-1.70205517008128
 30
0.0
 11
0.1331013361696254
 21
-1.337945036746504
 31
0.0
  0
LINE
  5
1A6
330
A8
100
AcDbEntity
  8
0
 62
     7
100
AcDbLine
 10
0.1331013361696254
 20
-1.337945036746504
 30
0.0
 11
0.1189184452276102
 21
-0.9703038161853534
 31
0.0
  0
LINE
  5
1A7
330
A8
100
AcDbEntity
  8
0
 62
     7
100
AcDbLine
 10
0.1189184452276102
 20
-0.9703038161853534
 30
0.0
 11
0.0989796082254184
 21
-0.599131508397825
 31
0.0
  0
LINE
  5
1A8
330
A8
100
AcDbEntity
  8
0
 62
     7
100
AcDbLine
 10
0.0989796082254184
 20
-0.599131508397825
 30
0.0
 11
0.0732848251630465
 21
-0.2244281133839188
 31
0.0
  0
LINE
  5
1A9
330
A8
100
AcDbEntity
  8
0
 62
     7
100
AcDbLine
 10
0.0732848251630465
 20
-0.2244281133839188
 30
0.0
 11
0.0418340960404997
 21
0.1538063688563618
 31
0.0
  0
LINE
  5
1AA
330
A8
100
AcDbEntity
  8
0
 62
     7
100
AcDbLine
 10
0.0418340960404997
 20
0.1538063688563618
 30
0.0
 11
0.0046274208577763
 21
0.5355719383230273
 31
0.0
  0
LINE
  5
1AB
330
A8
100
AcDbEntity
  8
0
 62
     7
100
AcDbLine
 10
0.0046274208577763
 20
0.5355719383230273
 30
0.0
 11
-0.0383352003851218
 21
0.9208685950160671
 31
0.0
  0
LINE
  5
1AC
330
A8
100
AcDbEntity
  8
0
 62
     7
100
AcDbLine
 10
-0.0383352003851218
 20
0.9208685950160671
 30
0.0
 11
-0.0870537676882055
 21
1.309696338935485
 31
0.0
  0
LINE
  5
1AD
330
A8
100
AcDbEntity
  8
0
 62
     7
100
AcDbLine
 10
-0.0870537676882055
 20
1.309696338935485
 30
0.0
 11
-0.1415282810514586
 21
1.70205517008128
 31
0.0
  0
ENDBLK
  5
AA
330
A8
100
AcDbEntity
  8
0
100
AcDbBlockEnd
  0
BLOCK
  5
AC
330
AB
100
AcDbEntity
  8
0
100
AcDbBlockBegin
  2
BLOCK_5
 70
     0
 10
0.0
 20
0.0
 30
0.0
  3
BLOCK_5
  1

  0
LINE
  5
1AE
330
AB
100
AcDbEntity
  8
0
 62
     7
100
AcDbLine
 10
0.0039370103513825
 20
0.0
 30
0.0
 11
-0.0039370103513843
 21
0.0
 31
0.0
  0
ENDBLK
  5
AD
330
AB
100
AcDbEntity
  8
0
100
AcDbBlockEnd
  0
BLOCK
  5
AF
330
AE
100
AcDbEntity
  8
0
100
AcDbBlockBegin
  2
BLOCK_4
 70
     0
 10
0.0
 20
0.0
 30
0.0
  3
BLOCK_4
  1

  0
LINE
  5
1AF
330
AE
100
AcDbEntity
  8
0
 62
     7
100
AcDbLine
 10
-0.0295275590477377
 20
-0.0590551180954719
 30
0.0
 11
-0.018305711354115
 21
-0.0579902659074634
 31
0.0
  0
LINE
  5
1B0
330
AE
100
AcDbEntity
  8
0
 62
     7
100
AcDbLine
 10
-0.018305711354115
 20
-0.0579902659074634
 30
0.0
 11
-0.0077946809186322
 21
-0.0549276988427643
 31
0.0
  0
LINE
  5
1B1
330
AE
100
AcDbEntity
  8
0
 62
     7
100
AcDbLine
 10
-0.0077946809186322
 20
-0.0549276988427643
 30
0.0
 11
0.0018075480097011
 21
-0.0500654011503876
 31
0.0
  0
LINE
  5
1B2
330
AE
100
AcDbEntity
  8
0
 62
     7
100
AcDbLine
 10
0.0018075480097011
 20
-0.0500654011503876
 30
0.0
 11
0.0103029911818737
 21
-0.0436013570793392
 31
0.0
  0
LINE
  5
1B3
330
AE
100
AcDbEntity
  8
0
 62
     7
100
AcDbLine
 10
0.0103029911818737
 20
-0.0436013570793392
 30
0.0
 11
0.0174936643488888
 21
-0.0357335508786214
 31
0.0
  0
LINE
  5
1B4
330
AE
100
AcDbEntity
  8
0
 62
     7
100
AcDbLine
 10
0.0174936643488888
 20
-0.0357335508786214
 30
0.0
 11
0.0231815832617315
 21
-0.02665996679724
 31
0.0
  0
LINE
  5
1B5
330
AE
100
AcDbEntity
  8
0
 62
     7
100
AcDbLine
 10
0.0231815832617315
 20
-0.02665996679724
 30
0.0
 11
0.0271687636713942
 21
-0.0165785890842081
 31
0.0
  0
LINE
  5
1B6
330
AE
100
AcDbEntity
  8
0
 62
     7
100
AcDbLine
 10
0.0271687636713942
 20
-0.0165785890842081
 30
0.0
 11
0.0292572213288782
 21
-0.0056874019885207
 31
0.0
  0
LINE
  5
1B7
330
AE
100
AcDbEntity
  8
0
 62
     7
100
AcDbLine
 10
0.0292572213288782
 20
-0.0056874019885207
 30
0.0
 11
0.0292572213288764
 21
0.0056874019885171
 31
0.0
  0
LINE
  5
1B8
330
AE
100
AcDbEntity
  8
0
 62
     7
100
AcDbLine
 10
0.0292572213288764
 20
0.0056874019885171
 30
0.0
 11
0.027168763671396
 21
0.0165785890841939
 31
0.0
  0
LINE
  5
1B9
330
AE
100
AcDbEntity
  8
0
 62
     7
100
AcDbLine
 10
0.027168763671396
 20
0.0165785890841939
 30
0.0
 11
0.0231815832617279
 21
0.0266599667972258
 31
0.0
  0
LINE
  5
1BA
330
AE
100
AcDbEntity
  8
0
 62
     7
100
AcDbLine
 10
0.0231815832617279
 20
0.0266599667972258
 30
0.0
 11
0.017493664348887
 21
0.0357335508786036
 31
0.0
  0
LINE
  5
1BB
330
AE
100
AcDbEntity
  8
0
 62
     7
100
AcDbLine
 10
0.017493664348887
 20
0.0357335508786036
 30
0.0
 11
0.0103029911818737
 21
0.0436013570793286
 31
0.0
  0
LINE
  5
1BC
330
AE
100
AcDbEntity
  8
0
 62
     7
100
AcDbLine
 10
0.0103029911818737
 20
0.0436013570793286
 30
0.0
 11
0.0018075480096975
 21
0.0500654011503769
 31
0.0
  0
LINE
  5
1BD
330
AE
100
AcDbEntity
  8
0
 62
     7
100
AcDbLine
 10
0.0018075480096975
 20
0.0500654011503769
 30
0.0
 11
-0.007794680918634
 21
0.0549276988427607
 31
0.0
  0
LINE
  5
1BE
330
AE
100
AcDbEntity
  8
0
 62
     7
100
AcDbLine
 10
-0.007794680918634
 20
0.0549276988427607
 30
0.0
 11
-0.018305711354115
 21
0.0579902659074598
 31
0.0
  0
LINE
  5
1BF
330
AE
100
AcDbEntity
  8
0
 62
     7
100
AcDbLine
 10
-0.018305711354115
 20
0.0579902659074598
 30
0.0
 11
-0.0295275590477377
 21
0.0590551180954719
 31
0.0
  0
ENDBLK
  5
B0
330
AE
100
AcDbEntity
  8
0
100
AcDbBlockEnd
  0
BLOCK
  5
B2
330
B1
100
AcDbEntity
  8
0
100
AcDbBlockBegin
  2
BLOCK_3
 70
     0
 10
0.0
 20
0.0
 30
0.0
  3
BLOCK_3
  1

  0
LINE
  5
1C0
330
B1
100
AcDbEntity
  8
0
 62
     7
100
AcDbLine
 10
-0.1231921235105524
 20
0.0
 30
0.0
 11
0.1231921235105524
 21
0.0
 31
0.0
  0
ENDBLK
  5
B3
330
B1
100
AcDbEntity
  8
0
100
AcDbBlockEnd
  0
BLOCK
  5
B5
330
B4
100
AcDbEntity
  8
0
100
AcDbBlockBegin
  2
BLOCK_2
 70
     0
 10
0.0
 20
0.0
 30
0.0
  3
BLOCK_2
  1

  0
LINE
  5
1C1
330
B4
100
AcDbEntity
  8
0
 62
     7
100
AcDbLine
 10
-0.1043264407014988
 20
0.0000127696592926
 30
0.0
 11
-0.1023073238614138
 21
0.0205416664112761
 31
0.0
  0
LINE
  5
1C2
330
B4
100
AcDbEntity
  8
0
 62
     7
100
AcDbLine
 10
-0.1023073238614138
 20
0.0205416664112761
 30
0.0
 11
-0.0965096956269438
 21
0.0397074690265669
 31
0.0
  0
LINE
  5
1C3
330
B4
100
AcDbEntity
  8
0
 62
     7
100
AcDbLine
 10
-0.0965096956269438
 20
0.0397074690265669
 30
0.0
 11
-0.0873231394267417
 21
0.0571205940765012
 31
0.0
  0
LINE
  5
1C4
330
B4
100
AcDbEntity
  8
0
 62
     7
100
AcDbLine
 10
-0.0873231394267417
 20
0.0571205940765012
 30
0.0
 11
-0.0751372386894751
 21
0.0723914581324294
 31
0.0
  0
LINE
  5
1C5
330
B4
100
AcDbEntity
  8
0
 62
     7
100
AcDbLine
 10
-0.0751372386894751
 20
0.0723914581324294
 30
0.0
 11
-0.0603415768437987
 21
0.0851304777656772
 31
0.0
  0
LINE
  5
1C6
330
B4
100
AcDbEntity
  8
0
 62
     7
100
AcDbLine
 10
-0.0603415768437987
 20
0.0851304777656772
 30
0.0
 11
-0.0433257373183764
 21
0.0949480695475948
 31
0.0
  0
LINE
  5
1C7
330
B4
100
AcDbEntity
  8
0
 62
     7
100
AcDbLine
 10
-0.0433257373183764
 20
0.0949480695475948
 30
0.0
 11
-0.0244793035418684
 21
0.1014546500495044
 31
0.0
  0
LINE
  5
1C8
330
B4
100
AcDbEntity
  8
0
 62
     7
100
AcDbLine
 10
-0.0244793035418684
 20
0.1014546500495044
 30
0.0
 11
-0.0041918589429351
 21
0.1042606358427633
 31
0.0
  0
LINE
  5
1C9
330
B4
100
AcDbEntity
  8
0
 62
     7
100
AcDbLine
 10
-0.0041918589429351
 20
0.1042606358427633
 30
0.0
 11
0.0165239661966208
 21
0.1030429324038522
 31
0.0
  0
LINE
  5
1CA
330
B4
100
AcDbEntity
  8
0
 62
     7
100
AcDbLine
 10
0.0165239661966208
 20
0.1030429324038522
 30
0.0
 11
0.0359935543135386
 21
0.0979698397739668
 31
0.0
  0
LINE
  5
1CB
330
B4
100
AcDbEntity
  8
0
 62
     7
100
AcDbLine
 10
0.0359935543135386
 20
0.0979698397739668
 30
0.0
 11
0.0537883815508362
 21
0.0894299024926113
 31
0.0
  0
LINE
  5
1CC
330
B4
100
AcDbEntity
  8
0
 62
     7
100
AcDbLine
 10
0.0537883815508362
 20
0.0894299024926113
 30
0.0
 11
0.0695188644798517
 21
0.0778127039884531
 31
0.0
  0
LINE
  5
1CD
330
B4
100
AcDbEntity
  8
0
 62
     7
100
AcDbLine
 10
0.0695188644798517
 20
0.0778127039884531
 30
0.0
 11
0.0827954196719212
 21
0.0635078276901595
 31
0.0
  0
LINE
  5
1CE
330
B4
100
AcDbEntity
  8
0
 62
     7
100
AcDbLine
 10
0.0827954196719212
 20
0.0635078276901595
 30
0.0
 11
0.0932284636983844
 21
0.0469048570263872
 31
0.0
  0
LINE
  5
1CF
330
B4
100
AcDbEntity
  8
0
 62
     7
100
AcDbLine
 10
0.0932284636983844
 20
0.0469048570263872
 30
0.0
 11
0.1004284131305919
 21
0.0283933754257966
 31
0.0
  0
LINE
  5
1D0
330
B4
100
AcDbEntity
  8
0
 62
     7
100
AcDbLine
 10
0.1004284131305919
 20
0.0283933754257966
 30
0.0
 11
0.1040056845398674
 21
0.0083629663170548
 31
0.0
  0
LINE
  5
1D1
330
B4
100
AcDbEntity
  8
0
 62
     7
100
AcDbLine
 10
0.1040056845398674
 20
0.0083629663170548
 30
0.0
 11
0.1035987445044224
 21
-0.0124463230162881
 31
0.0
  0
LINE
  5
1D2
330
B4
100
AcDbEntity
  8
0
 62
     7
100
AcDbLine
 10
0.1035987445044224
 20
-0.0124463230162881
 30
0.0
 11
0.0992657708162685
 21
-0.0322041132976949
 31
0.0
  0
LINE
  5
1D3
330
B4
100
AcDbEntity
  8
0
 62
     7
100
AcDbLine
 10
0.0992657708162685
 20
-0.0322041132976949
 30
0.0
 11
0.0913880357909189
 21
-0.0503650593852072
 31
0.0
  0
LINE
  5
1D4
330
B4
100
AcDbEntity
  8
0
 62
     7
100
AcDbLine
 10
0.0913880357909189
 20
-0.0503650593852072
 30
0.0
 11
0.0803551228570374
 21
-0.0665395778501718
 31
0.0
  0
LINE
  5
1D5
330
B4
100
AcDbEntity
  8
0
 62
     7
100
AcDbLine
 10
0.0803551228570374
 20
-0.0665395778501718
 30
0.0
 11
0.0665566154432842
 21
-0.0803380852639251
 31
0.0
  0
LINE
  5
1D6
330
B4
100
AcDbEntity
  8
0
 62
     7
100
AcDbLine
 10
0.0665566154432842
 20
-0.0803380852639251
 30
0.0
 11
0.0503820969783231
 21
-0.0913709981978066
 31
0.0
  0
LINE
  5
1D7
330
B4
100
AcDbEntity
  8
0
 62
     7
100
AcDbLine
 10
0.0503820969783231
 20
-0.0913709981978066
 30
0.0
 11
0.0322211508908072
 21
-0.0992487332231562
 31
0.0
  0
LINE
  5
1D8
330
B4
100
AcDbEntity
  8
0
 62
     7
100
AcDbLine
 10
0.0322211508908072
 20
-0.0992487332231562
 30
0.0
 11
0.012463360609404
 21
-0.1035817069113101
 31
0.0
  0
LINE
  5
1D9
330
B4
100
AcDbEntity
  8
0
 62
     7
100
AcDbLine
 10
0.012463360609404
 20
-0.1035817069113101
 30
0.0
 11
-0.0083459287239407
 21
-0.1039886469467532
 31
0.0
  0
LINE
  5
1DA
330
B4
100
AcDbEntity
  8
0
 62
     7
100
AcDbLine
 10
-0.0083459287239407
 20
-0.1039886469467532
 30
0.0
 11
-0.0283763378326825
 21
-0.100411375537476
 31
0.0
  0
LINE
  5
1DB
330
B4
100
AcDbEntity
  8
0
 62
     7
100
AcDbLine
 10
-0.0283763378326825
 20
-0.100411375537476
 30
0.0
 11
-0.0468878194332643
 21
-0.0932114261052774
 31
0.0
  0
LINE
  5
1DC
330
B4
100
AcDbEntity
  8
0
 62
     7
100
AcDbLine
 10
-0.0468878194332643
 20
-0.0932114261052774
 30
0.0
 11
-0.0634907900970312
 21
-0.0827783820788071
 31
0.0
  0
LINE
  5
1DD
330
B4
100
AcDbEntity
  8
0
 62
     7
100
AcDbLine
 10
-0.0634907900970312
 20
-0.0827783820788071
 30
0.0
 11
-0.0777956663953177
 21
-0.0695018268867322
 31
0.0
  0
LINE
  5
1DE
330
B4
100
AcDbEntity
  8
0
 62
     7
100
AcDbLine
 10
-0.0777956663953177
 20
-0.0695018268867322
 30
0.0
 11
-0.0894128648994688
 21
-0.0537713439577168
 31
0.0
  0
LINE
  5
1DF
330
B4
100
AcDbEntity
  8
0
 62
     7
100
AcDbLine
 10
-0.0894128648994688
 20
-0.0537713439577168
 30
0.0
 11
-0.0979528021808154
 21
-0.0359765167204245
 31
0.0
  0
LINE
  5
1E0
330
B4
100
AcDbEntity
  8
0
 62
     7
100
AcDbLine
 10
-0.0979528021808154
 20
-0.0359765167204245
 30
0.0
 11
-0.1030258948107008
 21
-0.0165069286035049
 31
0.0
  0
LINE
  5
1E1
330
B4
100
AcDbEntity
  8
0
 62
     7
100
AcDbLine
 10
-0.1030258948107008
 20
-0.0165069286035049
 30
0.0
 11
-0.1043264407014988
 21
0.0000127696592926
 31
0.0
  0
ENDBLK
  5
B6
330
B4
100
AcDbEntity
  8
0
100
AcDbBlockEnd
  0
BLOCK
  5
B8
330
B7
100
AcDbEntity
  8
0
100
AcDbBlockBegin
  2
BEAN_DEFLECTOR_AILLIO_BULL
 70
     0
 10
0.0
 20
0.0
 30
0.0
  3
BEAN_DEFLECTOR_AILLIO_BULL
  1

  0
INSERT
  5
1E2
330
B7
100
AcDbEntity
  8
0
 62
     7
100
AcDbBlockReference
  2
BLOCK_2
 10
0.1965312122570602
 20
8.253052845559274
 30
0.0
  0
INSERT
  5
1E3
330
B7
100
AcDbEntity
  8
0
 62
     7
100
AcDbBlockReference
  2
BLOCK_3
 10
0.6547276375940427
 20
4.457260738199011
 30
0.0
  0
INSERT
  5
1E4
330
B7
100
AcDbEntity
  8
0
 62
     7
100
AcDbBlockReference
  2
BLOCK_4
 10
0.8074473137035145
 20
4.516315860696078
 30
0.0
  0
INSERT
  5
1E5
330
B7
100
AcDbEntity
  8
0
 62
     7
100
AcDbBlockReference
  2
BLOCK_5
 10
0.7739827507532127
 20
4.57537099375217
 30
0.0
  0
INSERT
  5
1E6
330
B7
100
AcDbEntity
  8
0
 62
     7
100
AcDbBlockReference
  2
BLOCK_6
 10
0.628517457858619
 20
6.277426148871687
 30
0.0
  0
INSERT
  5
1E7
330
B7
100
AcDbEntity
  8
0
 62
     7
100
AcDbBlockReference
  2
BLOCK_7
 10
0.4908794417786897
 20
7.980086311338003
 30
0.0
  0
INSERT
  5
1E8
330
B7
100
AcDbEntity
  8
0
 62
     7
100
AcDbBlockReference
  2
BLOCK_8
 10
0.5106585904974832
 20
8.03936653354782
 30
0.0
  0
INSERT
  5
1E9
330
B7
100
AcDbEntity
  8
0
 62
     7
100
AcDbBlockReference
  2
BLOCK_9
 10
0.3517013003390979
 20
8.077975647152105
 30
0.0
  0
INSERT
  5
1EA
330
B7
100
AcDbEntity
  8
0
 62
     7
100
AcDbBlockReference
  2
BLOCK_10
 10
0.1133289768281127
 20
8.25199395828895
 30
0.0
  0
INSERT
  5
1EB
330
B7
100
AcDbEntity
  8
0
 62
     7
100
AcDbBlockReference
  2
BLOCK_11
 10
0.2912141861908406
 20
8.467002139657215
 30
0.0
  0
INSERT
  5
1EC
330
B7
100
AcDbEntity
  8
0
 62
     7
100
AcDbBlockReference
  2
BLOCK_12
 10
1.276740836283007
 20
6.391861990865731
 30
0.0
  0
INSERT
  5
1ED
330
B7
100
AcDbEntity
  8
0
 62
     7
100
AcDbBlockReference
  2
BLOCK_13
 10
0.1965312122570602
 20
0.2677423130162087
 30
0.0
  0
INSERT
  5
1EE
330
B7
100
AcDbEntity
  8
0
 62
     7
100
AcDbBlockReference
  2
BLOCK_14
 10
0.2912141861908406
 20
0.0538185582408204
 30
0.0
  0
INSERT
  5
1EF
330
B7
100
AcDbEntity
  8
0
 62
     7
100
AcDbBlockReference
  2
BLOCK_15
 10
0.1133289768281127
 20
0.2688267396051458
 30
0.0
  0
INSERT
  5
1F0
330
B7
100
AcDbEntity
  8
0
 62
     7
100
AcDbBlockReference
  2
BLOCK_16
 10
0.3517013003390979
 20
0.4428450507419832
 30
0.0
  0
INSERT
  5
1F1
330
B7
100
AcDbEntity
  8
0
 62
     7
100
AcDbBlockReference
  2
BLOCK_17
 10
0.510658590497501
 20
0.4814541643462995
 30
0.0
  0
INSERT
  5
1F2
330
B7
100
AcDbEntity
  8
0
 62
     7
100
AcDbBlockReference
  2
BLOCK_18
 10
0.4908794417786897
 20
0.5407343865600467
 30
0.0
  0
INSERT
  5
1F3
330
B7
100
AcDbEntity
  8
0
 62
     7
100
AcDbBlockReference
  2
BLOCK_19
 10
0.628517457858619
 20
2.243394549024083
 30
0.0
  0
INSERT
  5
1F4
330
B7
100
AcDbEntity
  8
0
 62
     7
100
AcDbBlockReference
  2
BLOCK_20
 10
0.7739827507532127
 20
3.945449704145863
 30
0.0
  0
INSERT
  5
1F5
330
B7
100
AcDbEntity
  8
0
 62
     7
100
AcDbBlockReference
  2
BLOCK_21
 10
0.8074473137035145
 20
4.004504837201985
 30
0.0
  0
INSERT
  5
1F6
330
B7
100
AcDbEntity
  8
0
 62
     7
100
AcDbBlockReference
  2
BLOCK_22
 10
0.6547276375940427
 20
4.06355995969508
 30
0.0
  0
INSERT
  5
1F7
330
B7
100
AcDbEntity
  8
0
 62
     7
100
AcDbBlockReference
  2
BLOCK_23
 10
0.433110317257702
 20
4.26041034894903
 30
0.0
  0
INSERT
  5
1F8
330
B7
100
AcDbEntity
  8
0
 62
     7
100
AcDbBlockReference
  2
BLOCK_24
 10
0.5315312461496848
 20
4.260397579289702
 30
0.0
  0
INSERT
  5
1F9
330
B7
100
AcDbEntity
  8
0
 62
     7
100
AcDbBlockReference
  2
BLOCK_25
 10
1.276740836283027
 20
2.128958707030041
 30
0.0
  0
ENDBLK
  5
B9
330
B7
100
AcDbEntity
  8
0
100
AcDbBlockEnd
  0
ENDSEC
  0
SECTION
  2
ENTITIES
  0
INSERT
  5
1FA
330
1F
100
AcDbEntity
  8
0
100
AcDbBlockReference
  2
BEAN_DEFLECTOR_AILLIO_BULL
 10
0.0
 20
0.0
 30
0.0
  0
ENDSEC
  0
SECTION
  2
OBJECTS
  0
DICTIONARY
  5
C
330
0
100
AcDbDictionary
  3
ACAD_GROUP
350
D
  3
ACAD_LAYOUT
350
1A
  3
ACAD_MATERIAL
350
43
  3
ACAD_MLEADERSTYLE
350
6B
  3
ACAD_MLINESTYLE
350
17
  3
ACAD_PLOTSETTINGS
350
19
  3
ACAD_SCALELIST
350
47
  3
ACAD_VISUALSTYLE
350
2A
  3
ACDBHEADERROUNDTRIPXREC
350
1FB
  3
ACDBVARIABLEDICTIONARY
350
21C
  0
DICTIONARY
  5
223
330
8
100
AcDbDictionary
280
     1
  3
ACAD_XREC_ROUNDTRIP
360
224
  0
DICTIONARY
  5
D
102
{ACAD_REACTORS
330
C
102
}
330
C
100
AcDbDictionary
  0
DICTIONARY
  5
1A
102
{ACAD_REACTORS
330
C
102
}
330
C
100
AcDbDictionary
  0
DICTIONARY
  5
43
102
{ACAD_REACTORS
330
C
102
}
330
C
100
AcDbDictionary
  3
BYBLOCK
350
45
  3
BYLAYER
350
44
  3
GLOBAL
350
46
  0
DICTIONARY
  5
6B
102
{ACAD_REACTORS
330
C
102
}
330
C
100
AcDbDictionary
  3
STANDARD
350
6C
  0
DICTIONARY
  5
17
102
{ACAD_REACTORS
330
C
102
}
330
C
100
AcDbDictionary
  3
STANDARD
350
18
  0
DICTIONARY
  5
19
102
{ACAD_REACTORS
330
C
102
}
330
C
100
AcDbDictionary
  0
DICTIONARY
  5
47
102
{ACAD_REACTORS
330
C
102
}
330
C
100
AcDbDictionary
  3
A0
350
48
  3
A1
350
49
  3
A2
350
4A
  3
A3
350
4B
  3
A4
350
4C
  3
A5
350
4D
  3
A6
350
4E
  3
A7
350
4F
  3
A8
350
50
  3
A9
350
51
  3
B0
350
52
  3
B1
350
53
  3
B2
350
54
  3
B3
350
55
  3
B4
350
56
  3
B5
350
57
  3
B6
350
58
  3
B7
350
59
  3
B8
350
5A
  3
B9
350
5B
  3
C0
350
5C
  3
C1
350
5D
  3
C2
350
5E
  3
C3
350
5F
  3
C4
350
60
  3
C5
350
61
  3
C6
350
62
  3
C7
350
63
  3
C8
350
64
  3
C9
350
65
  3
D0
350
66
  3
D1
350
67
  3
D2
350
68
  0
DICTIONARY
  5
2A
102
{ACAD_REACTORS
330
C
102
}
330
C
100
AcDbDictionary
  3
2DWIREFRAME
350
2F
  3
BASIC
350
32
  3
BRIGHTEN
350
36
  3
COLORCHANGE
350
3A
  3
CONCEPTUAL
350
34
  3
DIM
350
35
  3
EDGECOLOROFF
350
3D
  3
FACEPATTERN
350
39
  3
FLAT
350
2B
  3
FLATWITHEDGES
350
2C
  3
GOURAUD
350
2D
  3
GOURAUDWITHEDGES
350
2E
  3
HIDDEN
350
31
  3
JITTEROFF
350
3B
  3
LINEPATTERN
350
38
  3
OVERHANGOFF
350
3C
  3
REALISTIC
350
33
  3
SHADED
350
42
  3
SHADED_WITH_EDGES
350
41
  3
SHADES_OF_GRAY
350
3E
  3
SKETCHY
350
3F
  3
THICKEN
350
37
  3
WIREFRAME
350
30
  3
X-RAY
350
40
  0
DICTIONARY
  5
1FB
102
{ACAD_REACTORS
330
C
102
}
330
C
100
AcDbDictionary
  3
CEPSNID
350
205
  3
CEPSNTYPE
350
204
  3
DIMSTYLEDATA
350
21B
  3
FINGERPRINTGUID
350
206
  3
HYPERLINKBASE
350
1FE
  3
INSUNITS
350
203
  3
LAYOUTDICT
350
200
  3
LWETCUNION
350
202
  3
PLOTSETDICT
350
201
  3
PSVPSCALE
350
208
  3
PUCSBASE
350
20B
  3
PUCSORGBACK
350
211
  3
PUCSORGBOTTOM
350
20D
  3
PUCSORGFRONT
350
210
  3
PUCSORGLEFT
350
20E
  3
PUCSORGRIGHT
350
20F
  3
PUCSORGTOP
350
20C
  3
PUCSORTHOREF
350
209
  3
PUCSORTHOVIEW
350
20A
  3
STYLESHEET
350
1FF
  3
TSTACKALIGN
350
1FC
  3
TSTACKSIZE
350
1FD
  3
UCSBASE
350
214
  3
UCSORGBACK
350
21A
  3
UCSORGBOTTOM
350
216
  3
UCSORGFRONT
350
219
  3
UCSORGLEFT
350
217
  3
UCSORGRIGHT
350
218
  3
UCSORGTOP
350
215
  3
UCSORTHOREF
350
212
  3
UCSORTHOVIEW
350
213
  3
VERSIONGUID
350
207
  0
DICTIONARY
  5
21C
102
{ACAD_REACTORS
330
C
102
}
330
C
100
AcDbDictionary
  3
CANNOSCALE
350
225
  3
CMLEADERSTYLE
350
21E
  3
CTABLESTYLE
350
21D
  3
DIMASSOC
350
221
  3
HIDETEXT
350
222
  3
MSLTSCALE
350
226
  0
XRECORD
  5
224
102
{ACAD_REACTORS
330
223
102
}
330
223
100
AcDbXrecord
102
VTR_0.000_0.000_1.000_1.000_VISUALSTYLE
340
2F
102
VTR_0.000_0.000_1.000_1.000_GRIDDISPLAY
 70
     3
102
VTR_0.000_0.000_1.000_1.000_GRIDMAJOR
 70
     5
102
VTR_0.000_0.000_1.000_1.000_DEFAULTLIGHTING
280
     1
102
VTR_0.000_0.000_1.000_1.000_DEFAULTLIGHTINGTYPE
 70
     1
102
VTR_0.000_0.000_1.000_1.000_BRIGHTNESS
141
0.0
102
VTR_0.000_0.000_1.000_1.000_CONTRAST
142
0.0
  0
MATERIAL
  5
45
102
{ACAD_REACTORS
330
43
102
}
102
{ACAD_XDICTIONARY
360
229
102
}
330
43
100
AcDbMaterial
  1
BYBLOCK
  0
MATERIAL
  5
44
102
{ACAD_REACTORS
330
43
102
}
102
{ACAD_XDICTIONARY
360
227
102
}
330
43
100
AcDbMaterial
  1
BYLAYER
  0
MATERIAL
  5
46
102
{ACAD_REACTORS
330
43
102
}
102
{ACAD_XDICTIONARY
360
22B
102
}
330
43
100
AcDbMaterial
  1
GLOBAL
  0
ACAD_PROXY_OBJECT
  5
6C
102
{ACAD_REACTORS
330
6B
102
}
330
6B
100
AcDbProxyObject
 90
      499
 91
      505
 93
      610
310
40901902A4063FBFFFFFE056BD1B81E855B9FC0AD7A3703D0AD73F4214DD185B99185C9900AD7A3703D0AC73F90141901A02B5E8DC0F42B1CFC02B5E8DC0F42B1CFE5764000000000000300FC0
340
14
340
0
340
11
340
0
 94
        0
1001
ACAD_MLEADERVER
1070
     2
  0
MLINESTYLE
  5
18
102
{ACAD_REACTORS
330
17
102
}
330
17
100
AcDbMlineStyle
  2
Standard
 70
     0
  3

 62
   256
 51
90.0
 52
90.0
 71
     2
 49
0.5
 62
   256
  6
BYLAYER
 49
-0.5
 62
   256
  6
BYLAYER
  0
ACAD_PROXY_OBJECT
  5
48
102
{ACAD_REACTORS
330
47
102
}
330
47
100
AcDbProxyObject
 90
      499
 91
      503
 93
       41
310
903313A31580
  0
ACAD_PROXY_OBJECT
  5
49
102
{ACAD_REACTORS
330
47
102
}
330
47
100
AcDbProxyObject
 90
      499
 91
      503
 93
      105
310
903313A324000000000000004000
  0
ACAD_PROXY_OBJECT
  5
4A
102
{ACAD_REACTORS
330
47
102
}
330
47
100
AcDbProxyObject
 90
      499
 91
      503
 93
      105
310
903313A344000000000000104000
  0
ACAD_PROXY_OBJECT
  5
4B
102
{ACAD_REACTORS
330
47
102
}
330
47
100
AcDbProxyObject
 90
      499
 91
      503
 93
      105
310
903313A354000000000000144000
  0
ACAD_PROXY_OBJECT
  5
4C
102
{ACAD_REACTORS
330
47
102
}
330
47
100
AcDbProxyObject
 90
      499
 91
      503
 93
      105
310
903313A384000000000000204000
  0
ACAD_PROXY_OBJECT
  5
4D
102
{ACAD_REACTORS
330
47
102
}
330
47
100
AcDbProxyObject
 90
      499
 91
      503
 93
      113
310
904313A31304000000000000244000
  0
ACAD_PROXY_OBJECT
  5
4E
102
{ACAD_REACTORS
330
47
102
}
330
47
100
AcDbProxyObject
 90
      499
 91
      503
 93
      113
310
904313A31364000000000000304000
  0
ACAD_PROXY_OBJECT
  5
4F
102
{ACAD_REACTORS
330
47
102
}
330
47
100
AcDbProxyObject
 90
      499
 91
      503
 93
      113
310
904313A32304000000000000344000
  0
ACAD_PROXY_OBJECT
  5
50
102
{ACAD_REACTORS
330
47
102
}
330
47
100
AcDbProxyObject
 90
      499
 91
      503
 93
      113
310
904313A333040000000000003E4000
  0
ACAD_PROXY_OBJECT
  5
51
102
{ACAD_REACTORS
330
47
102
}
330
47
100
AcDbProxyObject
 90
      499
 91
      503
 93
      113
310
904313A34304000000000000444000
  0
ACAD_PROXY_OBJECT
  5
52
102
{ACAD_REACTORS
330
47
102
}
330
47
100
AcDbProxyObject
 90
      499
 91
      503
 93
      113
310
904313A35304000000000000494000
  0
ACAD_PROXY_OBJECT
  5
53
102
{ACAD_REACTORS
330
47
102
}
330
47
100
AcDbProxyObject
 90
      499
 91
      503
 93
      121
310
905313A3130304000000000000594000
  0
ACAD_PROXY_OBJECT
  5
54
102
{ACAD_REACTORS
330
47
102
}
330
47
100
AcDbProxyObject
 90
      499
 91
      503
 93
      105
310
903323A310000000000000010100
  0
ACAD_PROXY_OBJECT
  5
55
102
{ACAD_REACTORS
330
47
102
}
330
47
100
AcDbProxyObject
 90
      499
 91
      503
 93
      105
310
903343A310000000000000410100
  0
ACAD_PROXY_OBJECT
  5
56
102
{ACAD_REACTORS
330
47
102
}
330
47
100
AcDbProxyObject
 90
      499
 91
      503
 93
      105
310
903383A310000000000000810100
  0
ACAD_PROXY_OBJECT
  5
57
102
{ACAD_REACTORS
330
47
102
}
330
47
100
AcDbProxyObject
 90
      499
 91
      503
 93
      113
310
90431303A310000000000000910100
  0
ACAD_PROXY_OBJECT
  5
58
102
{ACAD_REACTORS
330
47
102
}
330
47
100
AcDbProxyObject
 90
      499
 91
      503
 93
      121
310
9053130303A310000000000001650100
  0
ACAD_PROXY_OBJECT
  5
59
102
{ACAD_REACTORS
330
47
102
}
330
47
100
AcDbProxyObject
 90
      499
 91
      503
 93
      257
310
90E312F31323822203D2031272D3022000000000000200FC000000000000284000
  0
ACAD_PROXY_OBJECT
  5
5A
102
{ACAD_REACTORS
330
47
102
}
330
47
100
AcDbProxyObject
 90
      499
 91
      503
 93
      249
310
90D312F363422203D2031272D3022000000000000240FC000000000000284000
  0
ACAD_PROXY_OBJECT
  5
5B
102
{ACAD_REACTORS
330
47
102
}
330
47
100
AcDbProxyObject
 90
      499
 91
      503
 93
      249
310
90D312F333222203D2031272D3022000000000000280FC000000000000284000
  0
ACAD_PROXY_OBJECT
  5
5C
102
{ACAD_REACTORS
330
47
102
}
330
47
100
AcDbProxyObject
 90
      499
 91
      503
 93
      249
310
90D312F313622203D2031272D30220000000000002C0FC000000000000284000
  0
ACAD_PROXY_OBJECT
  5
5D
102
{ACAD_REACTORS
330
47
102
}
330
47
100
AcDbProxyObject
 90
      499
 91
      503
 93
      249
310
90D332F333222203D2031272D30220000000000002E0FC000000000000284000
  0
ACAD_PROXY_OBJECT
  5
5E
102
{ACAD_REACTORS
330
47
102
}
330
47
100
AcDbProxyObject
 90
      499
 91
      503
 93
      241
310
90C312F3822203D2031272D3022000000000000300FC000000000000284000
  0
ACAD_PROXY_OBJECT
  5
5F
102
{ACAD_REACTORS
330
47
102
}
330
47
100
AcDbProxyObject
 90
      499
 91
      503
 93
      249
310
90D332F313622203D2031272D3022000000000000320FC000000000000284000
  0
ACAD_PROXY_OBJECT
  5
60
102
{ACAD_REACTORS
330
47
102
}
330
47
100
AcDbProxyObject
 90
      499
 91
      503
 93
      241
310
90C312F3422203D2031272D3022000000000000340FC000000000000284000
  0
ACAD_PROXY_OBJECT
  5
61
102
{ACAD_REACTORS
330
47
102
}
330
47
100
AcDbProxyObject
 90
      499
 91
      503
 93
      241
310
90C332F3822203D2031272D3022000000000000360FC000000000000284000
  0
ACAD_PROXY_OBJECT
  5
62
102
{ACAD_REACTORS
330
47
102
}
330
47
100
AcDbProxyObject
 90
      499
 91
      503
 93
      241
310
90C312F3222203D2031272D3022000000000000380FC000000000000284000
  0
ACAD_PROXY_OBJECT
  5
63
102
{ACAD_REACTORS
330
47
102
}
330
47
100
AcDbProxyObject
 90
      499
 91
      503
 93
      241
310
90C332F3422203D2031272D30220000000000003A0FC000000000000284000
  0
ACAD_PROXY_OBJECT
  5
64
102
{ACAD_REACTORS
330
47
102
}
330
47
100
AcDbProxyObject
 90
      499
 91
      503
 93
      161
310
90A3122203D2031272D30224000000000000284000
  0
ACAD_PROXY_OBJECT
  5
65
102
{ACAD_REACTORS
330
47
102
}
330
47
100
AcDbProxyObject
 90
      499
 91
      503
 93
      257
310
90E312D312F3222203D2031272D30220000000000003E0FC000000000000284000
  0
ACAD_PROXY_OBJECT
  5
66
102
{ACAD_REACTORS
330
47
102
}
330
47
100
AcDbProxyObject
 90
      499
 91
      503
 93
      225
310
90A3322203D2031272D302200000000000002100000000000000284000
  0
ACAD_PROXY_OBJECT
  5
67
102
{ACAD_REACTORS
330
47
102
}
330
47
100
AcDbProxyObject
 90
      499
 91
      503
 93
      225
310
90A3622203D2031272D302200000000000006100000000000000284000
  0
ACAD_PROXY_OBJECT
  5
68
102
{ACAD_REACTORS
330
47
102
}
330
47
100
AcDbProxyObject
 90
      499
 91
      503
 93
      249
310
90D31272D3022203D2031272D30220000000000000A100000000000000284000
  0
ACAD_PROXY_OBJECT
  5
2F
102
{ACAD_REACTORS
330
2A
102
}
330
2A
100
AcDbProxyObject
 90
      499
 91
      501
 93
      436
310
42CC9915DA5C99599C985B595049028333333333333E33F0000000000000F90107901411070040501600405405064090741402480A0340
1001
ACAD
1000
AcDbSavedByObjectVersion
1070
     0
  0
ACAD_PROXY_OBJECT
  5
32
102
{ACAD_REACTORS
330
2A
102
}
330
2A
100
AcDbProxyObject
 90
      499
 91
      501
 93
      388
310
4150985CDA58D07406404333333333333E33F0000000000000F90107A41107004050150841D405064090741402480A0350
1001
ACAD
1000
AcDbSavedByObjectVersion
1070
     0
  0
ACAD_PROXY_OBJECT
  5
36
102
{ACAD_REACTORS
330
2A
102
}
330
2A
100
AcDbProxyObject
 90
      499
 91
      501
 93
      428
310
42109C9A59DA1D195B90C409028333333333333E33F0000000000000F9010790141107004050150841D405064090741402480A029950
1001
ACAD
1000
AcDbSavedByObjectVersion
1070
     0
  0
ACAD_PROXY_OBJECT
  5
3A
102
{ACAD_REACTORS
330
2A
102
}
330
2A
100
AcDbProxyObject
 90
      499
 91
      501
 93
      452
310
42D0DBDB1BDC90DA185B99D95104090240C333333333333E33F0000000000000F90108901411070040501508421405064090741402480A0350
1001
ACAD
1000
AcDbSavedByObjectVersion
1070
     0
  0
ACAD_PROXY_OBJECT
  5
34
102
{ACAD_REACTORS
330
2A
102
}
330
2A
100
AcDbProxyObject
 90
      499
 91
      501
 93
      500
310
4290DBDB98D95C1D1D585B10940D028333333333333E33F0000000000000F90107902409070040501000000000018199010841D405064090740C02480A0340
1001
ACAD
1000
AcDbSavedByObjectVersion
1070
     0
  0
ACAD_PROXY_OBJECT
  5
35
102
{ACAD_REACTORS
330
2A
102
}
330
2A
100
AcDbProxyObject
 90
      499
 91
      501
 93
      412
310
40D11A5B50B409028333333333333E33F0000000000000F9010790141107004050150841D405064090741402480A02677FFFFFD0
1001
ACAD
1000
AcDbSavedByObjectVersion
1070
     0
  0
ACAD_PROXY_OBJECT
  5
3D
102
{ACAD_REACTORS
330
2A
102
}
330
2A
100
AcDbProxyObject
 90
      499
 91
      501
 93
      452
310
43115919D950DBDB1BDC93D999916409028333333333333E33F0000000000000F9010790141107004050150841D405064090741402480A0350
1001
ACAD
1000
AcDbSavedByObjectVersion
1070
     0
  0
ACAD_PROXY_OBJECT
  5
39
102
{ACAD_REACTORS
330
2A
102
}
330
2A
100
AcDbProxyObject
 90
      499
 91
      501
 93
      444
310
42D19858D95C185D1D195C9B90F409028333333333333E33F0000000000000F9010790141107004050150841D405064090741402480A0350
1001
ACAD
1000
AcDbSavedByObjectVersion
1070
     0
  0
ACAD_PROXY_OBJECT
  5
2B
102
{ACAD_REACTORS
330
2A
102
}
330
2A
100
AcDbProxyObject
 90
      499
 91
      501
 93
      380
310
41119B185D240901404333333333333E33F0000000000000F9010740A907004050150841D405064090741402480A1B50
1001
ACAD
1000
AcDbSavedByObjectVersion
1070
     0
  0
ACAD_PROXY_OBJECT
  5
2C
102
{ACAD_REACTORS
330
2A
102
}
330
2A
100
AcDbProxyObject
 90
      499
 91
      501
 93
      468
310
43519B185D15DA5D1A115919D95CD0140901404333333333333E33F0000000000000F90107409019070040501600405405064090741402480A1B50
1001
ACAD
1000
AcDbSavedByObjectVersion
1070
     0
  0
ACAD_PROXY_OBJECT
  5
2D
102
{ACAD_REACTORS
330
2A
102
}
330
2A
100
AcDbProxyObject
 90
      499
 91
      501
 93
      404
310
41D1DBDD5C985D5910240902404333333333333E33F0000000000000F9010740A9070040501641D405064090741402480A1B50
1001
ACAD
1000
AcDbSavedByObjectVersion
1070
     0
  0
ACAD_PROXY_OBJECT
  5
2E
102
{ACAD_REACTORS
330
2A
102
}
330
2A
100
AcDbProxyObject
 90
      499
 91
      501
 93
      492
310
4411DBDD5C985D5915DA5D1A115919D95CD0340902404333333333333E33F0000000000000F90107409019070040501600405405064090741402480A1B50
1001
ACAD
1000
AcDbSavedByObjectVersion
1070
     0
  0
ACAD_PROXY_OBJECT
  5
31
102
{ACAD_REACTORS
330
2A
102
}
330
2A
100
AcDbProxyObject
 90
      499
 91
      501
 93
      476
310
41921A5919195B90640502408333333333333E33F0000000000000F901079024090700405020000000000001110200405405064090740C02480A0340
1001
ACAD
1000
AcDbSavedByObjectVersion
1070
     0
  0
ACAD_PROXY_OBJECT
  5
3B
102
{ACAD_REACTORS
330
2A
102
}
330
2A
100
AcDbProxyObject
 90
      499
 91
      501
 93
      428
310
42529A5D1D195C93D999914409028333333333333E33F0000000000000F9010790141107004050150A41D405064090741402480A0350
1001
ACAD
1000
AcDbSavedByObjectVersion
1070
     0
  0
ACAD_PROXY_OBJECT
  5
38
102
{ACAD_REACTORS
330
2A
102
}
330
2A
100
AcDbProxyObject
 90
      499
 91
      501
 93
      444
310
42D31A5B995C185D1D195C9B90E409028333333333333E33F0000000000000F9010790141107004050750841D405064090741402483A0350
1001
ACAD
1000
AcDbSavedByObjectVersion
1070
     0
  0
ACAD_PROXY_OBJECT
  5
3C
102
{ACAD_REACTORS
330
2A
102
}
330
2A
100
AcDbProxyObject
 90
      499
 91
      501
 93
      444
310
42D3DD995C9A185B99D3D999915409028333333333333E33F0000000000000F9010790141107004050150941D405064090741402480A0350
1001
ACAD
1000
AcDbSavedByObjectVersion
1070
     0
  0
ACAD_PROXY_OBJECT
  5
33
102
{ACAD_REACTORS
330
2A
102
}
330
2A
100
AcDbProxyObject
 90
      499
 91
      501
 93
      428
310
425499585B1A5CDD1A58D08409038333333333333E33F0000000000000F9010740A907004050150800405405064090740C02480A1B40
1001
ACAD
1000
AcDbSavedByObjectVersion
1070
     0
  0
ACAD_PROXY_OBJECT
  5
42
102
{ACAD_REACTORS
330
2A
102
}
330
2A
100
AcDbProxyObject
 90
      499
 91
      501
 93
      420
310
4194DA1859195911B40902404333333333333E33F0000000000000F9010740A41107004050150800405405064090840C02480A0B40
1001
ACAD
1000
AcDbSavedByObjectVersion
1070
     0
  0
ACAD_PROXY_OBJECT
  5
41
102
{ACAD_REACTORS
330
2A
102
}
330
2A
100
AcDbProxyObject
 90
      499
 91
      501
 93
      516
310
4454DA18591959081DDA5D1A08195919D95CD1A40902404333333333333E33F0000000000000F901074090142907004050250800405405064090740C02480A0B40
1001
ACAD
1000
AcDbSavedByObjectVersion
1070
     0
  0
ACAD_PROXY_OBJECT
  5
3E
102
{ACAD_REACTORS
330
2A
102
}
330
2A
100
AcDbProxyObject
 90
      499
 91
      501
 93
      532
310
4394DA1859195CC81BD98811DC985E5174090240C333333333333E33F0000000000000F901079024090741D01000000000000111010841D405064090740C02480A0340
1001
ACAD
1000
AcDbSavedByObjectVersion
1070
     0
  0
ACAD_PROXY_OBJECT
  5
3F
102
{ACAD_REACTORS
330
2A
102
}
330
2A
100
AcDbProxyObject
 90
      499
 91
      501
 93
      476
310
41D4DAD95D18DA1E51840502408333333333333E33F0000000000000F901079024090741D01000000000000111010B41D405064090741802480A0340
1001
ACAD
1000
AcDbSavedByObjectVersion
1070
     0
  0
ACAD_PROXY_OBJECT
  5
37
102
{ACAD_REACTORS
330
2A
102
}
330
2A
100
AcDbProxyObject
 90
      499
 91
      501
 93
      412
310
41D51A1A58DAD95B90D409028333333333333E33F0000000000000F9010790141107004050150C41D405064090741402480A0350
1001
ACAD
1000
AcDbSavedByObjectVersion
1070
     0
  0
ACAD_PROXY_OBJECT
  5
30
102
{ACAD_REACTORS
330
2A
102
}
330
2A
100
AcDbProxyObject
 90
      499
 91
      501
 93
      420
310
4255DA5C99599C985B595059028333333333333E33F0000000000000F90107901411070040501600405405064090740C02480A0340
1001
ACAD
1000
AcDbSavedByObjectVersion
1070
     0
  0
ACAD_PROXY_OBJECT
  5
40
102
{ACAD_REACTORS
330
2A
102
}
330
2A
100
AcDbProxyObject
 90
      499
 91
      501
 93
      404
310
41560B54985E51940902404000000000000E03F0000000000000F9010740501907004050150841D405064090740C02480A1B40
1001
ACAD
1000
AcDbSavedByObjectVersion
1070
     0
  0
XRECORD
  5
205
102
{ACAD_REACTORS
330
1FB
102
}
330
1FB
100
AcDbXrecord
340
0
  0
XRECORD
  5
204
102
{ACAD_REACTORS
330
1FB
102
}
330
1FB
100
AcDbXrecord
 90
        0
  0
XRECORD
  5
21B
102
{ACAD_REACTORS
330
1FB
102
}
330
1FB
100
AcDbXrecord
1000
DSTYLE
1002
{
1070
   340
340
11
1002
}
  0
XRECORD
  5
206
102
{ACAD_REACTORS
330
1FB
102
}
330
1FB
100
AcDbXrecord
  1
{8D5E8B4F-EE0E-49F7-9CB5-9DEC5D771278}
  0
XRECORD
  5
1FE
102
{ACAD_REACTORS
330
1FB
102
}
330
1FB
100
AcDbXrecord
  1

  0
XRECORD
  5
203
102
{ACAD_REACTORS
330
1FB
102
}
330
1FB
100
AcDbXrecord
 90
        1
  0
XRECORD
  5
200
102
{ACAD_REACTORS
330
1FB
102
}
330
1FB
100
AcDbXrecord
340
1A
  0
XRECORD
  5
202
102
{ACAD_REACTORS
330
1FB
102
}
330
1FB
100
AcDbXrecord
 90
    10781
  0
XRECORD
  5
201
102
{ACAD_REACTORS
330
1FB
102
}
330
1FB
100
AcDbXrecord
340
19
  0
XRECORD
  5
208
102
{ACAD_REACTORS
330
1FB
102
}
330
1FB
100
AcDbXrecord
 40
0.0
  0
XRECORD
  5
20B
102
{ACAD_REACTORS
330
1FB
102
}
330
1FB
100
AcDbXrecord
340
0
  0
XRECORD
  5
211
102
{ACAD_REACTORS
330
1FB
102
}
330
1FB
100
AcDbXrecord
 10
0.0
 20
0.0
 30
0.0
  0
XRECORD
  5
20D
102
{ACAD_REACTORS
330
1FB
102
}
330
1FB
100
AcDbXrecord
 10
0.0
 20
0.0
 30
0.0
  0
XRECORD
  5
210
102
{ACAD_REACTORS
330
1FB
102
}
330
1FB
100
AcDbXrecord
 10
0.0
 20
0.0
 30
0.0
  0
XRECORD
  5
20E
102
{ACAD_REACTORS
330
1FB
102
}
330
1FB
100
AcDbXrecord
 10
0.0
 20
0.0
 30
0.0
  0
XRECORD
  5
20F
102
{ACAD_REACTORS
330
1FB
102
}
330
1FB
100
AcDbXrecord
 10
0.0
 20
0.0
 30
0.0
  0
XRECORD
  5
20C
102
{ACAD_REACTORS
330
1FB
102
}
330
1FB
100
AcDbXrecord
 10
0.0
 20
0.0
 30
0.0
  0
XRECORD
  5
209
102
{ACAD_REACTORS
330
1FB
102
}
330
1FB
100
AcDbXrecord
340
0
  0
XRECORD
  5
20A
102
{ACAD_REACTORS
330
1FB
102
}
330
1FB
100
AcDbXrecord
 70
     0
  0
XRECORD
  5
1FF
102
{ACAD_REACTORS
330
1FB
102
}
330
1FB
100
AcDbXrecord
  1

  0
XRECORD
  5
1FC
102
{ACAD_REACTORS
330
1FB
102
}
330
1FB
100
AcDbXrecord
 90
        1
  0
XRECORD
  5
1FD
102
{ACAD_REACTORS
330
1FB
102
}
330
1FB
100
AcDbXrecord
 90
       70
  0
XRECORD
  5
214
102
{ACAD_REACTORS
330
1FB
102
}
330
1FB
100
AcDbXrecord
340
0
  0
XRECORD
  5
21A
102
{ACAD_REACTORS
330
1FB
102
}
330
1FB
100
AcDbXrecord
 10
0.0
 20
0.0
 30
0.0
  0
XRECORD
  5
216
102
{ACAD_REACTORS
330
1FB
102
}
330
1FB
100
AcDbXrecord
 10
0.0
 20
0.0
 30
0.0
  0
XRECORD
  5
219
102
{ACAD_REACTORS
330
1FB
102
}
330
1FB
100
AcDbXrecord
 10
0.0
 20
0.0
 30
0.0
  0
XRECORD
  5
217
102
{ACAD_REACTORS
330
1FB
102
}
330
1FB
100
AcDbXrecord
 10
0.0
 20
0.0
 30
0.0
  0
XRECORD
  5
218
102
{ACAD_REACTORS
330
1FB
102
}
330
1FB
100
AcDbXrecord
 10
0.0
 20
0.0
 30
0.0
  0
XRECORD
  5
215
102
{ACAD_REACTORS
330
1FB
102
}
330
1FB
100
AcDbXrecord
 10
0.0
 20
0.0
 30
0.0
  0
XRECORD
  5
212
102
{ACAD_REACTORS
330
1FB
102
}
330
1FB
100
AcDbXrecord
340
0
  0
XRECORD
  5
213
102
{ACAD_REACTORS
330
1FB
102
}
330
1FB
100
AcDbXrecord
 70
     0
  0
XRECORD
  5
207
102
{ACAD_REACTORS
330
1FB
102
}
330
1FB
100
AcDbXrecord
  1
{FAEB1C32-E019-11D5-929B-00C0DF256EC4}
  0
DICTIONARYVAR
  5
225
102
{ACAD_REACTORS
330
21C
102
}
330
21C
100
DictionaryVariables
280
     0
  1
1:1
  0
DICTIONARYVAR
  5
21E
102
{ACAD_REACTORS
330
21C
102
}
330
21C
100
DictionaryVariables
280
     0
  1
Standard
  0
DICTIONARYVAR
  5
21D
102
{ACAD_REACTORS
330
21C
102
}
330
21C
100
DictionaryVariables
280
     0
  1
Standard
  0
DICTIONARYVAR
  5
221
102
{ACAD_REACTORS
330
21C
102
}
330
21C
100
DictionaryVariables
280
     0
  1
2
  0
DICTIONARYVAR
  5
222
102
{ACAD_REACTORS
330
21C
102
}
330
21C
100
DictionaryVariables
280
     0
  1
1
  0
DICTIONARYVAR
  5
226
102
{ACAD_REACTORS
330
21C
102
}
330
21C
100
DictionaryVariables
280
     0
  1
1
  0
DICTIONARY
  5
229
330
45
100
AcDbDictionary
280
     1
  3
ACAD_XREC_ROUNDTRIP
360
22A
  0
DICTIONARY
  5
227
330
44
100
AcDbDictionary
280
     1
  3
ACAD_XREC_ROUNDTRIP
360
228
  0
DICTIONARY
  5
22B
330
46
100
AcDbDictionary
280
     1
  3
ACAD_XREC_ROUNDTRIP
360
22C
  0
XRECORD
  5
22A
102
{ACAD_REACTORS
330
229
102
}
330
229
100
AcDbXrecord
102
MATERIAL
148
0.0
149
0.0
149
0.0
 93
        0
 94
      127
282
     0
 72
     1
 77
     1
171
     1
175
     1
179
     1
273
     0
  0
XRECORD
  5
228
102
{ACAD_REACTORS
330
227
102
}
330
227
100
AcDbXrecord
102
MATERIAL
148
0.0
149
0.0
149
0.0
 93
        0
 94
      127
282
     0
 72
     1
 77
     1
171
     1
175
     1
179
     1
273
     0
  0
XRECORD
  5
22C
102
{ACAD_REACTORS
330
22B
102
}
330
22B
100
AcDbXrecord
102
MATERIAL
148
0.0
149
0.0
149
0.0
 93
        0
 94
      127
282
     0
 72
     1
 77
     1
171
     1
175
     1
179
     1
273
     0
  0
ENDSEC
  0
EOF
