0
SECTION
2
HEADER
9
$ACADVER
1
AC1003
9
$INSBASE
10
0.0
20
0.0
30
0.0
9
$EXTMIN
10
0.000
20
0.000
30
0.0
9
$EXTMAX
10
726.000
20
590.000
30
0.0
9
$LIMMIN
10
0.000
20
0.000
9
$LIMMAX
10
726.000
20
590.000
9
$LTSCALE
40
1.0
9
$LUNITS
70
2
9
$LUPREC
70
3
9
$LIMCHECK
70
0
9
$UCSNAME
2

9
$UCSORG
10
0.0
20
0.0
30
0.0
9
$UCSXDIR
10
1.0
20
0.0
30
0.0
9
$UCSYDIR
10
0.0
20
1.0
30
0.0
9
$WORLDVIEW
70
1
9
$UNITMODE
70
0
0
ENDSEC
0
SECTION
2
TABLES
0
TABLE
2
VPORT
70
1
0
VPORT
2
*ACTIVE
70
0
10
0.0
20
0.0
11
1.0
21
1.0
12
363.000
22
295.000
13
0.0
23
0.0
14
1.0
24
1.0
15
0.0
25
0.0
16
0.0
26
0.0
36
1.0
17
0.0
27
0.0
37
0.0
40
500.0
41
0.813
42
50.0
43
0.0
44
0.0
50
0.0
51
0.0
71
0
72
100
73
1
74
1
75
0
76
0
77
0
78
0
0
ENDTAB
0
TABLE
2
LTYPE
70
1
0
LTYPE
2
CONTINUOUS
70
64
3
Solid line
72
65
73
0
40
0.000
0
ENDTAB
0
TABLE
2
LAYER
70
1
0
LAYER
2
0
70
64
62
7
6
CONTINUOUS
0
ENDTAB
0
ENDSEC
0
SECTION
2
BLOCKS
0
ENDSEC
0
SECTION
2
ENTITIES
0
POLYLINE
8
0
6
CONTINUOUS
66
1
62
7
10
0.0
20
0.0
30
0.000000
0
VERTEX
8
0
10
99.000000
20
419.000000
0
VERTEX
8
0
10
103.000000
20
425.000000
0
VERTEX
8
0
10
102.352941
20
429.088235
0
VERTEX
8
0
10
100.000000
20
435.000000
0
VERTEX
8
0
10
98.000000
20
437.000000
0
VERTEX
8
0
10
91.000000
20
434.000000
0
VERTEX
8
0
10
89.647059
20
424.088235
0
VERTEX
8
0
10
89.000000
20
423.000000
0
VERTEX
8
0
10
91.000000
20
421.000000
0
VERTEX
8
0
10
99.000000
20
419.000000
0
SEQEND
0
POLYLINE
8
0
6
CONTINUOUS
66
1
62
7
10
0.0
20
0.0
30
0.000000
0
VERTEX
8
0
10
153.000000
20
408.000000
0
VERTEX
8
0
10
152.000000
20
408.000000
0
SEQEND
0
POLYLINE
8
0
6
CONTINUOUS
66
1
62
7
10
0.0
20
0.0
30
0.000000
0
VERTEX
8
0
10
260.000000
20
406.000000
0
VERTEX
8
0
10
266.100000
20
409.800000
0
VERTEX
8
0
10
270.000000
20
411.000000
0
VERTEX
8
0
10
272.000000
20
413.000000
0
VERTEX
8
0
10
273.700000
20
421.100000
0
VERTEX
8
0
10
274.000000
20
423.000000
0
VERTEX
8
0
10
273.000000
20
424.000000
0
VERTEX
8
0
10
270.000000
20
423.000000
0
VERTEX
8
0
10
268.000000
20
424.000000
0
VERTEX
8
0
10
267.000000
20
426.000000
0
VERTEX
8
0
10
259.769231
20
418.153846
0
VERTEX
8
0
10
258.792000
20
415.856000
0
VERTEX
8
0
10
258.000000
20
407.000000
0
VERTEX
8
0
10
259.000000
20
406.000000
0
VERTEX
8
0
10
260.000000
20
406.000000
0
SEQEND
0
POLYLINE
8
0
6
CONTINUOUS
66
1
62
7
10
0.0
20
0.0
30
0.000000
0
VERTEX
8
0
10
130.000000
20
405.000000
0
VERTEX
8
0
10
132.000000
20
407.000000
0
VERTEX
8
0
10
131.000000
20
411.000000
0
VERTEX
8
0
10
132.769231
20
413.153846
0
VERTEX
8
0
10
133.300000
20
416.100000
0
VERTEX
8
0
10
130.000000
20
423.000000
0
VERTEX
8
0
10
121.250000
20
419.750000
0
VERTEX
8
0
10
121.000000
20
419.000000
0
VERTEX
8
0
10
120.000000
20
412.000000
0
VERTEX
8
0
10
121.000000
20
410.000000
0
VERTEX
8
0
10
123.900000
20
407.800000
0
VERTEX
8
0
10
130.000000
20
405.000000
0
SEQEND
0
POLYLINE
8
0
6
CONTINUOUS
66
1
62
7
10
0.0
20
0.0
30
0.000000
0
VERTEX
8
0
10
153.000000
20
408.000000
0
VERTEX
8
0
10
153.800000
20
406.900000
0
VERTEX
8
0
10
155.000000
20
404.000000
0
VERTEX
8
0
10
154.384615
20
402.923077
0
VERTEX
8
0
10
154.250000
20
398.250000
0
VERTEX
8
0
10
162.000000
20
398.000000
0
VERTEX
8
0
10
166.200000
20
402.900000
0
VERTEX
8
0
10
167.000000
20
404.000000
0
VERTEX
8
0
10
165.800000
20
407.900000
0
VERTEX
8
0
10
165.200000
20
409.100000
0
VERTEX
8
0
10
164.000000
20
412.000000
0
VERTEX
8
0
10
161.000000
20
415.000000
0
VERTEX
8
0
10
160.000000
20
413.000000
0
VERTEX
8
0
10
153.000000
20
408.000000
0
SEQEND
0
POLYLINE
8
0
6
CONTINUOUS
66
1
62
7
10
0.0
20
0.0
30
0.000000
0
VERTEX
8
0
10
227.000000
20
397.000000
0
VERTEX
8
0
10
236.000000
20
402.000000
0
VERTEX
8
0
10
237.352941
20
408.911765
0
VERTEX
8
0
10
238.000000
20
411.000000
0
VERTEX
8
0
10
236.100000
20
412.200000
0
VERTEX
8
0
10
235.000000
20
413.000000
0
VERTEX
8
0
10
229.000000
20
413.000000
0
VERTEX
8
0
10
227.000000
20
412.000000
0
VERTEX
8
0
10
225.800000
20
410.100000
0
VERTEX
8
0
10
225.352941
20
408.911765
0
VERTEX
8
0
10
224.000000
20
402.000000
0
VERTEX
8
0
10
227.000000
20
397.000000
0
SEQEND
0
POLYLINE
8
0
6
CONTINUOUS
66
1
62
7
10
0.0
20
0.0
30
0.000000
0
VERTEX
8
0
10
197.000000
20
394.000000
0
VERTEX
8
0
10
202.200000
20
400.900000
0
VERTEX
8
0
10
204.000000
20
404.000000
0
VERTEX
8
0
10
201.000000
20
407.000000
0
VERTEX
8
0
10
200.000000
20
407.000000
0
VERTEX
8
0
10
198.000000
20
409.000000
0
VERTEX
8
0
10
197.000000
20
411.000000
0
VERTEX
8
0
10
192.100000
20
406.800000
0
VERTEX
8
0
10
188.000000
20
404.000000
0
VERTEX
8
0
10
190.700000
20
397.900000
0
VERTEX
8
0
10
191.000000
20
396.000000
0
VERTEX
8
0
10
193.000000
20
394.000000
0
VERTEX
8
0
10
197.000000
20
394.000000
0
SEQEND
0
POLYLINE
8
0
6
CONTINUOUS
66
1
62
7
10
0.0
20
0.0
30
0.000000
0
VERTEX
8
0
10
113.000000
20
392.000000
0
VERTEX
8
0
10
115.200000
20
395.900000
0
VERTEX
8
0
10
117.000000
20
399.000000
0
VERTEX
8
0
10
117.000000
20
402.000000
0
VERTEX
8
0
10
113.000000
20
408.000000
0
VERTEX
8
0
10
110.000000
20
411.000000
0
VERTEX
8
0
10
103.000000
20
408.000000
0
VERTEX
8
0
10
103.000000
20
401.000000
0
VERTEX
8
0
10
104.000000
20
399.000000
0
VERTEX
8
0
10
113.000000
20
392.000000
0
SEQEND
0
POLYLINE
8
0
6
CONTINUOUS
66
1
62
7
10
0.0
20
0.0
30
0.000000
0
VERTEX
8
0
10
97.000000
20
385.000000
0
VERTEX
8
0
10
100.000000
20
390.000000
0
VERTEX
8
0
10
96.200000
20
396.100000
0
VERTEX
8
0
10
95.000000
20
399.000000
0
VERTEX
8
0
10
93.000000
20
401.000000
0
VERTEX
8
0
10
92.000000
20
401.000000
0
VERTEX
8
0
10
87.000000
20
397.000000
0
VERTEX
8
0
10
87.000000
20
390.000000
0
VERTEX
8
0
10
88.000000
20
388.000000
0
VERTEX
8
0
10
90.000000
20
386.000000
0
VERTEX
8
0
10
94.088235
20
385.352941
0
VERTEX
8
0
10
97.000000
20
385.000000
0
SEQEND
0
POLYLINE
8
0
6
CONTINUOUS
66
1
62
7
10
0.0
20
0.0
30
0.000000
0
VERTEX
8
0
10
243.000000
20
383.000000
0
VERTEX
8
0
10
249.000000
20
386.000000
0
VERTEX
8
0
10
252.000000
20
389.000000
0
VERTEX
8
0
10
255.000000
20
398.000000
0
VERTEX
8
0
10
251.000000
20
401.000000
0
VERTEX
8
0
10
244.000000
20
399.000000
0
VERTEX
8
0
10
240.000000
20
394.000000
0
VERTEX
8
0
10
243.000000
20
383.000000
0
SEQEND
0
POLYLINE
8
0
6
CONTINUOUS
66
1
62
7
10
0.0
20
0.0
30
0.000000
0
VERTEX
8
0
10
147.000000
20
382.000000
0
VERTEX
8
0
10
148.647059
20
388.088235
0
VERTEX
8
0
10
150.000000
20
393.000000
0
VERTEX
8
0
10
145.180000
20
396.240000
0
VERTEX
8
0
10
142.000000
20
399.000000
0
VERTEX
8
0
10
137.000000
20
398.000000
0
VERTEX
8
0
10
134.000000
20
395.000000
0
VERTEX
8
0
10
137.000000
20
383.000000
0
VERTEX
8
0
10
147.000000
20
382.000000
0
SEQEND
0
POLYLINE
8
0
6
CONTINUOUS
66
1
62
7
10
0.0
20
0.0
30
0.000000
0
VERTEX
8
0
10
174.000000
20
377.000000
0
VERTEX
8
0
10
183.000000
20
378.000000
0
VERTEX
8
0
10
187.000000
20
386.000000
0
VERTEX
8
0
10
183.000000
20
390.000000
0
VERTEX
8
0
10
178.700000
20
392.400000
0
VERTEX
8
0
10
177.180000
20
391.760000
0
VERTEX
8
0
10
171.000000
20
387.000000
0
VERTEX
8
0
10
171.000000
20
378.000000
0
VERTEX
8
0
10
172.000000
20
377.000000
0
VERTEX
8
0
10
174.000000
20
377.000000
0
SEQEND
0
POLYLINE
8
0
6
CONTINUOUS
66
1
62
7
10
0.0
20
0.0
30
0.000000
0
VERTEX
8
0
10
210.000000
20
376.000000
0
VERTEX
8
0
10
211.100000
20
376.700000
0
VERTEX
8
0
10
218.000000
20
378.000000
0
VERTEX
8
0
10
220.000000
20
380.000000
0
VERTEX
8
0
10
221.000000
20
390.000000
0
VERTEX
8
0
10
215.153846
20
393.230769
0
VERTEX
8
0
10
213.400000
20
393.800000
0
VERTEX
8
0
10
204.000000
20
388.000000
0
VERTEX
8
0
10
205.647059
20
382.911765
0
VERTEX
8
0
10
206.352941
20
380.088235
0
VERTEX
8
0
10
208.000000
20
376.000000
0
VERTEX
8
0
10
210.000000
20
376.000000
0
SEQEND
0
POLYLINE
8
0
6
CONTINUOUS
66
1
62
7
10
0.0
20
0.0
30
0.000000
0
VERTEX
8
0
10
261.000000
20
370.000000
0
VERTEX
8
0
10
263.153846
20
371.769231
0
VERTEX
8
0
10
269.000000
20
373.000000
0
VERTEX
8
0
10
271.000000
20
375.000000
0
VERTEX
8
0
10
270.000000
20
376.000000
0
VERTEX
8
0
10
270.647059
20
381.088235
0
VERTEX
8
0
10
271.352941
20
383.911765
0
VERTEX
8
0
10
273.000000
20
387.000000
0
VERTEX
8
0
10
272.000000
20
388.000000
0
VERTEX
8
0
10
269.088235
20
388.352941
0
VERTEX
8
0
10
263.000000
20
391.000000
0
VERTEX
8
0
10
256.000000
20
381.000000
0
VERTEX
8
0
10
257.769231
20
377.846154
0
VERTEX
8
0
10
261.000000
20
370.000000
0
SEQEND
0
POLYLINE
8
0
6
CONTINUOUS
66
1
62
7
10
0.0
20
0.0
30
0.000000
0
VERTEX
8
0
10
133.000000
20
369.000000
0
VERTEX
8
0
10
133.000000
20
370.000000
0
VERTEX
8
0
10
134.352941
20
377.911765
0
VERTEX
8
0
10
135.000000
20
379.000000
0
VERTEX
8
0
10
133.153846
20
380.230769
0
VERTEX
8
0
10
130.846154
20
381.769231
0
VERTEX
8
0
10
127.000000
20
386.000000
0
VERTEX
8
0
10
118.000000
20
383.000000
0
VERTEX
8
0
10
120.647059
20
376.911765
0
VERTEX
8
0
10
121.000000
20
374.000000
0
VERTEX
8
0
10
123.000000
20
372.000000
0
VERTEX
8
0
10
129.846154
20
370.769231
0
VERTEX
8
0
10
133.000000
20
369.000000
0
SEQEND
0
POLYLINE
8
0
6
CONTINUOUS
66
1
62
7
10
0.0
20
0.0
30
0.000000
0
VERTEX
8
0
10
134.000000
20
368.000000
0
VERTEX
8
0
10
133.000000
20
369.000000
0
SEQEND
0
POLYLINE
8
0
6
CONTINUOUS
66
1
62
7
10
0.0
20
0.0
30
0.000000
0
VERTEX
8
0
10
169.000000
20
361.000000
0
VERTEX
8
0
10
170.000000
20
366.000000
0
VERTEX
8
0
10
167.000000
20
372.000000
0
VERTEX
8
0
10
164.000000
20
375.000000
0
VERTEX
8
0
10
162.000000
20
375.500000
0
VERTEX
8
0
10
154.000000
20
372.000000
0
VERTEX
8
0
10
155.700000
20
367.900000
0
VERTEX
8
0
10
157.000000
20
364.000000
0
VERTEX
8
0
10
159.000000
20
362.000000
0
VERTEX
8
0
10
169.000000
20
361.000000
0
SEQEND
0
POLYLINE
8
0
6
CONTINUOUS
66
1
62
7
10
0.0
20
0.0
30
0.000000
0
VERTEX
8
0
10
231.000000
20
361.000000
0
VERTEX
8
0
10
238.000000
20
365.000000
0
VERTEX
8
0
10
238.000000
20
374.000000
0
VERTEX
8
0
10
237.000000
20
376.000000
0
VERTEX
8
0
10
231.000000
20
379.000000
0
VERTEX
8
0
10
228.800000
20
376.100000
0
VERTEX
8
0
10
225.600000
20
369.800000
0
VERTEX
8
0
10
227.200000
20
366.100000
0
VERTEX
8
0
10
227.700000
20
364.900000
0
VERTEX
8
0
10
228.000000
20
363.000000
0
VERTEX
8
0
10
230.000000
20
361.000000
0
VERTEX
8
0
10
231.000000
20
361.000000
0
SEQEND
0
POLYLINE
8
0
6
CONTINUOUS
66
1
62
7
10
0.0
20
0.0
30
0.000000
0
VERTEX
8
0
10
140.000000
20
359.000000
0
VERTEX
8
0
10
139.000000
20
359.000000
0
SEQEND
0
POLYLINE
8
0
6
CONTINUOUS
66
1
62
7
10
0.0
20
0.0
30
0.000000
0
VERTEX
8
0
10
117.000000
20
358.000000
0
VERTEX
8
0
10
119.000000
20
360.000000
0
VERTEX
8
0
10
114.000000
20
371.000000
0
VERTEX
8
0
10
110.000000
20
375.000000
0
VERTEX
8
0
10
106.000000
20
374.000000
0
VERTEX
8
0
10
104.000000
20
372.000000
0
VERTEX
8
0
10
105.647059
20
366.911765
0
VERTEX
8
0
10
106.000000
20
364.000000
0
VERTEX
8
0
10
109.000000
20
361.000000
0
VERTEX
8
0
10
112.100000
20
360.200000
0
VERTEX
8
0
10
117.000000
20
358.000000
0
SEQEND
0
POLYLINE
8
0
6
CONTINUOUS
66
1
62
7
10
0.0
20
0.0
30
0.000000
0
VERTEX
8
0
10
199.000000
20
358.000000
0
VERTEX
8
0
10
204.000000
20
359.000000
0
VERTEX
8
0
10
205.000000
20
360.000000
0
VERTEX
8
0
10
206.000000
20
368.000000
0
VERTEX
8
0
10
200.000000
20
373.000000
0
VERTEX
8
0
10
199.000000
20
373.000000
0
VERTEX
8
0
10
194.800000
20
368.100000
0
VERTEX
8
0
10
194.000000
20
367.000000
0
VERTEX
8
0
10
194.000000
20
360.000000
0
VERTEX
8
0
10
196.000000
20
358.000000
0
VERTEX
8
0
10
199.000000
20
358.000000
0
SEQEND
0
POLYLINE
8
0
6
CONTINUOUS
66
1
62
7
10
0.0
20
0.0
30
0.000000
0
VERTEX
8
0
10
252.000000
20
348.000000
0
VERTEX
8
0
10
259.000000
20
352.000000
0
VERTEX
8
0
10
258.420000
20
356.060000
0
VERTEX
8
0
10
258.000000
20
362.000000
0
VERTEX
8
0
10
256.100000
20
363.200000
0
VERTEX
8
0
10
254.900000
20
363.800000
0
VERTEX
8
0
10
251.000000
20
365.000000
0
VERTEX
8
0
10
249.000000
20
363.000000
0
VERTEX
8
0
10
247.000000
20
358.000000
0
VERTEX
8
0
10
247.000000
20
355.000000
0
VERTEX
8
0
10
250.000000
20
348.000000
0
VERTEX
8
0
10
252.000000
20
348.000000
0
SEQEND
0
POLYLINE
8
0
6
CONTINUOUS
66
1
62
7
10
0.0
20
0.0
30
0.000000
0
VERTEX
8
0
10
104.000000
20
347.000000
0
VERTEX
8
0
10
106.000000
20
349.000000
0
VERTEX
8
0
10
105.352941
20
354.088235
0
VERTEX
8
0
10
105.000000
20
357.000000
0
VERTEX
8
0
10
96.100000
20
363.200000
0
VERTEX
8
0
10
90.000000
20
363.000000
0
VERTEX
8
0
10
89.000000
20
362.000000
0
VERTEX
8
0
10
90.200000
20
360.100000
0
VERTEX
8
0
10
93.000000
20
353.000000
0
VERTEX
8
0
10
96.000000
20
350.000000
0
VERTEX
8
0
10
104.000000
20
347.000000
0
SEQEND
0
POLYLINE
8
0
6
CONTINUOUS
66
1
62
7
10
0.0
20
0.0
30
0.000000
0
VERTEX
8
0
10
140.000000
20
359.000000
0
VERTEX
8
0
10
142.800000
20
353.900000
0
VERTEX
8
0
10
145.000000
20
347.000000
0
VERTEX
8
0
10
155.000000
20
347.000000
0
VERTEX
8
0
10
157.352941
20
354.911765
0
VERTEX
8
0
10
158.000000
20
356.000000
0
VERTEX
8
0
10
151.846154
20
359.769231
0
VERTEX
8
0
10
146.000000
20
363.000000
0
VERTEX
8
0
10
140.000000
20
359.000000
0
SEQEND
0
POLYLINE
8
0
6
CONTINUOUS
66
1
62
7
10
0.0
20
0.0
30
0.000000
0
VERTEX
8
0
10
191.000000
20
341.000000
0
VERTEX
8
0
10
193.000000
20
343.000000
0
VERTEX
8
0
10
193.000000
20
347.000000
0
VERTEX
8
0
10
192.000000
20
350.000000
0
VERTEX
8
0
10
189.153846
20
352.230769
0
VERTEX
8
0
10
184.000000
20
355.000000
0
VERTEX
8
0
10
178.000000
20
351.000000
0
VERTEX
8
0
10
179.769231
20
348.846154
0
VERTEX
8
0
10
184.000000
20
341.000000
0
VERTEX
8
0
10
191.000000
20
341.000000
0
SEQEND
0
POLYLINE
8
0
6
CONTINUOUS
66
1
62
7
10
0.0
20
0.0
30
0.000000
0
VERTEX
8
0
10
222.000000
20
340.000000
0
VERTEX
8
0
10
227.000000
20
343.000000
0
VERTEX
8
0
10
227.000000
20
349.000000
0
VERTEX
8
0
10
225.000000
20
354.000000
0
VERTEX
8
0
10
219.000000
20
357.000000
0
VERTEX
8
0
10
215.769231
20
353.153846
0
VERTEX
8
0
10
214.000000
20
351.000000
0
VERTEX
8
0
10
218.000000
20
341.000000
0
VERTEX
8
0
10
219.000000
20
340.000000
0
VERTEX
8
0
10
222.000000
20
340.000000
0
SEQEND
0
POLYLINE
8
0
6
CONTINUOUS
66
1
62
7
10
0.0
20
0.0
30
0.000000
0
VERTEX
8
0
10
273.000000
20
335.000000
0
VERTEX
8
0
10
280.000000
20
339.000000
0
VERTEX
8
0
10
280.000000
20
343.000000
0
VERTEX
8
0
10
278.750000
20
350.750000
0
VERTEX
8
0
10
278.000000
20
351.000000
0
VERTEX
8
0
10
272.153846
20
352.230769
0
VERTEX
8
0
10
269.000000
20
354.000000
0
VERTEX
8
0
10
266.800000
20
350.100000
0
VERTEX
8
0
10
264.000000
20
345.000000
0
VERTEX
8
0
10
267.769231
20
338.846154
0
VERTEX
8
0
10
268.200000
20
338.100000
0
VERTEX
8
0
10
270.000000
20
335.000000
0
VERTEX
8
0
10
273.000000
20
335.000000
0
SEQEND
0
POLYLINE
8
0
6
CONTINUOUS
66
1
62
7
10
0.0
20
0.0
30
0.000000
0
VERTEX
8
0
10
599.000000
20
334.000000
0
VERTEX
8
0
10
600.000000
20
335.000000
0
SEQEND
0
POLYLINE
8
0
6
CONTINUOUS
66
1
62
7
10
0.0
20
0.0
30
0.000000
0
VERTEX
8
0
10
142.000000
20
333.000000
0
VERTEX
8
0
10
142.705882
20
339.823529
0
VERTEX
8
0
10
144.000000
20
342.000000
0
VERTEX
8
0
10
142.100000
20
343.200000
0
VERTEX
8
0
10
132.000000
20
350.000000
0
VERTEX
8
0
10
126.000000
20
348.000000
0
VERTEX
8
0
10
125.000000
20
347.000000
0
VERTEX
8
0
10
131.000000
20
337.000000
0
VERTEX
8
0
10
132.000000
20
336.000000
0
VERTEX
8
0
10
142.000000
20
333.000000
0
SEQEND
0
POLYLINE
8
0
6
CONTINUOUS
66
1
62
7
10
0.0
20
0.0
30
0.000000
0
VERTEX
8
0
10
599.000000
20
334.000000
0
VERTEX
8
0
10
600.000000
20
333.000000
0
VERTEX
8
0
10
601.000000
20
334.000000
0
VERTEX
8
0
10
600.000000
20
335.000000
0
SEQEND
0
POLYLINE
8
0
6
CONTINUOUS
66
1
62
7
10
0.0
20
0.0
30
0.000000
0
VERTEX
8
0
10
180.000000
20
326.000000
0
VERTEX
8
0
10
179.000000
20
336.000000
0
VERTEX
8
0
10
175.180000
20
338.240000
0
VERTEX
8
0
10
170.000000
20
342.000000
0
VERTEX
8
0
10
166.800000
20
337.100000
0
VERTEX
8
0
10
166.000000
20
336.000000
0
VERTEX
8
0
10
166.800000
20
332.900000
0
VERTEX
8
0
10
167.230769
20
332.153846
0
VERTEX
8
0
10
171.000000
20
327.000000
0
VERTEX
8
0
10
180.000000
20
326.000000
0
SEQEND
0
POLYLINE
8
0
6
CONTINUOUS
66
1
62
7
10
0.0
20
0.0
30
0.000000
0
VERTEX
8
0
10
242.000000
20
325.000000
0
VERTEX
8
0
10
249.750000
20
326.250000
0
VERTEX
8
0
10
247.750000
20
338.750000
0
VERTEX
8
0
10
244.100000
20
340.200000
0
VERTEX
8
0
10
241.000000
20
342.000000
0
VERTEX
8
0
10
239.000000
20
342.000000
0
VERTEX
8
0
10
234.000000
20
334.000000
0
VERTEX
8
0
10
236.000000
20
333.000000
0
VERTEX
8
0
10
238.000000
20
331.000000
0
VERTEX
8
0
10
240.000000
20
325.000000
0
VERTEX
8
0
10
242.000000
20
325.000000
0
SEQEND
0
POLYLINE
8
0
6
CONTINUOUS
66
1
62
7
10
0.0
20
0.0
30
0.000000
0
VERTEX
8
0
10
129.000000
20
322.000000
0
VERTEX
8
0
10
129.000000
20
323.000000
0
VERTEX
8
0
10
128.000000
20
327.000000
0
VERTEX
8
0
10
131.000000
20
330.000000
0
VERTEX
8
0
10
121.100000
20
337.200000
0
VERTEX
8
0
10
119.100000
20
338.200000
0
VERTEX
8
0
10
115.846154
20
337.230769
0
VERTEX
8
0
10
115.000000
20
337.000000
0
VERTEX
8
0
10
114.000000
20
336.000000
0
VERTEX
8
0
10
118.200000
20
329.100000
0
VERTEX
8
0
10
121.000000
20
325.000000
0
VERTEX
8
0
10
129.000000
20
322.000000
0
SEQEND
0
POLYLINE
8
0
6
CONTINUOUS
66
1
62
7
10
0.0
20
0.0
30
0.000000
0
VERTEX
8
0
10
130.000000
20
321.000000
0
VERTEX
8
0
10
129.000000
20
322.000000
0
SEQEND
0
POLYLINE
8
0
6
CONTINUOUS
66
1
62
7
10
0.0
20
0.0
30
0.000000
0
VERTEX
8
0
10
209.000000
20
321.000000
0
VERTEX
8
0
10
212.000000
20
324.000000
0
VERTEX
8
0
10
216.000000
20
322.000000
0
VERTEX
8
0
10
218.000000
20
323.000000
0
VERTEX
8
0
10
216.000000
20
333.000000
0
VERTEX
8
0
10
210.153846
20
336.230769
0
VERTEX
8
0
10
208.230769
20
336.846154
0
VERTEX
8
0
10
202.000000
20
334.000000
0
VERTEX
8
0
10
201.000000
20
333.000000
0
VERTEX
8
0
10
201.000000
20
331.000000
0
VERTEX
8
0
10
208.200000
20
322.100000
0
VERTEX
8
0
10
209.000000
20
321.000000
0
SEQEND
0
POLYLINE
8
0
6
CONTINUOUS
66
1
62
7
10
0.0
20
0.0
30
0.000000
0
VERTEX
8
0
10
116.000000
20
312.000000
0
VERTEX
8
0
10
118.000000
20
315.000000
0
VERTEX
8
0
10
118.000000
20
320.000000
0
VERTEX
8
0
10
108.100000
20
326.200000
0
VERTEX
8
0
10
104.000000
20
328.000000
0
VERTEX
8
0
10
101.000000
20
326.000000
0
VERTEX
8
0
10
105.000000
20
318.000000
0
VERTEX
8
0
10
107.846154
20
315.769231
0
VERTEX
8
0
10
116.000000
20
312.000000
0
SEQEND
0
POLYLINE
8
0
6
CONTINUOUS
66
1
62
7
10
0.0
20
0.0
30
0.000000
0
VERTEX
8
0
10
167.000000
20
310.000000
0
VERTEX
8
0
10
168.000000
20
311.000000
0
VERTEX
8
0
10
167.420000
20
316.060000
0
VERTEX
8
0
10
167.000000
20
322.000000
0
VERTEX
8
0
10
159.153846
20
326.230769
0
VERTEX
8
0
10
156.800000
20
327.400000
0
VERTEX
8
0
10
155.000000
20
327.000000
0
VERTEX
8
0
10
153.000000
20
325.000000
0
VERTEX
8
0
10
152.500000
20
323.000000
0
VERTEX
8
0
10
156.200000
20
316.100000
0
VERTEX
8
0
10
158.000000
20
313.000000
0
VERTEX
8
0
10
167.000000
20
310.000000
0
SEQEND
0
POLYLINE
8
0
6
CONTINUOUS
66
1
62
7
10
0.0
20
0.0
30
0.000000
0
VERTEX
8
0
10
264.000000
20
310.000000
0
VERTEX
8
0
10
272.000000
20
314.000000
0
VERTEX
8
0
10
270.300000
20
320.100000
0
VERTEX
8
0
10
269.000000
20
325.000000
0
VERTEX
8
0
10
266.100000
20
326.300000
0
VERTEX
8
0
10
264.100000
20
327.200000
0
VERTEX
8
0
10
263.000000
20
328.000000
0
VERTEX
8
0
10
260.000000
20
328.000000
0
VERTEX
8
0
10
256.800000
20
322.100000
0
VERTEX
8
0
10
259.800000
20
315.900000
0
VERTEX
8
0
10
260.200000
20
315.100000
0
VERTEX
8
0
10
263.000000
20
310.000000
0
VERTEX
8
0
10
264.000000
20
310.000000
0
SEQEND
0
POLYLINE
8
0
6
CONTINUOUS
66
1
62
7
10
0.0
20
0.0
30
0.000000
0
VERTEX
8
0
10
201.000000
20
303.000000
0
VERTEX
8
0
10
202.076923
20
303.615385
0
VERTEX
8
0
10
206.000000
20
304.000000
0
VERTEX
8
0
10
208.000000
20
306.000000
0
VERTEX
8
0
10
207.352941
20
309.088235
0
VERTEX
8
0
10
205.000000
20
315.000000
0
VERTEX
8
0
10
195.000000
20
322.000000
0
VERTEX
8
0
10
193.000000
20
319.000000
0
VERTEX
8
0
10
192.000000
20
319.000000
0
VERTEX
8
0
10
189.000000
20
316.000000
0
VERTEX
8
0
10
198.000000
20
303.000000
0
VERTEX
8
0
10
201.000000
20
303.000000
0
SEQEND
0
POLYLINE
8
0
6
CONTINUOUS
66
1
62
7
10
0.0
20
0.0
30
0.000000
0
VERTEX
8
0
10
232.000000
20
303.000000
0
VERTEX
8
0
10
237.100000
20
305.700000
0
VERTEX
8
0
10
239.000000
20
306.000000
0
VERTEX
8
0
10
240.000000
20
307.000000
0
VERTEX
8
0
10
239.647059
20
309.911765
0
VERTEX
8
0
10
237.800000
20
313.900000
0
VERTEX
8
0
10
237.200000
20
315.100000
0
VERTEX
8
0
10
232.000000
20
321.000000
0
VERTEX
8
0
10
231.100000
20
321.200000
0
VERTEX
8
0
10
226.000000
20
319.000000
0
VERTEX
8
0
10
223.000000
20
316.000000
0
VERTEX
8
0
10
229.200000
20
308.100000
0
VERTEX
8
0
10
232.000000
20
303.000000
0
SEQEND
0
POLYLINE
8
0
6
CONTINUOUS
66
1
62
7
10
0.0
20
0.0
30
0.000000
0
VERTEX
8
0
10
158.000000
20
298.000000
0
VERTEX
8
0
10
159.000000
20
299.000000
0
VERTEX
8
0
10
158.405405
20
302.067568
0
VERTEX
8
0
10
158.000000
20
307.000000
0
VERTEX
8
0
10
152.100000
20
310.200000
0
VERTEX
8
0
10
146.100000
20
314.200000
0
VERTEX
8
0
10
143.000000
20
314.000000
0
VERTEX
8
0
10
141.000000
20
312.000000
0
VERTEX
8
0
10
142.230769
20
308.153846
0
VERTEX
8
0
10
144.000000
20
305.000000
0
VERTEX
8
0
10
148.900000
20
300.800000
0
VERTEX
8
0
10
158.000000
20
298.000000
0
SEQEND
0
POLYLINE
8
0
6
CONTINUOUS
66
1
62
7
10
0.0
20
0.0
30
0.000000
0
VERTEX
8
0
10
285.000000
20
298.000000
0
VERTEX
8
0
10
295.000000
20
301.000000
0
VERTEX
8
0
10
296.000000
20
302.000000
0
VERTEX
8
0
10
293.000000
20
312.000000
0
VERTEX
8
0
10
291.000000
20
314.000000
0
VERTEX
8
0
10
285.100000
20
315.300000
0
VERTEX
8
0
10
284.000000
20
316.000000
0
VERTEX
8
0
10
282.000000
20
316.000000
0
VERTEX
8
0
10
280.700000
20
313.100000
0
VERTEX
8
0
10
278.600000
20
307.300000
0
VERTEX
8
0
10
285.000000
20
298.000000
0
SEQEND
0
POLYLINE
8
0
6
CONTINUOUS
66
1
62
7
10
0.0
20
0.0
30
0.000000
0
VERTEX
8
0
10
195.000000
20
288.000000
0
VERTEX
8
0
10
196.000000
20
289.000000
0
VERTEX
8
0
10
196.000000
20
294.000000
0
VERTEX
8
0
10
195.000000
20
297.000000
0
VERTEX
8
0
10
190.100000
20
301.200000
0
VERTEX
8
0
10
187.000000
20
303.000000
0
VERTEX
8
0
10
185.000000
20
303.000000
0
VERTEX
8
0
10
181.000000
20
300.000000
0
VERTEX
8
0
10
182.700000
20
295.900000
0
VERTEX
8
0
10
184.000000
20
291.000000
0
VERTEX
8
0
10
186.000000
20
289.000000
0
VERTEX
8
0
10
193.100000
20
288.300000
0
VERTEX
8
0
10
195.000000
20
288.000000
0
SEQEND
0
POLYLINE
8
0
6
CONTINUOUS
66
1
62
7
10
0.0
20
0.0
30
0.000000
0
VERTEX
8
0
10
258.000000
20
288.000000
0
VERTEX
8
0
10
259.100000
20
288.800000
0
VERTEX
8
0
10
264.000000
20
290.000000
0
VERTEX
8
0
10
266.000000
20
292.000000
0
VERTEX
8
0
10
264.000000
20
301.000000
0
VERTEX
8
0
10
262.000000
20
303.000000
0
VERTEX
8
0
10
256.900000
20
304.800000
0
VERTEX
8
0
10
254.000000
20
306.000000
0
VERTEX
8
0
10
250.000000
20
300.000000
0
VERTEX
8
0
10
250.000000
20
298.000000
0
VERTEX
8
0
10
253.230769
20
294.153846
0
VERTEX
8
0
10
257.000000
20
288.000000
0
VERTEX
8
0
10
258.000000
20
288.000000
0
SEQEND
0
POLYLINE
8
0
6
CONTINUOUS
66
1
62
7
10
0.0
20
0.0
30
0.000000
0
VERTEX
8
0
10
145.000000
20
287.000000
0
VERTEX
8
0
10
136.000000
20
289.000000
0
VERTEX
8
0
10
132.800000
20
293.900000
0
VERTEX
8
0
10
130.000000
20
299.000000
0
VERTEX
8
0
10
132.000000
20
300.000000
0
VERTEX
8
0
10
133.000000
20
302.000000
0
VERTEX
8
0
10
135.000000
20
303.000000
0
VERTEX
8
0
10
137.000000
20
302.000000
0
VERTEX
8
0
10
140.230769
20
298.153846
0
VERTEX
8
0
10
145.700000
20
289.900000
0
VERTEX
8
0
10
146.000000
20
288.000000
0
SEQEND
0
POLYLINE
8
0
6
CONTINUOUS
66
1
62
7
10
0.0
20
0.0
30
0.000000
0
VERTEX
8
0
10
145.000000
20
287.000000
0
VERTEX
8
0
10
146.000000
20
288.000000
0
SEQEND
0
POLYLINE
8
0
6
CONTINUOUS
66
1
62
7
10
0.0
20
0.0
30
0.000000
0
VERTEX
8
0
10
145.000000
20
287.000000
0
VERTEX
8
0
10
146.000000
20
286.000000
0
VERTEX
8
0
10
147.000000
20
287.000000
0
VERTEX
8
0
10
146.000000
20
288.000000
0
SEQEND
0
POLYLINE
8
0
6
CONTINUOUS
66
1
62
7
10
0.0
20
0.0
30
0.000000
0
VERTEX
8
0
10
235.000000
20
285.000000
0
VERTEX
8
0
10
233.800000
20
288.900000
0
VERTEX
8
0
10
232.000000
20
296.000000
0
VERTEX
8
0
10
231.153846
20
296.230769
0
VERTEX
8
0
10
226.000000
20
300.000000
0
VERTEX
8
0
10
223.000000
20
300.000000
0
VERTEX
8
0
10
218.000000
20
296.000000
0
VERTEX
8
0
10
220.000000
20
291.000000
0
VERTEX
8
0
10
224.900000
20
286.800000
0
VERTEX
8
0
10
235.000000
20
285.000000
0
SEQEND
0
POLYLINE
8
0
6
CONTINUOUS
66
1
62
7
10
0.0
20
0.0
30
0.000000
0
VERTEX
8
0
10
624.000000
20
281.000000
0
VERTEX
8
0
10
621.200000
20
288.100000
0
VERTEX
8
0
10
613.000000
20
304.000000
0
VERTEX
8
0
10
606.100000
20
308.200000
0
VERTEX
8
0
10
564.100000
20
326.200000
0
VERTEX
8
0
10
561.100000
20
327.300000
0
VERTEX
8
0
10
530.911765
20
337.647059
0
VERTEX
8
0
10
525.100000
20
339.300000
0
VERTEX
8
0
10
489.923077
20
347.615385
0
VERTEX
8
0
10
481.076923
20
349.384615
0
VERTEX
8
0
10
474.000000
20
351.000000
0
VERTEX
8
0
10
460.000000
20
351.000000
0
VERTEX
8
0
10
446.032995
20
349.538071
0
VERTEX
8
0
10
444.932432
20
349.405405
0
VERTEX
8
0
10
409.900000
20
342.300000
0
VERTEX
8
0
10
394.900000
20
337.200000
0
VERTEX
8
0
10
372.153846
20
324.769231
0
VERTEX
8
0
10
330.100000
20
299.800000
0
VERTEX
8
0
10
325.000000
20
297.000000
0
VERTEX
8
0
10
313.800000
20
316.900000
0
VERTEX
8
0
10
313.000000
20
318.000000
0
VERTEX
8
0
10
314.000000
20
323.000000
0
VERTEX
8
0
10
326.846154
20
330.230769
0
VERTEX
8
0
10
333.180000
20
334.760000
0
VERTEX
8
0
10
358.153846
20
349.769231
0
VERTEX
8
0
10
369.900000
20
356.200000
0
VERTEX
8
0
10
386.100000
20
363.700000
0
VERTEX
8
0
10
405.911765
20
369.352941
0
VERTEX
8
0
10
423.932432
20
373.405405
0
VERTEX
8
0
10
450.000000
20
377.000000
0
VERTEX
8
0
10
461.000000
20
377.000000
0
VERTEX
8
0
10
493.911765
20
370.647059
0
VERTEX
8
0
10
511.911765
20
366.647059
0
VERTEX
8
0
10
563.900000
20
347.800000
0
VERTEX
8
0
10
596.088235
20
334.352941
0
VERTEX
8
0
10
599.000000
20
334.000000
0
SEQEND
0
POLYLINE
8
0
6
CONTINUOUS
66
1
62
7
10
0.0
20
0.0
30
0.000000
0
VERTEX
8
0
10
623.000000
20
280.000000
0
VERTEX
8
0
10
624.000000
20
281.000000
0
SEQEND
0
POLYLINE
8
0
6
CONTINUOUS
66
1
62
7
10
0.0
20
0.0
30
0.000000
0
VERTEX
8
0
10
623.000000
20
280.000000
0
VERTEX
8
0
10
624.000000
20
279.000000
0
VERTEX
8
0
10
625.000000
20
280.000000
0
VERTEX
8
0
10
624.000000
20
281.000000
0
SEQEND
0
POLYLINE
8
0
6
CONTINUOUS
66
1
62
7
10
0.0
20
0.0
30
0.000000
0
VERTEX
8
0
10
138.000000
20
275.000000
0
VERTEX
8
0
10
129.900000
20
276.700000
0
VERTEX
8
0
10
126.000000
20
278.000000
0
VERTEX
8
0
10
121.800000
20
284.900000
0
VERTEX
8
0
10
119.000000
20
289.000000
0
VERTEX
8
0
10
121.000000
20
291.000000
0
VERTEX
8
0
10
125.000000
20
292.000000
0
VERTEX
8
0
10
128.000000
20
290.000000
0
VERTEX
8
0
10
134.230769
20
282.153846
0
VERTEX
8
0
10
138.000000
20
276.000000
0
SEQEND
0
POLYLINE
8
0
6
CONTINUOUS
66
1
62
7
10
0.0
20
0.0
30
0.000000
0
VERTEX
8
0
10
138.000000
20
275.000000
0
VERTEX
8
0
10
138.000000
20
276.000000
0
SEQEND
0
POLYLINE
8
0
6
CONTINUOUS
66
1
62
7
10
0.0
20
0.0
30
0.000000
0
VERTEX
8
0
10
186.000000
20
275.000000
0
VERTEX
8
0
10
186.000000
20
276.000000
0
VERTEX
8
0
10
184.800000
20
280.900000
0
VERTEX
8
0
10
184.200000
20
282.100000
0
VERTEX
8
0
10
183.000000
20
285.000000
0
VERTEX
8
0
10
175.000000
20
291.000000
0
VERTEX
8
0
10
174.000000
20
291.000000
0
VERTEX
8
0
10
167.000000
20
288.000000
0
VERTEX
8
0
10
172.200000
20
280.100000
0
VERTEX
8
0
10
174.000000
20
277.000000
0
VERTEX
8
0
10
185.000000
20
275.000000
0
VERTEX
8
0
10
186.000000
20
275.000000
0
SEQEND
0
POLYLINE
8
0
6
CONTINUOUS
66
1
62
7
10
0.0
20
0.0
30
0.000000
0
VERTEX
8
0
10
139.000000
20
274.000000
0
VERTEX
8
0
10
138.000000
20
275.000000
0
SEQEND
0
POLYLINE
8
0
6
CONTINUOUS
66
1
62
7
10
0.0
20
0.0
30
0.000000
0
VERTEX
8
0
10
281.000000
20
274.000000
0
VERTEX
8
0
10
286.100000
20
276.700000
0
VERTEX
8
0
10
288.000000
20
277.000000
0
VERTEX
8
0
10
290.000000
20
279.000000
0
VERTEX
8
0
10
287.000000
20
292.000000
0
VERTEX
8
0
10
283.076923
20
292.384615
0
VERTEX
8
0
10
277.250000
20
292.750000
0
VERTEX
8
0
10
277.000000
20
292.000000
0
VERTEX
8
0
10
276.400000
20
289.300000
0
VERTEX
8
0
10
274.000000
20
286.000000
0
VERTEX
8
0
10
279.800000
20
275.900000
0
VERTEX
8
0
10
281.000000
20
274.000000
0
SEQEND
0
POLYLINE
8
0
6
CONTINUOUS
66
1
62
7
10
0.0
20
0.0
30
0.000000
0
VERTEX
8
0
10
225.000000
20
269.000000
0
VERTEX
8
0
10
223.000000
20
279.000000
0
VERTEX
8
0
10
221.100000
20
280.200000
0
VERTEX
8
0
10
213.000000
20
283.000000
0
VERTEX
8
0
10
210.000000
20
281.000000
0
VERTEX
8
0
10
209.800000
20
280.100000
0
VERTEX
8
0
10
210.200000
20
277.100000
0
VERTEX
8
0
10
211.000000
20
275.000000
0
VERTEX
8
0
10
216.900000
20
270.800000
0
VERTEX
8
0
10
218.100000
20
270.200000
0
VERTEX
8
0
10
225.000000
20
269.000000
0
SEQEND
0
POLYLINE
8
0
6
CONTINUOUS
66
1
62
7
10
0.0
20
0.0
30
0.000000
0
VERTEX
8
0
10
255.000000
20
269.000000
0
VERTEX
8
0
10
258.000000
20
271.000000
0
VERTEX
8
0
10
256.000000
20
281.000000
0
VERTEX
8
0
10
250.100000
20
283.300000
0
VERTEX
8
0
10
247.000000
20
285.000000
0
VERTEX
8
0
10
243.800000
20
279.100000
0
VERTEX
8
0
10
245.760000
20
274.820000
0
VERTEX
8
0
10
250.000000
20
270.000000
0
VERTEX
8
0
10
253.100000
20
269.300000
0
VERTEX
8
0
10
255.000000
20
269.000000
0
SEQEND
0
POLYLINE
8
0
6
CONTINUOUS
66
1
62
7
10
0.0
20
0.0
30
0.000000
0
VERTEX
8
0
10
174.000000
20
261.000000
0
VERTEX
8
0
10
173.300000
20
266.100000
0
VERTEX
8
0
10
169.000000
20
274.000000
0
VERTEX
8
0
10
165.000000
20
277.000000
0
VERTEX
8
0
10
161.000000
20
277.000000
0
VERTEX
8
0
10
157.000000
20
275.000000
0
VERTEX
8
0
10
160.240000
20
270.180000
0
VERTEX
8
0
10
166.000000
20
263.000000
0
VERTEX
8
0
10
174.000000
20
261.000000
0
SEQEND
0
POLYLINE
8
0
6
CONTINUOUS
66
1
62
7
10
0.0
20
0.0
30
0.000000
0
VERTEX
8
0
10
304.000000
20
261.000000
0
VERTEX
8
0
10
311.000000
20
266.000000
0
VERTEX
8
0
10
311.000000
20
270.000000
0
VERTEX
8
0
10
309.750000
20
277.750000
0
VERTEX
8
0
10
300.000000
20
281.000000
0
VERTEX
8
0
10
298.000000
20
280.000000
0
VERTEX
8
0
10
295.000000
20
272.000000
0
VERTEX
8
0
10
299.769231
20
264.846154
0
VERTEX
8
0
10
300.200000
20
264.100000
0
VERTEX
8
0
10
302.000000
20
261.000000
0
VERTEX
8
0
10
304.000000
20
261.000000
0
SEQEND
0
POLYLINE
8
0
6
CONTINUOUS
66
1
62
7
10
0.0
20
0.0
30
0.000000
0
VERTEX
8
0
10
175.000000
20
260.000000
0
VERTEX
8
0
10
174.000000
20
261.000000
0
SEQEND
0
POLYLINE
8
0
6
CONTINUOUS
66
1
62
7
10
0.0
20
0.0
30
0.000000
0
VERTEX
8
0
10
213.000000
20
253.000000
0
VERTEX
8
0
10
213.500000
20
254.000000
0
VERTEX
8
0
10
212.000000
20
262.000000
0
VERTEX
8
0
10
209.100000
20
264.200000
0
VERTEX
8
0
10
205.000000
20
266.000000
0
VERTEX
8
0
10
198.000000
20
266.000000
0
VERTEX
8
0
10
197.000000
20
265.000000
0
VERTEX
8
0
10
197.000000
20
263.000000
0
VERTEX
8
0
10
200.200000
20
259.100000
0
VERTEX
8
0
10
203.000000
20
254.000000
0
VERTEX
8
0
10
213.000000
20
253.000000
0
SEQEND
0
POLYLINE
8
0
6
CONTINUOUS
66
1
62
7
10
0.0
20
0.0
30
0.000000
0
VERTEX
8
0
10
276.000000
20
251.000000
0
VERTEX
8
0
10
283.000000
20
255.000000
0
VERTEX
8
0
10
280.750000
20
266.750000
0
VERTEX
8
0
10
274.900000
20
268.700000
0
VERTEX
8
0
10
270.000000
20
270.000000
0
VERTEX
8
0
10
268.700000
20
267.100000
0
VERTEX
8
0
10
265.000000
20
262.000000
0
VERTEX
8
0
10
267.000000
20
261.000000
0
VERTEX
8
0
10
270.200000
20
256.100000
0
VERTEX
8
0
10
273.000000
20
251.000000
0
VERTEX
8
0
10
276.000000
20
251.000000
0
SEQEND
0
POLYLINE
8
0
6
CONTINUOUS
66
1
62
7
10
0.0
20
0.0
30
0.000000
0
VERTEX
8
0
10
245.000000
20
248.000000
0
VERTEX
8
0
10
252.000000
20
250.000000
0
VERTEX
8
0
10
250.200000
20
257.100000
0
VERTEX
8
0
10
247.000000
20
262.000000
0
VERTEX
8
0
10
239.000000
20
267.000000
0
VERTEX
8
0
10
235.200000
20
259.600000
0
VERTEX
8
0
10
239.000000
20
250.000000
0
VERTEX
8
0
10
241.000000
20
248.000000
0
VERTEX
8
0
10
245.000000
20
248.000000
0
SEQEND
0
POLYLINE
8
0
6
CONTINUOUS
66
1
62
7
10
0.0
20
0.0
30
0.000000
0
VERTEX
8
0
10
600.000000
20
335.000000
0
VERTEX
8
0
10
598.647059
20
340.911765
0
VERTEX
8
0
10
592.800000
20
355.900000
0
VERTEX
8
0
10
591.000000
20
359.000000
0
VERTEX
8
0
10
553.900000
20
375.800000
0
VERTEX
8
0
10
534.100000
20
384.200000
0
VERTEX
8
0
10
508.100000
20
392.300000
0
VERTEX
8
0
10
494.088235
20
396.352941
0
VERTEX
8
0
10
472.000000
20
401.000000
0
VERTEX
8
0
10
442.000000
20
401.000000
0
VERTEX
8
0
10
415.060000
20
397.580000
0
VERTEX
8
0
10
413.911765
20
397.352941
0
VERTEX
8
0
10
383.100000
20
388.800000
0
VERTEX
8
0
10
355.100000
20
375.800000
0
VERTEX
8
0
10
306.000000
20
349.000000
0
VERTEX
8
0
10
304.000000
20
349.000000
0
VERTEX
8
0
10
297.000000
20
370.000000
0
VERTEX
8
0
10
297.000000
20
371.000000
0
VERTEX
8
0
10
333.900000
20
391.200000
0
VERTEX
8
0
10
347.900000
20
398.200000
0
VERTEX
8
0
10
381.100000
20
411.700000
0
VERTEX
8
0
10
394.911765
20
416.352941
0
VERTEX
8
0
10
415.067568
20
421.594595
0
VERTEX
8
0
10
419.932432
20
422.405405
0
VERTEX
8
0
10
446.000000
20
426.000000
0
VERTEX
8
0
10
476.000000
20
426.000000
0
VERTEX
8
0
10
489.911765
20
422.647059
0
VERTEX
8
0
10
500.911765
20
419.647059
0
VERTEX
8
0
10
523.900000
20
411.700000
0
VERTEX
8
0
10
531.900000
20
408.700000
0
VERTEX
8
0
10
572.900000
20
390.800000
0
VERTEX
8
0
10
584.900000
20
384.800000
0
VERTEX
8
0
10
586.000000
20
384.000000
0
VERTEX
8
0
10
589.000000
20
392.000000
0
VERTEX
8
0
10
589.000000
20
397.000000
0
VERTEX
8
0
10
587.594595
20
402.932432
0
VERTEX
8
0
10
587.000000
20
406.000000
0
VERTEX
8
0
10
585.180000
20
407.240000
0
VERTEX
8
0
10
581.820000
20
409.760000
0
VERTEX
8
0
10
562.100000
20
422.200000
0
VERTEX
8
0
10
555.846154
20
425.769231
0
VERTEX
8
0
10
538.900000
20
433.700000
0
VERTEX
8
0
10
533.100000
20
436.200000
0
VERTEX
8
0
10
511.911765
20
443.647059
0
VERTEX
8
0
10
502.088235
20
446.352941
0
VERTEX
8
0
10
493.955446
20
448.554455
0
VERTEX
8
0
10
485.044554
20
449.445545
0
VERTEX
8
0
10
467.000000
20
451.000000
0
VERTEX
8
0
10
435.000000
20
451.000000
0
VERTEX
8
0
10
372.900000
20
432.300000
0
VERTEX
8
0
10
351.900000
20
424.200000
0
VERTEX
8
0
10
299.100000
20
397.800000
0
VERTEX
8
0
10
298.000000
20
397.000000
0
VERTEX
8
0
10
297.000000
20
398.000000
0
VERTEX
8
0
10
297.000000
20
411.000000
0
VERTEX
8
0
10
298.615385
20
418.076923
0
VERTEX
8
0
10
299.000000
20
422.000000
0
VERTEX
8
0
10
304.900000
20
425.200000
0
VERTEX
8
0
10
341.100000
20
440.700000
0
VERTEX
8
0
10
358.100000
20
447.700000
0
VERTEX
8
0
10
401.911765
20
464.352941
0
VERTEX
8
0
10
411.911765
20
467.352941
0
VERTEX
8
0
10
437.060000
20
473.580000
0
VERTEX
8
0
10
442.940000
20
474.420000
0
VERTEX
8
0
10
465.000000
20
477.000000
0
VERTEX
8
0
10
484.000000
20
477.000000
0
VERTEX
8
0
10
510.923077
20
472.615385
0
VERTEX
8
0
10
514.911765
20
471.647059
0
VERTEX
8
0
10
544.900000
20
460.700000
0
VERTEX
8
0
10
546.100000
20
460.200000
0
VERTEX
8
0
10
570.100000
20
448.200000
0
VERTEX
8
0
10
584.820000
20
438.760000
0
VERTEX
8
0
10
588.180000
20
436.240000
0
VERTEX
8
0
10
592.100000
20
434.800000
0
VERTEX
8
0
10
594.000000
20
436.000000
0
VERTEX
8
0
10
597.700000
20
445.100000
0
VERTEX
8
0
10
598.647059
20
448.088235
0
VERTEX
8
0
10
601.000000
20
456.000000
0
VERTEX
8
0
10
599.000000
20
459.000000
0
VERTEX
8
0
10
596.180000
20
461.240000
0
VERTEX
8
0
10
592.820000
20
463.760000
0
VERTEX
8
0
10
571.900000
20
475.800000
0
VERTEX
8
0
10
566.846154
20
478.769231
0
VERTEX
8
0
10
533.911765
20
494.647059
0
VERTEX
8
0
10
531.088235
20
495.352941
0
VERTEX
8
0
10
505.053846
20
500.430769
0
VERTEX
8
0
10
492.000000
20
502.000000
0
VERTEX
8
0
10
480.000000
20
502.000000
0
VERTEX
8
0
10
442.932432
20
497.405405
0
VERTEX
8
0
10
438.067568
20
496.594595
0
VERTEX
8
0
10
421.100000
20
491.700000
0
VERTEX
8
0
10
385.100000
20
479.700000
0
VERTEX
8
0
10
300.100000
20
445.800000
0
VERTEX
8
0
10
298.900000
20
445.200000
0
VERTEX
8
0
10
271.900000
20
435.300000
0
VERTEX
8
0
10
270.100000
20
434.700000
0
VERTEX
8
0
10
239.923077
20
425.384615
0
VERTEX
8
0
10
236.076923
20
424.615385
0
VERTEX
8
0
10
217.970817
20
420.466926
0
VERTEX
8
0
10
203.029183
20
419.533074
0
VERTEX
8
0
10
186.000000
20
419.000000
0
VERTEX
8
0
10
152.088235
20
424.352941
0
VERTEX
8
0
10
124.900000
20
434.800000
0
VERTEX
8
0
10
98.900000
20
447.800000
0
VERTEX
8
0
10
83.000000
20
457.000000
0
VERTEX
8
0
10
80.200000
20
451.900000
0
VERTEX
8
0
10
72.384615
20
425.923077
0
VERTEX
8
0
10
71.615385
20
422.076923
0
VERTEX
8
0
10
70.000000
20
415.000000
0
VERTEX
8
0
10
70.000000
20
381.000000
0
VERTEX
8
0
10
71.458824
20
368.035294
0
VERTEX
8
0
10
73.352941
20
360.088235
0
VERTEX
8
0
10
81.300000
20
333.100000
0
VERTEX
8
0
10
82.700000
20
328.900000
0
VERTEX
8
0
10
95.800000
20
297.900000
0
VERTEX
8
0
10
98.800000
20
291.900000
0
VERTEX
8
0
10
104.000000
20
281.000000
0
VERTEX
8
0
10
107.000000
20
278.000000
0
VERTEX
8
0
10
111.100000
20
276.200000
0
VERTEX
8
0
10
111.900000
20
275.800000
0
VERTEX
8
0
10
149.088235
20
261.352941
0
VERTEX
8
0
10
201.911765
20
245.647059
0
VERTEX
8
0
10
225.040984
20
241.450820
0
VERTEX
8
0
10
234.959016
20
240.549180
0
VERTEX
8
0
10
249.000000
20
240.000000
0
VERTEX
8
0
10
283.932432
20
244.405405
0
VERTEX
8
0
10
288.923077
20
245.384615
0
VERTEX
8
0
10
296.900000
20
248.200000
0
VERTEX
8
0
10
312.100000
20
254.800000
0
VERTEX
8
0
10
333.846154
20
266.230769
0
VERTEX
8
0
10
372.153846
20
290.769231
0
VERTEX
8
0
10
408.100000
20
310.700000
0
VERTEX
8
0
10
417.900000
20
314.300000
0
VERTEX
8
0
10
435.088235
20
319.647059
0
VERTEX
8
0
10
456.000000
20
324.000000
0
VERTEX
8
0
10
484.040984
20
322.450820
0
VERTEX
8
0
10
493.959016
20
321.549180
0
VERTEX
8
0
10
505.911765
20
319.647059
0
VERTEX
8
0
10
532.100000
20
312.300000
0
VERTEX
8
0
10
542.100000
20
309.300000
0
VERTEX
8
0
10
592.100000
20
292.300000
0
VERTEX
8
0
10
623.000000
20
280.000000
0
SEQEND
0
POLYLINE
8
0
6
CONTINUOUS
66
1
62
7
10
0.0
20
0.0
30
0.000000
0
VERTEX
8
0
10
271.000000
20
188.000000
0
VERTEX
8
0
10
287.951220
20
190.439024
0
VERTEX
8
0
10
303.900000
20
194.300000
0
VERTEX
8
0
10
308.100000
20
195.700000
0
VERTEX
8
0
10
326.900000
20
202.200000
0
VERTEX
8
0
10
345.100000
20
209.800000
0
VERTEX
8
0
10
418.900000
20
252.200000
0
VERTEX
8
0
10
436.900000
20
260.200000
0
VERTEX
8
0
10
451.088235
20
265.647059
0
VERTEX
8
0
10
453.911765
20
266.352941
0
VERTEX
8
0
10
463.029183
20
268.533074
0
VERTEX
8
0
10
479.000000
20
270.000000
0
VERTEX
8
0
10
508.027586
20
269.468966
0
VERTEX
8
0
10
523.972414
20
268.531034
0
VERTEX
8
0
10
536.923077
20
265.615385
0
VERTEX
8
0
10
568.911765
20
256.647059
0
VERTEX
8
0
10
597.900000
20
247.700000
0
VERTEX
8
0
10
637.100000
20
231.200000
0
VERTEX
8
0
10
637.900000
20
230.800000
0
VERTEX
8
0
10
645.000000
20
227.000000
0
VERTEX
8
0
10
646.000000
20
228.000000
0
VERTEX
8
0
10
645.300000
20
230.100000
0
VERTEX
8
0
10
641.200000
20
242.100000
0
VERTEX
8
0
10
636.000000
20
252.000000
0
VERTEX
8
0
10
634.000000
20
254.000000
0
VERTEX
8
0
10
619.900000
20
260.800000
0
VERTEX
8
0
10
566.900000
20
281.700000
0
VERTEX
8
0
10
545.900000
20
288.700000
0
VERTEX
8
0
10
504.962069
20
296.544828
0
VERTEX
8
0
10
494.037931
20
297.455172
0
VERTEX
8
0
10
464.000000
20
298.000000
0
VERTEX
8
0
10
441.100000
20
292.700000
0
VERTEX
8
0
10
436.911765
20
291.352941
0
VERTEX
8
0
10
417.100000
20
283.800000
0
VERTEX
8
0
10
397.846154
20
273.230769
0
VERTEX
8
0
10
329.100000
20
232.800000
0
VERTEX
8
0
10
308.100000
20
224.800000
0
VERTEX
8
0
10
276.088235
20
216.647059
0
VERTEX
8
0
10
265.000000
20
215.000000
0
VERTEX
8
0
10
252.000000
20
215.000000
0
VERTEX
8
0
10
223.067568
20
219.405405
0
VERTEX
8
0
10
211.067568
20
221.405405
0
VERTEX
8
0
10
187.100000
20
227.300000
0
VERTEX
8
0
10
177.911765
20
229.647059
0
VERTEX
8
0
10
163.100000
20
234.300000
0
VERTEX
8
0
10
156.100000
20
237.300000
0
VERTEX
8
0
10
119.000000
20
254.000000
0
VERTEX
8
0
10
118.000000
20
253.000000
0
VERTEX
8
0
10
126.000000
20
230.000000
0
VERTEX
8
0
10
129.000000
20
227.000000
0
VERTEX
8
0
10
135.100000
20
224.200000
0
VERTEX
8
0
10
167.100000
20
209.200000
0
VERTEX
8
0
10
183.911765
20
202.647059
0
VERTEX
8
0
10
197.900000
20
198.700000
0
VERTEX
8
0
10
224.076923
20
192.384615
0
VERTEX
8
0
10
232.923077
20
190.615385
0
VERTEX
8
0
10
239.029183
20
189.466926
0
VERTEX
8
0
10
271.000000
20
188.000000
0
SEQEND
0
POLYLINE
8
0
6
CONTINUOUS
66
1
62
7
10
0.0
20
0.0
30
0.000000
0
VERTEX
8
0
10
263.000000
20
137.000000
0
VERTEX
8
0
10
292.076923
20
141.615385
0
VERTEX
8
0
10
295.923077
20
142.384615
0
VERTEX
8
0
10
334.900000
20
154.300000
0
VERTEX
8
0
10
347.900000
20
159.300000
0
VERTEX
8
0
10
417.900000
20
193.200000
0
VERTEX
8
0
10
425.900000
20
197.200000
0
VERTEX
8
0
10
460.100000
20
210.700000
0
VERTEX
8
0
10
471.100000
20
214.700000
0
VERTEX
8
0
10
482.030973
20
216.535398
0
VERTEX
8
0
10
511.000000
20
219.000000
0
VERTEX
8
0
10
523.044554
20
218.445545
0
VERTEX
8
0
10
541.955446
20
216.554455
0
VERTEX
8
0
10
555.911765
20
213.647059
0
VERTEX
8
0
10
570.911765
20
209.647059
0
VERTEX
8
0
10
599.900000
20
199.700000
0
VERTEX
8
0
10
602.900000
20
198.700000
0
VERTEX
8
0
10
624.900000
20
188.800000
0
VERTEX
8
0
10
626.100000
20
188.200000
0
VERTEX
8
0
10
650.000000
20
177.000000
0
VERTEX
8
0
10
650.750000
20
177.250000
0
VERTEX
8
0
10
652.000000
20
191.000000
0
VERTEX
8
0
10
651.405405
20
192.067568
0
VERTEX
8
0
10
650.000000
20
200.000000
0
VERTEX
8
0
10
648.000000
20
202.000000
0
VERTEX
8
0
10
639.900000
20
206.800000
0
VERTEX
8
0
10
599.900000
20
223.700000
0
VERTEX
8
0
10
578.900000
20
231.700000
0
VERTEX
8
0
10
535.923077
20
242.615385
0
VERTEX
8
0
10
532.076923
20
243.384615
0
VERTEX
8
0
10
526.000000
20
245.000000
0
VERTEX
8
0
10
497.000000
20
245.000000
0
VERTEX
8
0
10
471.088235
20
241.647059
0
VERTEX
8
0
10
463.088235
20
239.647059
0
VERTEX
8
0
10
447.100000
20
234.700000
0
VERTEX
8
0
10
428.900000
20
227.200000
0
VERTEX
8
0
10
350.900000
20
186.200000
0
VERTEX
8
0
10
340.900000
20
182.200000
0
VERTEX
8
0
10
308.911765
20
170.352941
0
VERTEX
8
0
10
295.088235
20
166.647059
0
VERTEX
8
0
10
271.000000
20
163.000000
0
VERTEX
8
0
10
245.000000
20
163.000000
0
VERTEX
8
0
10
225.076923
20
166.384615
0
VERTEX
8
0
10
195.100000
20
174.300000
0
VERTEX
8
0
10
185.100000
20
177.300000
0
VERTEX
8
0
10
163.100000
20
186.300000
0
VERTEX
8
0
10
133.000000
20
201.000000
0
VERTEX
8
0
10
132.000000
20
200.000000
0
VERTEX
8
0
10
133.464602
20
180.030973
0
VERTEX
8
0
10
134.200000
20
178.100000
0
VERTEX
8
0
10
135.000000
20
176.000000
0
VERTEX
8
0
10
149.900000
20
166.800000
0
VERTEX
8
0
10
156.900000
20
162.800000
0
VERTEX
8
0
10
185.100000
20
149.300000
0
VERTEX
8
0
10
189.900000
20
147.700000
0
VERTEX
8
0
10
225.026154
20
138.470769
0
VERTEX
8
0
10
263.000000
20
137.000000
0
SEQEND
0
POLYLINE
8
0
6
CONTINUOUS
66
1
62
7
10
0.0
20
0.0
30
0.000000
0
VERTEX
8
0
10
249.000000
20
82.000000
0
VERTEX
8
0
10
256.946154
20
83.430769
0
VERTEX
8
0
10
284.911765
20
90.352941
0
VERTEX
8
0
10
288.911765
20
91.352941
0
VERTEX
8
0
10
304.900000
20
96.200000
0
VERTEX
8
0
10
329.900000
20
105.300000
0
VERTEX
8
0
10
412.100000
20
138.800000
0
VERTEX
8
0
10
429.900000
20
145.300000
0
VERTEX
8
0
10
461.088235
20
155.647059
0
VERTEX
8
0
10
463.911765
20
156.352941
0
VERTEX
8
0
10
486.040984
20
161.549180
0
VERTEX
8
0
10
495.959016
20
162.450820
0
VERTEX
8
0
10
526.000000
20
164.000000
0
VERTEX
8
0
10
551.923077
20
159.615385
0
VERTEX
8
0
10
572.900000
20
153.700000
0
VERTEX
8
0
10
582.100000
20
150.300000
0
VERTEX
8
0
10
605.100000
20
140.200000
0
VERTEX
8
0
10
613.100000
20
136.200000
0
VERTEX
8
0
10
623.820000
20
130.760000
0
VERTEX
8
0
10
636.000000
20
122.000000
0
VERTEX
8
0
10
638.000000
20
122.000000
0
VERTEX
8
0
10
644.200000
20
137.900000
0
VERTEX
8
0
10
648.000000
20
149.000000
0
VERTEX
8
0
10
643.100000
20
152.200000
0
VERTEX
8
0
10
633.153846
20
158.230769
0
VERTEX
8
0
10
598.900000
20
175.700000
0
VERTEX
8
0
10
595.100000
20
177.200000
0
VERTEX
8
0
10
574.911765
20
184.647059
0
VERTEX
8
0
10
569.100000
20
186.300000
0
VERTEX
8
0
10
551.076923
20
190.384615
0
VERTEX
8
0
10
537.970817
20
192.533074
0
VERTEX
8
0
10
523.029183
20
193.466926
0
VERTEX
8
0
10
506.000000
20
194.000000
0
VERTEX
8
0
10
485.060000
20
190.580000
0
VERTEX
8
0
10
462.100000
20
184.700000
0
VERTEX
8
0
10
458.088235
20
183.647059
0
VERTEX
8
0
10
444.100000
20
178.800000
0
VERTEX
8
0
10
441.100000
20
177.700000
0
VERTEX
8
0
10
355.900000
20
140.200000
0
VERTEX
8
0
10
353.900000
20
139.200000
0
VERTEX
8
0
10
303.900000
20
120.300000
0
VERTEX
8
0
10
302.100000
20
119.700000
0
VERTEX
8
0
10
269.067568
20
113.594595
0
VERTEX
8
0
10
248.000000
20
110.000000
0
VERTEX
8
0
10
239.000000
20
110.000000
0
VERTEX
8
0
10
204.088235
20
116.352941
0
VERTEX
8
0
10
191.100000
20
120.300000
0
VERTEX
8
0
10
164.100000
20
130.200000
0
VERTEX
8
0
10
162.100000
20
131.200000
0
VERTEX
8
0
10
134.100000
20
147.200000
0
VERTEX
8
0
10
131.000000
20
148.000000
0
VERTEX
8
0
10
127.800000
20
143.100000
0
VERTEX
8
0
10
122.700000
20
131.100000
0
VERTEX
8
0
10
121.000000
20
127.000000
0
VERTEX
8
0
10
121.000000
20
121.000000
0
VERTEX
8
0
10
134.820000
20
110.760000
0
VERTEX
8
0
10
138.180000
20
108.240000
0
VERTEX
8
0
10
168.100000
20
93.300000
0
VERTEX
8
0
10
178.900000
20
88.800000
0
VERTEX
8
0
10
186.067568
20
86.405405
0
VERTEX
8
0
10
195.923077
20
84.615385
0
VERTEX
8
0
10
217.970817
20
82.533074
0
VERTEX
8
0
10
249.000000
20
82.000000
0
SEQEND
0
POLYLINE
8
0
6
CONTINUOUS
66
1
62
7
10
0.0
20
0.0
30
0.000000
0
VERTEX
8
0
10
252.000000
20
51.000000
0
VERTEX
8
0
10
267.940000
20
53.420000
0
VERTEX
8
0
10
317.100000
20
66.700000
0
VERTEX
8
0
10
324.900000
20
69.300000
0
VERTEX
8
0
10
381.900000
20
92.200000
0
VERTEX
8
0
10
383.100000
20
92.800000
0
VERTEX
8
0
10
423.100000
20
109.800000
0
VERTEX
8
0
10
454.100000
20
120.700000
0
VERTEX
8
0
10
461.900000
20
123.300000
0
VERTEX
8
0
10
483.067568
20
129.594595
0
VERTEX
8
0
10
487.932432
20
130.405405
0
VERTEX
8
0
10
508.967005
20
132.461929
0
VERTEX
8
0
10
524.000000
20
133.000000
0
VERTEX
8
0
10
537.967005
20
131.538071
0
VERTEX
8
0
10
566.100000
20
123.200000
0
VERTEX
8
0
10
569.900000
20
121.700000
0
VERTEX
8
0
10
593.100000
20
111.200000
0
VERTEX
8
0
10
614.820000
20
98.760000
0
VERTEX
8
0
10
618.180000
20
96.240000
0
VERTEX
8
0
10
626.100000
20
92.200000
0
VERTEX
8
0
10
626.900000
20
91.800000
0
VERTEX
8
0
10
631.000000
20
90.000000
0
VERTEX
8
0
10
644.000000
20
90.000000
0
VERTEX
8
0
10
655.846154
20
95.230769
0
VERTEX
8
0
10
659.000000
20
97.000000
0
VERTEX
8
0
10
661.230769
20
99.846154
0
VERTEX
8
0
10
662.769231
20
102.153846
0
VERTEX
8
0
10
672.700000
20
123.100000
0
VERTEX
8
0
10
676.300000
20
132.900000
0
VERTEX
8
0
10
680.000000
20
142.000000
0
VERTEX
8
0
10
680.000000
20
150.000000
0
VERTEX
8
0
10
677.000000
20
159.000000
0
VERTEX
8
0
10
677.000000
20
162.000000
0
VERTEX
8
0
10
681.647059
20
171.088235
0
VERTEX
8
0
10
683.000000
20
175.000000
0
VERTEX
8
0
10
683.000000
20
200.000000
0
VERTEX
8
0
10
681.384615
20
205.076923
0
VERTEX
8
0
10
676.000000
20
220.000000
0
VERTEX
8
0
10
677.000000
20
221.000000
0
VERTEX
8
0
10
677.000000
20
234.000000
0
VERTEX
8
0
10
674.615385
20
242.923077
0
VERTEX
8
0
10
674.300000
20
244.100000
0
VERTEX
8
0
10
665.200000
20
264.100000
0
VERTEX
8
0
10
662.752212
20
268.783186
0
VERTEX
8
0
10
656.000000
20
276.000000
0
VERTEX
8
0
10
655.549180
20
285.959016
0
VERTEX
8
0
10
653.800000
20
290.900000
0
VERTEX
8
0
10
653.200000
20
292.100000
0
VERTEX
8
0
10
639.756098
20
319.804878
0
VERTEX
8
0
10
636.243902
20
324.195122
0
VERTEX
8
0
10
633.369295
20
329.365145
0
VERTEX
8
0
10
631.544828
20
339.962069
0
VERTEX
8
0
10
629.700000
20
345.900000
0
VERTEX
8
0
10
627.647059
20
353.911765
0
VERTEX
8
0
10
620.800000
20
369.900000
0
VERTEX
8
0
10
618.800000
20
373.900000
0
VERTEX
8
0
10
618.000000
20
375.000000
0
VERTEX
8
0
10
618.000000
20
381.000000
0
VERTEX
8
0
10
620.000000
20
389.000000
0
VERTEX
8
0
10
620.000000
20
399.000000
0
VERTEX
8
0
10
618.560976
20
407.951220
0
VERTEX
8
0
10
617.000000
20
413.000000
0
VERTEX
8
0
10
618.200000
20
416.900000
0
VERTEX
8
0
10
620.769231
20
421.153846
0
VERTEX
8
0
10
628.300000
20
438.900000
0
VERTEX
8
0
10
628.700000
20
440.100000
0
VERTEX
8
0
10
632.000000
20
454.000000
0
VERTEX
8
0
10
632.000000
20
462.000000
0
VERTEX
8
0
10
628.800000
20
469.900000
0
VERTEX
8
0
10
628.200000
20
471.100000
0
VERTEX
8
0
10
625.000000
20
477.000000
0
VERTEX
8
0
10
617.000000
20
485.000000
0
VERTEX
8
0
10
603.820000
20
494.760000
0
VERTEX
8
0
10
581.153846
20
507.230769
0
VERTEX
8
0
10
564.900000
20
515.700000
0
VERTEX
8
0
10
561.100000
20
517.200000
0
VERTEX
8
0
10
540.911765
20
524.647059
0
VERTEX
8
0
10
535.100000
20
526.300000
0
VERTEX
8
0
10
517.940000
20
530.580000
0
VERTEX
8
0
10
512.060000
20
531.420000
0
VERTEX
8
0
10
504.000000
20
533.000000
0
VERTEX
8
0
10
467.000000
20
533.000000
0
VERTEX
8
0
10
459.053846
20
531.569231
0
VERTEX
8
0
10
446.067568
20
529.594595
0
VERTEX
8
0
10
415.088235
20
522.647059
0
VERTEX
8
0
10
398.088235
20
517.647059
0
VERTEX
8
0
10
341.100000
20
496.700000
0
VERTEX
8
0
10
302.100000
20
479.800000
0
VERTEX
8
0
10
253.900000
20
461.300000
0
VERTEX
8
0
10
252.100000
20
460.700000
0
VERTEX
8
0
10
219.932432
20
452.405405
0
VERTEX
8
0
10
215.067568
20
451.594595
0
VERTEX
8
0
10
208.000000
20
450.000000
0
VERTEX
8
0
10
188.000000
20
450.000000
0
VERTEX
8
0
10
172.053846
20
452.430769
0
VERTEX
8
0
10
155.900000
20
456.700000
0
VERTEX
8
0
10
147.100000
20
459.300000
0
VERTEX
8
0
10
116.100000
20
474.200000
0
VERTEX
8
0
10
92.000000
20
488.000000
0
VERTEX
8
0
10
77.000000
20
488.000000
0
VERTEX
8
0
10
69.100000
20
484.800000
0
VERTEX
8
0
10
59.000000
20
478.000000
0
VERTEX
8
0
10
53.800000
20
469.100000
0
VERTEX
8
0
10
46.700000
20
451.100000
0
VERTEX
8
0
10
42.700000
20
437.100000
0
VERTEX
8
0
10
39.580000
20
422.060000
0
VERTEX
8
0
10
38.000000
20
410.000000
0
VERTEX
8
0
10
38.541176
20
382.964706
0
VERTEX
8
0
10
40.430769
20
363.053846
0
VERTEX
8
0
10
43.352941
20
351.088235
0
VERTEX
8
0
10
45.352941
20
343.088235
0
VERTEX
8
0
10
52.200000
20
321.100000
0
VERTEX
8
0
10
54.300000
20
315.100000
0
VERTEX
8
0
10
67.200000
20
286.100000
0
VERTEX
8
0
10
79.240000
20
263.180000
0
VERTEX
8
0
10
85.700000
20
253.900000
0
VERTEX
8
0
10
86.300000
20
252.100000
0
VERTEX
8
0
10
96.800000
20
217.900000
0
VERTEX
8
0
10
97.200000
20
217.100000
0
VERTEX
8
0
10
102.000000
20
210.000000
0
VERTEX
8
0
10
102.000000
20
206.000000
0
VERTEX
8
0
10
101.000000
20
205.000000
0
VERTEX
8
0
10
102.615385
20
175.923077
0
VERTEX
8
0
10
103.700000
20
170.900000
0
VERTEX
8
0
10
105.000000
20
167.000000
0
VERTEX
8
0
10
100.300000
20
158.900000
0
VERTEX
8
0
10
99.700000
20
157.100000
0
VERTEX
8
0
10
91.352941
20
134.911765
0
VERTEX
8
0
10
89.615385
20
127.076923
0
VERTEX
8
0
10
89.000000
20
120.000000
0
VERTEX
8
0
10
90.405405
20
114.067568
0
VERTEX
8
0
10
93.200000
20
107.100000
0
VERTEX
8
0
10
93.800000
20
105.900000
0
VERTEX
8
0
10
96.000000
20
101.000000
0
VERTEX
8
0
10
103.000000
20
94.000000
0
VERTEX
8
0
10
126.100000
20
79.200000
0
VERTEX
8
0
10
126.846154
20
78.769231
0
VERTEX
8
0
10
147.100000
20
68.300000
0
VERTEX
8
0
10
148.900000
20
67.700000
0
VERTEX
8
0
10
163.088235
20
61.352941
0
VERTEX
8
0
10
171.900000
20
58.700000
0
VERTEX
8
0
10
192.060000
20
53.420000
0
VERTEX
8
0
10
197.940000
20
52.580000
0
VERTEX
8
0
10
210.011351
20
51.488108
0
VERTEX
8
0
10
252.000000
20
51.000000
0
SEQEND
0
POLYLINE
8
0
6
CONTINUOUS
66
1
62
7
10
0.0
20
0.0
30
0.000000
0
VERTEX
8
0
10
245.000000
20
35.000000
0
VERTEX
8
0
10
270.946154
20
38.430769
0
VERTEX
8
0
10
306.911765
20
47.352941
0
VERTEX
8
0
10
316.900000
20
50.300000
0
VERTEX
8
0
10
381.900000
20
74.300000
0
VERTEX
8
0
10
411.100000
20
88.700000
0
VERTEX
8
0
10
478.911765
20
112.352941
0
VERTEX
8
0
10
492.037931
20
115.544828
0
VERTEX
8
0
10
502.962069
20
116.455172
0
VERTEX
8
0
10
530.000000
20
117.000000
0
VERTEX
8
0
10
546.100000
20
113.300000
0
VERTEX
8
0
10
563.900000
20
107.800000
0
VERTEX
8
0
10
565.100000
20
107.200000
0
VERTEX
8
0
10
581.846154
20
99.769231
0
VERTEX
8
0
10
584.153846
20
98.230769
0
VERTEX
8
0
10
601.820000
20
88.760000
0
VERTEX
8
0
10
609.846154
20
82.769231
0
VERTEX
8
0
10
623.088235
20
76.352941
0
VERTEX
8
0
10
625.911765
20
75.647059
0
VERTEX
8
0
10
634.000000
20
74.000000
0
VERTEX
8
0
10
645.000000
20
74.000000
0
VERTEX
8
0
10
653.900000
20
77.200000
0
VERTEX
8
0
10
662.100000
20
80.800000
0
VERTEX
8
0
10
669.000000
20
85.000000
0
VERTEX
8
0
10
673.000000
20
89.000000
0
VERTEX
8
0
10
678.800000
20
98.100000
0
VERTEX
8
0
10
689.700000
20
125.100000
0
VERTEX
8
0
10
691.300000
20
129.900000
0
VERTEX
8
0
10
695.000000
20
139.000000
0
VERTEX
8
0
10
694.000000
20
160.000000
0
VERTEX
8
0
10
695.647059
20
163.088235
0
VERTEX
8
0
10
696.352941
20
165.911765
0
VERTEX
8
0
10
698.000000
20
173.000000
0
VERTEX
8
0
10
698.000000
20
205.000000
0
VERTEX
8
0
10
695.800000
20
213.900000
0
VERTEX
8
0
10
693.769231
20
217.846154
0
VERTEX
8
0
10
690.800000
20
242.900000
0
VERTEX
8
0
10
687.300000
20
252.100000
0
VERTEX
8
0
10
680.800000
20
266.900000
0
VERTEX
8
0
10
676.800000
20
274.900000
0
VERTEX
8
0
10
671.705882
20
283.176471
0
VERTEX
8
0
10
669.615385
20
293.923077
0
VERTEX
8
0
10
662.800000
20
308.900000
0
VERTEX
8
0
10
661.800000
20
310.900000
0
VERTEX
8
0
10
647.384615
20
338.076923
0
VERTEX
8
0
10
645.352941
20
347.088235
0
VERTEX
8
0
10
639.800000
20
366.900000
0
VERTEX
8
0
10
637.200000
20
373.100000
0
VERTEX
8
0
10
634.000000
20
379.000000
0
VERTEX
8
0
10
635.000000
20
380.000000
0
VERTEX
8
0
10
635.000000
20
409.000000
0
VERTEX
8
0
10
634.000000
20
410.000000
0
VERTEX
8
0
10
644.700000
20
439.100000
0
VERTEX
8
0
10
645.594595
20
442.067568
0
VERTEX
8
0
10
648.000000
20
460.000000
0
VERTEX
8
0
10
645.200000
20
471.100000
0
VERTEX
8
0
10
637.000000
20
488.000000
0
VERTEX
8
0
10
619.804878
20
502.756098
0
VERTEX
8
0
10
606.900000
20
510.800000
0
VERTEX
8
0
10
585.846154
20
522.769231
0
VERTEX
8
0
10
558.900000
20
534.700000
0
VERTEX
8
0
10
553.900000
20
536.700000
0
VERTEX
8
0
10
537.911765
20
541.647059
0
VERTEX
8
0
10
532.100000
20
543.300000
0
VERTEX
8
0
10
512.969027
20
547.535398
0
VERTEX
8
0
10
499.030973
20
548.464602
0
VERTEX
8
0
10
478.000000
20
549.000000
0
VERTEX
8
0
10
443.060000
20
545.580000
0
VERTEX
8
0
10
438.076923
20
544.615385
0
VERTEX
8
0
10
400.088235
20
534.647059
0
VERTEX
8
0
10
383.900000
20
529.300000
0
VERTEX
8
0
10
347.100000
20
515.700000
0
VERTEX
8
0
10
296.900000
20
494.200000
0
VERTEX
8
0
10
245.900000
20
475.300000
0
VERTEX
8
0
10
241.100000
20
473.700000
0
VERTEX
8
0
10
211.955446
20
466.445545
0
VERTEX
8
0
10
195.000000
20
465.000000
0
VERTEX
8
0
10
170.076923
20
468.384615
0
VERTEX
8
0
10
159.076923
20
471.384615
0
VERTEX
8
0
10
151.100000
20
475.200000
0
VERTEX
8
0
10
143.100000
20
478.300000
0
VERTEX
8
0
10
124.100000
20
487.200000
0
VERTEX
8
0
10
96.000000
20
504.000000
0
VERTEX
8
0
10
81.000000
20
504.000000
0
VERTEX
8
0
10
74.060000
20
502.580000
0
VERTEX
8
0
10
65.900000
20
500.200000
0
VERTEX
8
0
10
63.900000
20
499.300000
0
VERTEX
8
0
10
58.153846
20
496.769231
0
VERTEX
8
0
10
51.000000
20
492.000000
0
VERTEX
8
0
10
47.760000
20
488.180000
0
VERTEX
8
0
10
42.240000
20
480.820000
0
VERTEX
8
0
10
32.300000
20
457.900000
0
VERTEX
8
0
10
31.700000
20
456.100000
0
VERTEX
8
0
10
23.000000
20
421.000000
0
VERTEX
8
0
10
23.000000
20
373.000000
0
VERTEX
8
0
10
31.352941
20
335.088235
0
VERTEX
8
0
10
40.300000
20
308.100000
0
VERTEX
8
0
10
52.200000
20
281.100000
0
VERTEX
8
0
10
52.800000
20
279.900000
0
VERTEX
8
0
10
64.243902
20
257.195122
0
VERTEX
8
0
10
68.243902
20
252.195122
0
VERTEX
8
0
10
70.875912
20
247.591241
0
VERTEX
8
0
10
72.800000
20
239.900000
0
VERTEX
8
0
10
83.230769
20
210.153846
0
VERTEX
8
0
10
86.000000
20
206.000000
0
VERTEX
8
0
10
86.000000
20
204.000000
0
VERTEX
8
0
10
85.000000
20
203.000000
0
VERTEX
8
0
10
86.615385
20
173.923077
0
VERTEX
8
0
10
87.384615
20
170.076923
0
VERTEX
8
0
10
82.300000
20
156.900000
0
VERTEX
8
0
10
79.700000
20
150.100000
0
VERTEX
8
0
10
74.000000
20
127.000000
0
VERTEX
8
0
10
74.000000
20
118.000000
0
VERTEX
8
0
10
75.430769
20
110.053846
0
VERTEX
8
0
10
77.200000
20
105.100000
0
VERTEX
8
0
10
78.300000
20
102.100000
0
VERTEX
8
0
10
82.230769
20
95.153846
0
VERTEX
8
0
10
88.000000
20
87.000000
0
VERTEX
8
0
10
93.820000
20
81.760000
0
VERTEX
8
0
10
101.180000
20
76.240000
0
VERTEX
8
0
10
120.100000
20
65.200000
0
VERTEX
8
0
10
140.900000
20
53.800000
0
VERTEX
8
0
10
165.088235
20
44.352941
0
VERTEX
8
0
10
178.911765
20
40.647059
0
VERTEX
8
0
10
195.946154
20
37.569231
0
VERTEX
8
0
10
224.021649
20
35.476289
0
VERTEX
8
0
10
245.000000
20
35.000000
0
SEQEND
0
ENDSEC
0
EOF
