  0
SECTION
  2
HEADER
  9
$ACADVER
  1
AC1014
  9
$ACADMAINTVER
 70
     0
  9
$DWGCODEPAGE
  3
ANSI_1252
  9
$INSBASE
 10
0.0
 20
0.0
 30
0.0
  9
$EXTMIN
 10
-24.299492
 20
-15.386331
 30
0.0
  9
$EXTMAX
 10
41.300512
 20
26.211277
 30
0.0
  9
$LIMMIN
 10
0.0
 20
0.0
  9
$LIMMAX
 10
17.0
 20
11.0
  9
$ORTHOMODE
 70
     0
  9
$REGENMODE
 70
     1
  9
$FILLMODE
 70
     1
  9
$QTEXTMODE
 70
     0
  9
$MIRRTEXT
 70
     1
  9
$DRAGMODE
 70
     2
  9
$LTSCALE
 40
1.0
  9
$OSMODE
 70
    37
  9
$ATTMODE
 70
     1
  9
$TEXTSIZE
 40
0.2
  9
$TRACEWID
 40
0.05
  9
$TEXTSTYLE
  7
STANDARD
  9
$CLAYER
  8
0
  9
$CELTYPE
  6
BYLAYER
  9
$CECOLOR
 62
     0
  9
$CELTSCALE
 40
1.0
  9
$DELOBJ
 70
     1
  9
$DISPSILH
 70
     0
  9
$DIMSCALE
 40
1.0
  9
$DIMASZ
 40
0.18
  9
$DIMEXO
 40
0.0625
  9
$DIMDLI
 40
0.38
  9
$DIMRND
 40
0.0
  9
$DIMDLE
 40
0.0
  9
$DIMEXE
 40
0.18
  9
$DIMTP
 40
0.0
  9
$DIMTM
 40
0.0
  9
$DIMTXT
 40
0.18
  9
$DIMCEN
 40
0.09
  9
$DIMTSZ
 40
0.0
  9
$DIMTOL
 70
     0
  9
$DIMLIM
 70
     0
  9
$DIMTIH
 70
     1
  9
$DIMTOH
 70
     1
  9
$DIMSE1
 70
     0
  9
$DIMSE2
 70
     0
  9
$DIMTAD
 70
     0
  9
$DIMZIN
 70
     0
  9
$DIMBLK
  1

  9
$DIMASO
 70
     1
  9
$DIMSHO
 70
     1
  9
$DIMPOST
  1

  9
$DIMAPOST
  1

  9
$DIMALT
 70
     0
  9
$DIMALTD
 70
     2
  9
$DIMALTF
 40
25.4
  9
$DIMLFAC
 40
1.0
  9
$DIMTOFL
 70
     0
  9
$DIMTVP
 40
0.0
  9
$DIMTIX
 70
     0
  9
$DIMSOXD
 70
     0
  9
$DIMSAH
 70
     0
  9
$DIMBLK1
  1

  9
$DIMBLK2
  1

  9
$DIMSTYLE
  2
STANDARD
  9
$DIMCLRD
 70
     0
  9
$DIMCLRE
 70
     0
  9
$DIMCLRT
 70
     0
  9
$DIMTFAC
 40
1.0
  9
$DIMGAP
 40
0.09
  9
$DIMJUST
 70
     0
  9
$DIMSD1
 70
     0
  9
$DIMSD2
 70
     0
  9
$DIMTOLJ
 70
     1
  9
$DIMTZIN
 70
     0
  9
$DIMALTZ
 70
     0
  9
$DIMALTTZ
 70
     0
  9
$DIMFIT
 70
     3
  9
$DIMUPT
 70
     0
  9
$DIMUNIT
 70
     2
  9
$DIMDEC
 70
     4
  9
$DIMTDEC
 70
     4
  9
$DIMALTU
 70
     2
  9
$DIMALTTD
 70
     2
  9
$DIMTXSTY
  7
STANDARD
  9
$DIMAUNIT
 70
     0
  9
$LUNITS
 70
     2
  9
$LUPREC
 70
     4
  9
$SKETCHINC
 40
0.1
  9
$FILLETRAD
 40
0.5
  9
$AUNITS
 70
     0
  9
$AUPREC
 70
     0
  9
$MENU
  1
acad
  9
$ELEVATION
 40
0.0
  9
$PELEVATION
 40
0.0
  9
$THICKNESS
 40
0.0
  9
$LIMCHECK
 70
     0
  9
$BLIPMODE
 70
     0
  9
$CHAMFERA
 40
0.5
  9
$CHAMFERB
 40
0.5
  9
$CHAMFERC
 40
1.0
  9
$CHAMFERD
 40
0.0
  9
$SKPOLY
 70
     1
  9
$TDCREATE
 40
2444971.833333333
  9
$TDUPDATE
 40
2451725.367387534
  9
$TDINDWG
 40
0.0078647917
  9
$TDUSRTIMER
 40
0.0078647917
  9
$USRTIMER
 70
     1
  9
$ANGBASE
 50
0.0
  9
$ANGDIR
 70
     0
  9
$PDMODE
 70
     0
  9
$PDSIZE
 40
0.0
  9
$PLINEWID
 40
0.0
  9
$COORDS
 70
     1
  9
$SPLFRAME
 70
     0
  9
$SPLINETYPE
 70
     6
  9
$SPLINESEGS
 70
     8
  9
$ATTDIA
 70
     0
  9
$ATTREQ
 70
     1
  9
$HANDLING
 70
     1
  9
$HANDSEED
  5
70D
  9
$SURFTAB1
 70
     6
  9
$SURFTAB2
 70
     6
  9
$SURFTYPE
 70
     6
  9
$SURFU
 70
     6
  9
$SURFV
 70
     6
  9
$UCSNAME
  2

  9
$UCSORG
 10
0.0
 20
0.0
 30
0.0
  9
$UCSXDIR
 10
1.0
 20
0.0
 30
0.0
  9
$UCSYDIR
 10
0.0
 20
1.0
 30
0.0
  9
$PUCSNAME
  2

  9
$PUCSORG
 10
0.0
 20
0.0
 30
0.0
  9
$PUCSXDIR
 10
1.0
 20
0.0
 30
0.0
  9
$PUCSYDIR
 10
0.0
 20
1.0
 30
0.0
  9
$USERI1
 70
     0
  9
$USERI2
 70
     0
  9
$USERI3
 70
     0
  9
$USERI4
 70
     0
  9
$USERI5
 70
     0
  9
$USERR1
 40
0.0
  9
$USERR2
 40
0.0
  9
$USERR3
 40
0.0
  9
$USERR4
 40
0.0
  9
$USERR5
 40
0.0
  9
$WORLDVIEW
 70
     1
  9
$SHADEDGE
 70
     3
  9
$SHADEDIF
 70
    70
  9
$TILEMODE
 70
     0
  9
$MAXACTVP
 70
    48
  9
$PINSBASE
 10
0.0
 20
0.0
 30
0.0
  9
$PLIMCHECK
 70
     0
  9
$PEXTMIN
 10
0.0
 20
0.0
 30
0.0
  9
$PEXTMAX
 10
16.400001
 20
10.576788
 30
0.0
  9
$PLIMMIN
 10
-0.28125
 20
-0.28125
  9
$PLIMMAX
 10
16.71875
 20
10.71875
  9
$UNITMODE
 70
     0
  9
$VISRETAIN
 70
     1
  9
$PLINEGEN
 70
     0
  9
$PSLTSCALE
 70
     1
  9
$TREEDEPTH
 70
  3020
  9
$PICKSTYLE
 70
     1
  9
$CMLSTYLE
  2
STANDARD
  9
$CMLJUST
 70
     0
  9
$CMLSCALE
 40
1.0
  9
$PROXYGRAPHICS
 70
     1
  9
$MEASUREMENT
 70
     0
  0
ENDSEC
  0
SECTION
  2
CLASSES
  0
CLASS
  1
LWPOLYLINE
  2
AcDbPolyline
  3
"AutoCAD"
 90
        0
280
     0
281
     1
  0
CLASS
  1
IMAGE
  2
AcDbRasterImage
  3
ISM
 90
      127
280
     0
281
     1
  0
CLASS
  1
OLE2FRAME
  2
AcDbOle2Frame
  3
""
 90
        0
280
     0
281
     1
  0
CLASS
  1
HATCH
  2
AcDbHatch
  3
"ACAD_SEDONA"
 90
        0
280
     0
281
     1
  0
CLASS
  1
DICTIONARYVAR
  2
AcDbDictionaryVar
  3
"AutoCAD"
 90
        0
280
     0
281
     0
  0
CLASS
  1
RASTERVARIABLES
  2
AcDbRasterVariables
  3
ISM
 90
        0
280
     0
281
     0
  0
CLASS
  1
IMAGEDEF
  2
AcDbRasterImageDef
  3
ISM
 90
        0
280
     0
281
     0
  0
CLASS
  1
IMAGEDEF_REACTOR
  2
AcDbRasterImageDefReactor
  3
ISM
 90
        1
280
     0
281
     0
  0
CLASS
  1
IDBUFFER
  2
AcDbIdBuffer
  3
"Acad"
 90
        0
280
     0
281
     0
  0
CLASS
  1
SPATIAL_FILTER
  2
AcDbSpatialFilter
  3
"Acad"
 90
        0
280
     0
281
     0
  0
CLASS
  1
XRECORD
  2
AcDbXrecord
  3
"<Built In>"
 90
        0
280
     0
281
     0
  0
CLASS
  1
SORTENTSTABLE
  2
AcDbSortentsTable
  3
"AutoCAD"
 90
        0
280
     0
281
     0
  0
CLASS
  1
LAYER_INDEX
  2
AcDbLayerIndex
  3
"Acad"
 90
        0
280
     0
281
     0
  0
CLASS
  1
SPATIAL_INDEX
  2
AcDbSpatialIndex
  3
"Acad"
 90
        0
280
     0
281
     0
  0
CLASS
  1
OBJECT_PTR
  2
CAseDLPNTableRecord
  3
ASE-LPNTableRecord
 90
        1
280
     0
281
     0
  0
CLASS
  1
ACDBDICTIONARYWDFLT
  2
AcDbDictionaryWithDefault
  3
AutoCAD 2000
 90
        0
280
     0
281
     0
  0
CLASS
  1
ACDBPLACEHOLDER
  2
AcDbPlaceHolder
  3
AutoCAD 2000
 90
        0
280
     0
281
     0
  0
CLASS
  1
LAYOUT
  2
AcDbLayout
  3
AutoCAD 2000
 90
        0
280
     0
281
     0
  0
CLASS
  1
LONG_TRANSACTION
  2
AcDbLongTransaction
  3
AutoCAD 2000
 90
        0
280
     0
281
     0
  0
CLASS
  1
LWPOLYLINE
  2
AcDbPolyline
  3
"AutoCAD"
 90
        0
280
     0
281
     1
  0
CLASS
  1
HATCH
  2
AcDbHatch
  3
"ACAD_SEDONA"
 90
        0
280
     0
281
     1
  0
CLASS
  1
XRECORD
  2
AcDbXrecord
  3
"<Built In>"
 90
        0
280
     0
281
     0
  0
CLASS
  1
LONG_TRANSACTION
  2
AcDbLongTransaction
  3
AutoCAD 2000
 90
        0
280
     0
281
     0
  0
CLASS
  1
LWPOLYLINE
  2
AcDbPolyline
  3
"AutoCAD"
 90
        0
280
     0
281
     1
  0
CLASS
  1
HATCH
  2
AcDbHatch
  3
"ACAD_SEDONA"
 90
        0
280
     0
281
     1
  0
CLASS
  1
XRECORD
  2
AcDbXrecord
  3
"<Built In>"
 90
        0
280
     0
281
     0
  0
ENDSEC
  0
SECTION
  2
TABLES
  0
TABLE
  2
VPORT
  5
7
100
AcDbSymbolTable
 70
     2
  0
VPORT
  5
1E
102
{ACAD_XDICTIONARY
360
6FF
102
}
100
AcDbSymbolTableRecord
100
AcDbViewportTableRecord
  2
M_SHEET
 70
     0
 10
0.0
 20
0.0
 11
1.0
 21
1.0
 12
8.5
 22
5.5
 13
0.0
 23
0.0
 14
0.19685
 24
0.19685
 15
0.19685
 25
0.19685
 16
0.0
 26
0.0
 36
1.0
 17
0.0
 27
0.0
 37
0.0
 40
11.0
 41
1.545455
 42
50.0
 43
0.0
 44
0.0
 50
0.0
 51
0.0
 71
     0
 72
   100
 73
     1
 74
     1
 75
     0
 76
     0
 77
     0
 78
     0
  0
VPORT
  5
66C
102
{ACAD_XDICTIONARY
360
6D9
102
}
100
AcDbSymbolTableRecord
100
AcDbViewportTableRecord
  2
*ACTIVE
 70
     0
 10
0.0
 20
0.0
 11
1.0
 21
1.0
 12
6.250105
 22
12.247478
 13
0.0
 23
0.0
 14
0.19685
 24
0.19685
 15
0.19685
 25
0.19685
 16
0.0
 26
0.0
 36
1.0
 17
0.0
 27
0.0
 37
0.0
 40
55.708385
 41
1.642951
 42
50.0
 43
0.0
 44
0.0
 50
0.0
 51
0.0
 71
     0
 72
   100
 73
     1
 74
     0
 75
     0
 76
     0
 77
     0
 78
     0
  0
ENDTAB
  0
TABLE
  2
LTYPE
  5
4
100
AcDbSymbolTable
 70
     7
  0
LTYPE
  5
11
100
AcDbSymbolTableRecord
100
AcDbLinetypeTableRecord
  2
BYBLOCK
 70
     0
  3

 72
    65
 73
     0
 40
0.0
  0
LTYPE
  5
12
100
AcDbSymbolTableRecord
100
AcDbLinetypeTableRecord
  2
BYLAYER
 70
     0
  3

 72
    65
 73
     0
 40
0.0
  0
LTYPE
  5
13
100
AcDbSymbolTableRecord
100
AcDbLinetypeTableRecord
  2
CONTINUOUS
 70
     0
  3
Solid line
 72
    65
 73
     0
 40
0.0
  0
LTYPE
  5
3AA
100
AcDbSymbolTableRecord
100
AcDbLinetypeTableRecord
  2
M_LT25
 70
     0
  3
Medusa Standard Line Style 25
 72
    65
 73
     4
 40
2.0
 49
0.5
 74
     0
 49
-0.5
 74
     0
 49
0.5
 74
     0
 49
-0.5
 74
     0
  0
LTYPE
  5
59E
100
AcDbSymbolTableRecord
100
AcDbLinetypeTableRecord
  2
CENTER
 70
     0
  3
Center ____ _ ____ _ ____ _ ____ _ ____ _ ____
 72
    65
 73
     4
 40
2.0
 49
1.25
 74
     0
 49
-0.25
 74
     0
 49
0.25
 74
     0
 49
-0.25
 74
     0
  0
LTYPE
  5
59F
100
AcDbSymbolTableRecord
100
AcDbLinetypeTableRecord
  2
DASHDOT
 70
     0
  3
Dash dot __ . __ . __ . __ . __ . __ . __ . __
 72
    65
 73
     4
 40
1.0
 49
0.5
 74
     0
 49
-0.25
 74
     0
 49
0.0
 74
     0
 49
-0.25
 74
     0
  0
LTYPE
  5
5A0
100
AcDbSymbolTableRecord
100
AcDbLinetypeTableRecord
  2
DOT
 70
     0
  3
Dot . . . . . . . . . . . . . . . . . . . . . .
 72
    65
 73
     2
 40
0.25
 49
0.0
 74
     0
 49
-0.25
 74
     0
  0
LTYPE
  5
5A1
100
AcDbSymbolTableRecord
100
AcDbLinetypeTableRecord
  2
HIDDEN
 70
     0
  3
Hidden __ __ __ __ __ __ __ __ __ __ __ __ __ _
 72
    65
 73
     2
 40
0.375
 49
0.25
 74
     0
 49
-0.125
 74
     0
  0
LTYPE
  5
5A2
100
AcDbSymbolTableRecord
100
AcDbLinetypeTableRecord
  2
PHANTOM
 70
     0
  3
Phantom ______  __  __  ______  __  __  ______
 72
    65
 73
     6
 40
2.5
 49
1.25
 74
     0
 49
-0.25
 74
     0
 49
0.25
 74
     0
 49
-0.25
 74
     0
 49
0.25
 74
     0
 49
-0.25
 74
     0
  0
ENDTAB
  0
TABLE
  2
LAYER
  5
2
100
AcDbSymbolTable
 70
    37
  0
LAYER
  5
14
100
AcDbSymbolTableRecord
100
AcDbLayerTableRecord
  2
0
 70
     0
 62
     7
  6
CONTINUOUS
  0
LAYER
  5
1F
100
AcDbSymbolTableRecord
100
AcDbLayerTableRecord
  2
10
 70
     0
 62
     7
  6
CONTINUOUS
  0
LAYER
  5
2B2
100
AcDbSymbolTableRecord
100
AcDbLayerTableRecord
  2
6
 70
     0
 62
     7
  6
CONTINUOUS
  0
LAYER
  5
2BF
100
AcDbSymbolTableRecord
100
AcDbLayerTableRecord
  2
M_BEMASSUNG
 70
     0
 62
     7
  6
CONTINUOUS
  0
LAYER
  5
2C6
100
AcDbSymbolTableRecord
100
AcDbLayerTableRecord
  2
4
 70
     0
 62
     7
  6
CONTINUOUS
  0
LAYER
  5
3AB
100
AcDbSymbolTableRecord
100
AcDbLayerTableRecord
  2
11
 70
     0
 62
     7
  6
CONTINUOUS
  0
LAYER
  5
3D5
100
AcDbSymbolTableRecord
100
AcDbLayerTableRecord
  2
800
 70
     0
 62
     7
  6
CONTINUOUS
  0
LAYER
  5
3E2
100
AcDbSymbolTableRecord
100
AcDbLayerTableRecord
  2
801
 70
     0
 62
     7
  6
CONTINUOUS
  0
LAYER
  5
40B
100
AcDbSymbolTableRecord
100
AcDbLayerTableRecord
  2
M_KOMPAKTSCHRAFFUR
 70
     0
 62
     7
  6
CONTINUOUS
  0
LAYER
  5
4A3
100
AcDbSymbolTableRecord
100
AcDbLayerTableRecord
  2
27
 70
     0
 62
     7
  6
CONTINUOUS
  0
LAYER
  5
55A
100
AcDbSymbolTableRecord
100
AcDbLayerTableRecord
  2
M_ERR
 70
     0
 62
     6
  6
CONTINUOUS
  0
LAYER
  5
5A3
100
AcDbSymbolTableRecord
100
AcDbLayerTableRecord
  2
BORDER
 70
     0
 62
     7
  6
CONTINUOUS
  0
LAYER
  5
5A4
100
AcDbSymbolTableRecord
100
AcDbLayerTableRecord
  2
CENTER1
 70
     0
 62
     5
  6
CENTER
  0
LAYER
  5
5A5
100
AcDbSymbolTableRecord
100
AcDbLayerTableRecord
  2
CENTER2
 70
     0
 62
   160
  6
CENTER
  0
LAYER
  5
5A6
100
AcDbSymbolTableRecord
100
AcDbLayerTableRecord
  2
DASHDOT1
 70
     0
 62
     6
  6
DASHDOT
  0
LAYER
  5
5A7
100
AcDbSymbolTableRecord
100
AcDbLayerTableRecord
  2
DIM
 70
     0
 62
     2
  6
CONTINUOUS
  0
LAYER
  5
5A8
100
AcDbSymbolTableRecord
100
AcDbLayerTableRecord
  2
DOT1
 70
     0
 62
   211
  6
DOT
  0
LAYER
  5
5A9
100
AcDbSymbolTableRecord
100
AcDbLayerTableRecord
  2
HATCH
 70
     0
 62
    13
  6
CONTINUOUS
  0
LAYER
  5
5AA
100
AcDbSymbolTableRecord
100
AcDbLayerTableRecord
  2
HIDDEN1
 70
     0
 62
     4
  6
HIDDEN
  0
LAYER
  5
5AB
100
AcDbSymbolTableRecord
100
AcDbLayerTableRecord
  2
HIDDEN2
 70
     0
 62
   130
  6
HIDDEN
  0
LAYER
  5
5AC
100
AcDbSymbolTableRecord
100
AcDbLayerTableRecord
  2
OBJECT1
 70
     0
 62
     1
  6
CONTINUOUS
  0
LAYER
  5
5AD
100
AcDbSymbolTableRecord
100
AcDbLayerTableRecord
  2
OBJECT2
 70
     0
 62
     7
  6
CONTINUOUS
  0
LAYER
  5
5AE
100
AcDbSymbolTableRecord
100
AcDbLayerTableRecord
  2
PHANTOM1
 70
     0
 62
   220
  6
PHANTOM
  0
LAYER
  5
5AF
100
AcDbSymbolTableRecord
100
AcDbLayerTableRecord
  2
PHANTOM2
 70
     0
 62
   222
  6
PHANTOM
  0
LAYER
  5
5B0
100
AcDbSymbolTableRecord
100
AcDbLayerTableRecord
  2
TEXT1
 70
     0
 62
     3
  6
CONTINUOUS
  0
LAYER
  5
5B1
100
AcDbSymbolTableRecord
100
AcDbLayerTableRecord
  2
TEXT2
 70
     0
 62
     7
  6
CONTINUOUS
  0
LAYER
  5
5B2
100
AcDbSymbolTableRecord
100
AcDbLayerTableRecord
  2
CENTER3
 70
     0
 62
   162
  6
CENTER
  0
LAYER
  5
5B3
100
AcDbSymbolTableRecord
100
AcDbLayerTableRecord
  2
DASHDOT2
 70
     0
 62
   212
  6
DASHDOT
  0
LAYER
  5
5B4
100
AcDbSymbolTableRecord
100
AcDbLayerTableRecord
  2
DASHDOT3
 70
     0
 62
   210
  6
DASHDOT
  0
LAYER
  5
5B5
100
AcDbSymbolTableRecord
100
AcDbLayerTableRecord
  2
DOT2
 70
     0
 62
   213
  6
DOT
  0
LAYER
  5
5B6
100
AcDbSymbolTableRecord
100
AcDbLayerTableRecord
  2
DOT3
 70
     0
 62
   215
  6
DOT
  0
LAYER
  5
5B7
100
AcDbSymbolTableRecord
100
AcDbLayerTableRecord
  2
HIDDEN3
 70
     0
 62
   132
  6
HIDDEN
  0
LAYER
  5
5B8
100
AcDbSymbolTableRecord
100
AcDbLayerTableRecord
  2
OBJECT3
 70
     0
 62
    10
  6
CONTINUOUS
  0
LAYER
  5
5B9
100
AcDbSymbolTableRecord
100
AcDbLayerTableRecord
  2
PHANTOM3
 70
     0
 62
   224
  6
PHANTOM
  0
LAYER
  5
5BA
100
AcDbSymbolTableRecord
100
AcDbLayerTableRecord
  2
TEXT3
 70
     0
 62
    70
  6
CONTINUOUS
  0
LAYER
  5
5BB
100
AcDbSymbolTableRecord
100
AcDbLayerTableRecord
  2
MFG
 70
     0
 62
     4
  6
HIDDEN
  0
LAYER
  5
5BC
100
AcDbSymbolTableRecord
100
AcDbLayerTableRecord
  2
MFGTEXT
 70
     0
 62
     3
  6
CONTINUOUS
  0
ENDTAB
  0
TABLE
  2
STYLE
  5
3
100
AcDbSymbolTable
 70
     4
  0
STYLE
  5
17
100
AcDbSymbolTableRecord
100
AcDbTextStyleTableRecord
  2
STANDARD
 70
     0
 40
0.0
 41
1.0
 50
0.0
 71
     0
 42
0.0
  3
TXT.SHX
  4

  0
STYLE
  5
1D
100
AcDbSymbolTableRecord
100
AcDbTextStyleTableRecord
  2
M_STANDARD
 70
     0
 40
0.0
 41
0.8
 50
0.0
 71
     0
 42
0.0
  3
MEDUSA.SHX
  4

  0
STYLE
  5
2C2
100
AcDbSymbolTableRecord
100
AcDbTextStyleTableRecord
  2
M_DIMENSION
 70
     0
 40
0.0
 41
1.0
 50
0.0
 71
     0
 42
0.0
  3

  4

  0
STYLE
  5
55B
100
AcDbSymbolTableRecord
100
AcDbTextStyleTableRecord
  2
M_ERR
 70
     0
 40
0.0
 41
1.0
 50
0.0
 71
     0
 42
0.0
  3
ISOCP.SHX
  4

  0
ENDTAB
  0
TABLE
  2
VIEW
  5
5
100
AcDbSymbolTable
 70
     0
  0
ENDTAB
  0
TABLE
  2
UCS
  5
6
100
AcDbSymbolTable
 70
     0
  0
ENDTAB
  0
TABLE
  2
APPID
  5
8
100
AcDbSymbolTable
 70
     2
  0
APPID
  5
16
100
AcDbSymbolTableRecord
100
AcDbRegAppTableRecord
  2
ACAD
 70
     0
  0
APPID
  5
2B0
100
AcDbSymbolTableRecord
100
AcDbRegAppTableRecord
  2
MED_PRIMTYPE
 70
     0
  0
ENDTAB
  0
TABLE
  2
DIMSTYLE
  5
9
100
AcDbSymbolTable
 70
     2
  0
DIMSTYLE
105
18
102
{ACAD_XDICTIONARY
360
6FD
102
}
100
AcDbSymbolTableRecord
100
AcDbDimStyleTableRecord
  2
STANDARD
 70
     0
  3

  4

  5

  6

  7

 40
1.0
 41
0.18
 42
0.0625
 43
0.38
 44
0.18
 45
0.0
 46
0.0
 47
0.0
 48
0.0
140
0.18
141
0.09
142
0.0
143
25.4
144
1.0
145
0.0
146
1.0
147
0.09
 71
     0
 72
     0
 73
     1
 74
     1
 75
     0
 76
     0
 77
     0
 78
     0
170
     0
171
     2
172
     0
173
     0
174
     0
175
     0
176
     0
177
     0
178
     0
270
     2
271
     4
272
     4
273
     2
274
     2
340
17
275
     0
280
     0
281
     0
282
     0
283
     1
284
     0
285
     0
286
     0
287
     0
288
     0
  0
DIMSTYLE
105
2C1
100
AcDbSymbolTableRecord
100
AcDbDimStyleTableRecord
  2
MED-ANSI
 70
     0
  3

  4
mm
  5

  6

  7

 40
1.0
 41
0.1378
 42
0.05
 43
0.5
 44
0.1
 45
0.0
 46
0.0
 47
0.1
 48
0.1
140
0.12
141
0.0
142
0.0
143
25.4
144
1.0
145
0.0
146
0.71
147
0.11
 71
     0
 72
     0
 73
     1
 74
     1
 75
     0
 76
     0
 77
     0
 78
     7
170
     0
171
     2
172
     0
173
     1
174
     0
175
     0
176
   256
177
   256
178
   256
270
     2
271
     4
272
     4
273
     2
274
     4
340
2C2
275
     0
280
     0
281
     0
282
     0
283
     1
284
     0
285
     0
286
     0
287
     3
288
     0
  0
ENDTAB
  0
TABLE
  2
BLOCK_RECORD
  5
1
100
AcDbSymbolTable
 70
     6
  0
BLOCK_RECORD
  5
A
102
{ACAD_XDICTIONARY
360
6C3
102
}
100
AcDbSymbolTableRecord
100
AcDbBlockTableRecord
  2
*MODEL_SPACE
  0
BLOCK_RECORD
  5
B
102
{ACAD_XDICTIONARY
360
6C5
102
}
100
AcDbSymbolTableRecord
100
AcDbBlockTableRecord
  2
*PAPER_SPACE
  0
BLOCK_RECORD
  5
20
100
AcDbSymbolTableRecord
100
AcDbBlockTableRecord
  2
M_PIC_H94
  0
BLOCK_RECORD
  5
2C8
100
AcDbSymbolTableRecord
100
AcDbBlockTableRecord
  2
M_PFN_2
  0
BLOCK_RECORD
  5
2D5
100
AcDbSymbolTableRecord
100
AcDbBlockTableRecord
  2
M_PFN_101
  0
BLOCK_RECORD
  5
2DB
100
AcDbSymbolTableRecord
100
AcDbBlockTableRecord
  2
M_PFN_100
  0
BLOCK_RECORD
  5
462
100
AcDbSymbolTableRecord
100
AcDbBlockTableRecord
  2
M_PFN_4
  0
BLOCK_RECORD
  5
5BD
100
AcDbSymbolTableRecord
100
AcDbBlockTableRecord
  2
LAYERS
  0
ENDTAB
  0
ENDSEC
  0
SECTION
  2
BLOCKS
  0
BLOCK
  5
D
100
AcDbEntity
  8
0
100
AcDbBlockBegin
  2
*MODEL_SPACE
 70
     0
 10
0.0
 20
0.0
 30
0.0
  3
*MODEL_SPACE
  1

  0
ENDBLK
  5
E
100
AcDbEntity
  8
0
100
AcDbBlockEnd
  0
BLOCK
  5
F
100
AcDbEntity
 67
     1
  8
0
100
AcDbBlockBegin
  2
*PAPER_SPACE
 70
     0
 10
0.0
 20
0.0
 30
0.0
  3
*PAPER_SPACE
  1

  0
ENDBLK
  5
10
100
AcDbEntity
 67
     1
  8
0
100
AcDbBlockEnd
  0
BLOCK
  5
21
100
AcDbEntity
  8
0
100
AcDbBlockBegin
  2
M_PIC_H94
 70
     0
 10
0.0
 20
0.0
 30
0.0
  3
M_PIC_H94
  1

  0
LWPOLYLINE
  5
22
100
AcDbEntity
  8
0
  6
CONTINUOUS
 62
     7
100
AcDbPolyline
 90
       22
 70
   128
 43
0.0
 10
-5.11339
 20
-0.301445
 10
-4.810833
 20
-0.301445
 42
-0.199003
 10
-4.783699
 20
-0.312714
 42
-0.198673
 10
-4.772459
 20
-0.33989
 10
-4.772459
 20
-0.605909
 10
-4.929823
 20
-0.492928
 42
0.231527
 10
-4.94663
 20
-0.490172
 42
0.114949
 10
-4.954186
 20
-0.494512
 42
0.115493
 10
-4.959024
 20
-0.501734
 10
-4.986414
 20
-0.57379
 42
0.166181
 10
-4.986897
 20
-0.586213
 42
0.167547
 10
-4.979664
 20
-0.59626
 10
-4.801939
 20
-0.72377
 42
-0.032184
 10
-4.806118
 20
-0.724464
 42
-0.025916
 10
-4.810833
 20
-0.724695
 10
-5.368751
 20
-0.724695
 42
-0.198815
 10
-5.396047
 20
-0.713426
 42
-0.199202
 10
-5.407353
 20
-0.68618
 10
-5.407353
 20
-0.33989
 42
-0.199515
 10
-5.396047
 20
-0.312721
 42
-0.19831
 10
-5.368751
 20
-0.301467
 10
-5.11339
 20
-0.301467
  0
LWPOLYLINE
  5
23
100
AcDbEntity
  8
0
  6
CONTINUOUS
 62
     7
100
AcDbPolyline
 90
       19
 70
   128
 43
0.0
 10
-5.11339
 20
-0.186008
 10
-5.368751
 20
-0.186008
 42
0.198729
 10
-5.477663
 20
-0.231094
 42
0.199033
 10
-5.522776
 20
-0.33989
 10
-5.522776
 20
-0.68618
 42
0.414214
 10
-5.368751
 20
-0.840156
 10
-4.810833
 20
-0.840156
 42
0.198222
 10
-4.702351
 20
-0.79524
 10
-4.660149
 20
-0.825516
 42
0.233776
 10
-4.643412
 20
-0.828333
 42
0.232317
 10
-4.630945
 20
-0.816729
 10
-4.603556
 20
-0.744642
 42
0.164432
 10
-4.603153
 20
-0.732287
 42
0.163812
 10
-4.610317
 20
-0.722183
 10
-4.656948
 20
-0.688578
 10
-4.656948
 20
-0.68618
 10
-4.656948
 20
-0.33989
 42
0.414384
 10
-4.810833
 20
-0.186059
 10
-5.11339
 20
-0.186059
  0
LINE
  5
24
100
AcDbEntity
  8
0
  6
CONTINUOUS
 62
     7
100
AcDbLine
 10
-4.630794
 20
-0.707455
 30
0.0
 11
-4.630794
 21
-0.816225
 31
0.0
  0
LINE
  5
25
100
AcDbEntity
  8
0
  6
CONTINUOUS
 62
     7
100
AcDbLine
 10
-4.672884
 20
-0.816414
 30
0.0
 11
-4.672884
 21
-0.27178
 31
0.0
  0
LINE
  5
26
100
AcDbEntity
  8
0
  6
CONTINUOUS
 62
     7
100
AcDbLine
 10
-4.714954
 20
-0.219568
 30
0.0
 11
-4.714954
 21
-0.806457
 31
0.0
  0
LINE
  5
27
100
AcDbEntity
  8
0
  6
CONTINUOUS
 62
     7
100
AcDbLine
 10
-4.757036
 20
-0.830362
 30
0.0
 11
-4.757036
 21
-0.195751
 31
0.0
  0
LINE
  5
28
100
AcDbEntity
  8
0
  6
CONTINUOUS
 62
     7
100
AcDbLine
 10
-4.799107
 20
-0.18648
 30
0.0
 11
-4.799107
 21
-0.303289
 31
0.0
  0
LINE
  5
29
100
AcDbEntity
  8
0
  6
CONTINUOUS
 62
     7
100
AcDbLine
 10
-4.799107
 20
-0.586763
 30
0.0
 11
-4.799107
 21
-0.839691
 31
0.0
  0
LINE
  5
2A
100
AcDbEntity
  8
0
  6
CONTINUOUS
 62
     7
100
AcDbLine
 10
-4.841187
 20
-0.840132
 30
0.0
 11
-4.841187
 21
-0.724695
 31
0.0
  0
LINE
  5
2B
100
AcDbEntity
  8
0
  6
CONTINUOUS
 62
     7
100
AcDbLine
 10
-4.841187
 20
-0.695654
 30
0.0
 11
-4.841187
 21
-0.55657
 31
0.0
  0
LINE
  5
2C
100
AcDbEntity
  8
0
  6
CONTINUOUS
 62
     7
100
AcDbLine
 10
-4.841187
 20
-0.301445
 30
0.0
 11
-4.841187
 21
-0.186028
 31
0.0
  0
LINE
  5
2D
100
AcDbEntity
  8
0
  6
CONTINUOUS
 62
     7
100
AcDbLine
 10
-4.883257
 20
-0.186028
 30
0.0
 11
-4.883257
 21
-0.301445
 31
0.0
  0
LINE
  5
2E
100
AcDbEntity
  8
0
  6
CONTINUOUS
 62
     7
100
AcDbLine
 10
-4.883257
 20
-0.526375
 30
0.0
 11
-4.883257
 21
-0.665461
 31
0.0
  0
LINE
  5
2F
100
AcDbEntity
  8
0
  6
CONTINUOUS
 62
     7
100
AcDbLine
 10
-4.883257
 20
-0.724695
 30
0.0
 11
-4.883257
 21
-0.840132
 31
0.0
  0
LINE
  5
30
100
AcDbEntity
  8
0
  6
CONTINUOUS
 62
     7
100
AcDbLine
 10
-4.925337
 20
-0.840132
 30
0.0
 11
-4.925337
 21
-0.724695
 31
0.0
  0
LINE
  5
31
100
AcDbEntity
  8
0
  6
CONTINUOUS
 62
     7
100
AcDbLine
 10
-4.925337
 20
-0.635273
 30
0.0
 11
-4.925337
 21
-0.496182
 31
0.0
  0
LINE
  5
32
100
AcDbEntity
  8
0
  6
CONTINUOUS
 62
     7
100
AcDbLine
 10
-4.925337
 20
-0.301445
 30
0.0
 11
-4.925337
 21
-0.186028
 31
0.0
  0
LINE
  5
33
100
AcDbEntity
  8
0
  6
CONTINUOUS
 62
     7
100
AcDbLine
 10
-4.967409
 20
-0.186028
 30
0.0
 11
-4.967409
 21
-0.301445
 31
0.0
  0
LINE
  5
34
100
AcDbEntity
  8
0
  6
CONTINUOUS
 62
     7
100
AcDbLine
 10
-4.967409
 20
-0.523687
 30
0.0
 11
-4.967409
 21
-0.60508
 31
0.0
  0
LINE
  5
35
100
AcDbEntity
  8
0
  6
CONTINUOUS
 62
     7
100
AcDbLine
 10
-4.967409
 20
-0.724695
 30
0.0
 11
-4.967409
 21
-0.840132
 31
0.0
  0
LINE
  5
36
100
AcDbEntity
  8
0
  6
CONTINUOUS
 62
     7
100
AcDbLine
 10
-5.009499
 20
-0.840132
 30
0.0
 11
-5.009499
 21
-0.724695
 31
0.0
  0
LINE
  5
37
100
AcDbEntity
  8
0
  6
CONTINUOUS
 62
     7
100
AcDbLine
 10
-5.009499
 20
-0.301445
 30
0.0
 11
-5.009499
 21
-0.186028
 31
0.0
  0
LINE
  5
38
100
AcDbEntity
  8
0
  6
CONTINUOUS
 62
     7
100
AcDbLine
 10
-5.051578
 20
-0.186028
 30
0.0
 11
-5.051578
 21
-0.301445
 31
0.0
  0
LINE
  5
39
100
AcDbEntity
  8
0
  6
CONTINUOUS
 62
     7
100
AcDbLine
 10
-5.051578
 20
-0.724695
 30
0.0
 11
-5.051578
 21
-0.840132
 31
0.0
  0
LINE
  5
3A
100
AcDbEntity
  8
0
  6
CONTINUOUS
 62
     7
100
AcDbLine
 10
-5.093668
 20
-0.840132
 30
0.0
 11
-5.093668
 21
-0.724695
 31
0.0
  0
LINE
  5
3B
100
AcDbEntity
  8
0
  6
CONTINUOUS
 62
     7
100
AcDbLine
 10
-5.093668
 20
-0.301445
 30
0.0
 11
-5.093668
 21
-0.186028
 31
0.0
  0
LINE
  5
3C
100
AcDbEntity
  8
0
  6
CONTINUOUS
 62
     7
100
AcDbLine
 10
-5.135738
 20
-0.186014
 30
0.0
 11
-5.135738
 21
-0.301456
 31
0.0
  0
LINE
  5
3D
100
AcDbEntity
  8
0
  6
CONTINUOUS
 62
     7
100
AcDbLine
 10
-5.135738
 20
-0.724695
 30
0.0
 11
-5.135738
 21
-0.840132
 31
0.0
  0
LINE
  5
3E
100
AcDbEntity
  8
0
  6
CONTINUOUS
 62
     7
100
AcDbLine
 10
-5.177818
 20
-0.840132
 30
0.0
 11
-5.177818
 21
-0.724695
 31
0.0
  0
LINE
  5
3F
100
AcDbEntity
  8
0
  6
CONTINUOUS
 62
     7
100
AcDbLine
 10
-5.177818
 20
-0.301456
 30
0.0
 11
-5.177818
 21
-0.186014
 31
0.0
  0
LINE
  5
40
100
AcDbEntity
  8
0
  6
CONTINUOUS
 62
     7
100
AcDbLine
 10
-5.219889
 20
-0.186014
 30
0.0
 11
-5.219889
 21
-0.301456
 31
0.0
  0
LINE
  5
41
100
AcDbEntity
  8
0
  6
CONTINUOUS
 62
     7
100
AcDbLine
 10
-5.219889
 20
-0.724695
 30
0.0
 11
-5.219889
 21
-0.840132
 31
0.0
  0
LINE
  5
42
100
AcDbEntity
  8
0
  6
CONTINUOUS
 62
     7
100
AcDbLine
 10
-5.261971
 20
-0.840132
 30
0.0
 11
-5.261971
 21
-0.724695
 31
0.0
  0
LINE
  5
43
100
AcDbEntity
  8
0
  6
CONTINUOUS
 62
     7
100
AcDbLine
 10
-5.261971
 20
-0.301456
 30
0.0
 11
-5.261971
 21
-0.186014
 31
0.0
  0
LINE
  5
44
100
AcDbEntity
  8
0
  6
CONTINUOUS
 62
     7
100
AcDbLine
 10
-5.304041
 20
-0.186014
 30
0.0
 11
-5.304041
 21
-0.301456
 31
0.0
  0
LINE
  5
45
100
AcDbEntity
  8
0
  6
CONTINUOUS
 62
     7
100
AcDbLine
 10
-5.304041
 20
-0.724695
 30
0.0
 11
-5.304041
 21
-0.840132
 31
0.0
  0
LINE
  5
46
100
AcDbEntity
  8
0
  6
CONTINUOUS
 62
     7
100
AcDbLine
 10
-5.346121
 20
-0.840132
 30
0.0
 11
-5.346121
 21
-0.724695
 31
0.0
  0
LINE
  5
47
100
AcDbEntity
  8
0
  6
CONTINUOUS
 62
     7
100
AcDbLine
 10
-5.346121
 20
-0.301456
 30
0.0
 11
-5.346121
 21
-0.186014
 31
0.0
  0
LINE
  5
48
100
AcDbEntity
  8
0
  6
CONTINUOUS
 62
     7
100
AcDbLine
 10
-5.388191
 20
-0.187241
 30
0.0
 11
-5.388191
 21
-0.306694
 31
0.0
  0
LINE
  5
49
100
AcDbEntity
  8
0
  6
CONTINUOUS
 62
     7
100
AcDbLine
 10
-5.388191
 20
-0.719446
 30
0.0
 11
-5.388191
 21
-0.838903
 31
0.0
  0
LINE
  5
4A
100
AcDbEntity
  8
0
  6
CONTINUOUS
 62
     7
100
AcDbLine
 10
-5.43028
 20
-0.827322
 30
0.0
 11
-5.43028
 21
-0.19883
 31
0.0
  0
LINE
  5
4B
100
AcDbEntity
  8
0
  6
CONTINUOUS
 62
     7
100
AcDbLine
 10
-5.47237
 20
-0.226059
 30
0.0
 11
-5.47237
 21
-0.800076
 31
0.0
  0
LINE
  5
4C
100
AcDbEntity
  8
0
  6
CONTINUOUS
 62
     7
100
AcDbLine
 10
-5.51445
 20
-0.736031
 30
0.0
 11
-5.51445
 21
-0.290071
 31
0.0
  0
LWPOLYLINE
  5
4D
100
AcDbEntity
  8
0
  6
CONTINUOUS
 62
     7
100
AcDbPolyline
 90
       14
 70
   129
 43
0.0
 10
-6.444588
 20
-1.051706
 42
-0.200808
 10
-6.439001
 20
-1.038146
 42
-0.098683
 10
-6.432749
 20
-1.033989
 42
-0.097926
 10
-6.425354
 20
-1.032529
 10
8.225342
 20
-1.032529
 42
-0.199134
 10
8.238079
 20
-1.037814
 42
-0.198689
 10
8.243355
 20
-1.050573
 10
8.243355
 20
-1.091461
 42
-0.196933
 10
8.238036
 20
-1.104249
 42
-0.098339
 10
8.232204
 20
-1.108169
 42
-0.099142
 10
8.225342
 20
-1.109545
 10
-6.425354
 20
-1.109545
 42
-0.199686
 10
-6.438954
 20
-1.103878
 42
-0.198135
 10
-6.444588
 20
-1.090197
  0
LINE
  5
4E
100
AcDbEntity
  8
0
  6
CONTINUOUS
 62
     7
100
AcDbLine
 10
-6.44453
 20
-1.091763
 30
0.0
 11
8.243355
 21
-1.091763
 31
0.0
  0
LINE
  5
4F
100
AcDbEntity
  8
0
  6
CONTINUOUS
 62
     7
100
AcDbLine
 10
8.243355
 20
-1.055735
 30
0.0
 11
-6.444588
 21
-1.055735
 31
0.0
  0
LWPOLYLINE
  5
50
100
AcDbEntity
  8
0
  6
CONTINUOUS
 62
     7
100
AcDbPolyline
 90
       32
 70
   129
 43
0.0
 10
7.756069
 20
-0.565123
 42
-0.196195
 10
7.761685
 20
-0.578901
 10
7.761685
 20
-0.82089
 42
0.199759
 10
7.767373
 20
-0.834533
 42
0.198058
 10
7.781105
 20
-0.840183
 10
7.858063
 20
-0.840183
 42
0.099524
 10
7.865361
 20
-0.838715
 42
0.098914
 10
7.871548
 20
-0.834533
 42
0.197419
 10
7.877134
 20
-0.82089
 10
7.877134
 20
-0.578901
 42
-0.000302
 10
7.877125
 20
-0.565123
 10
8.237858
 20
-0.219021
 42
0.304686
 10
8.242201
 20
-0.198034
 42
0.304943
 10
8.224434
 20
-0.186069
 10
8.114228
 20
-0.186069
 42
0.026102
 10
8.112439
 20
-0.186162
 42
0.032383
 10
8.110854
 20
-0.18643
 42
0.040523
 10
8.109487
 20
-0.186873
 10
8.10889
 20
-0.187157
 10
8.108351
 20
-0.187484
 42
0.059464
 10
8.107456
 20
-0.188259
 42
0.064817
 10
8.106811
 20
-0.18919
 42
0.063275
 10
8.106421
 20
-0.190268
 10
8.106324
 20
-0.19086
 10
8.106291
 20
-0.191484
 10
7.832466
 20
-0.453274
 42
-0.42128
 10
7.806637
 20
-0.453274
 10
7.538379
 20
-0.191484
 10
7.534152
 20
-0.187456
 10
7.53267
 20
-0.186033
 10
7.414742
 20
-0.186033
 42
0.672929
 10
7.401314
 20
-0.219034
  0
LINE
  5
51
100
AcDbEntity
  8
0
  6
CONTINUOUS
 62
     7
100
AcDbLine
 10
8.202805
 20
-0.253193
 30
0.0
 11
8.202805
 21
-0.186052
 31
0.0
  0
LINE
  5
52
100
AcDbEntity
  8
0
  6
CONTINUOUS
 62
     7
100
AcDbLine
 10
8.160732
 20
-0.186052
 30
0.0
 11
8.160732
 21
-0.294243
 31
0.0
  0
LINE
  5
53
100
AcDbEntity
  8
0
  6
CONTINUOUS
 62
     7
100
AcDbLine
 10
8.118645
 20
-0.335295
 30
0.0
 11
8.118645
 21
-0.186052
 31
0.0
  0
LINE
  5
54
100
AcDbEntity
  8
0
  6
CONTINUOUS
 62
     7
100
AcDbLine
 10
8.076561
 20
-0.215075
 30
0.0
 11
8.076561
 21
-0.376347
 31
0.0
  0
LINE
  5
55
100
AcDbEntity
  8
0
  6
CONTINUOUS
 62
     7
100
AcDbLine
 10
8.034493
 20
-0.417385
 30
0.0
 11
8.034493
 21
-0.256126
 31
0.0
  0
LINE
  5
56
100
AcDbEntity
  8
0
  6
CONTINUOUS
 62
     7
100
AcDbLine
 10
7.992382
 20
-0.297176
 30
0.0
 11
7.992382
 21
-0.458448
 31
0.0
  0
LINE
  5
57
100
AcDbEntity
  8
0
  6
CONTINUOUS
 62
     7
100
AcDbLine
 10
7.950313
 20
-0.499498
 30
0.0
 11
7.950313
 21
-0.338228
 31
0.0
  0
LINE
  5
58
100
AcDbEntity
  8
0
  6
CONTINUOUS
 62
     7
100
AcDbLine
 10
7.908234
 20
-0.379278
 30
0.0
 11
7.908234
 21
-0.540556
 31
0.0
  0
LINE
  5
59
100
AcDbEntity
  8
0
  6
CONTINUOUS
 62
     7
100
AcDbLine
 10
7.866146
 20
-0.83835
 30
0.0
 11
7.866146
 21
-0.42033
 31
0.0
  0
LINE
  5
5A
100
AcDbEntity
  8
0
  6
CONTINUOUS
 62
     7
100
AcDbLine
 10
7.824074
 20
-0.458128
 30
0.0
 11
7.824074
 21
-0.84017
 31
0.0
  0
LINE
  5
5B
100
AcDbEntity
  8
0
  6
CONTINUOUS
 62
     7
100
AcDbLine
 10
7.78199
 20
-0.84017
 30
0.0
 11
7.78199
 21
-0.429312
 31
0.0
  0
LINE
  5
5C
100
AcDbEntity
  8
0
  6
CONTINUOUS
 62
     7
100
AcDbLine
 10
7.739922
 20
-0.388243
 30
0.0
 11
7.739922
 21
-0.549463
 31
0.0
  0
LINE
  5
5D
100
AcDbEntity
  8
0
  6
CONTINUOUS
 62
     7
100
AcDbLine
 10
7.697811
 20
-0.508411
 30
0.0
 11
7.697811
 21
-0.347178
 31
0.0
  0
LINE
  5
5E
100
AcDbEntity
  8
0
  6
CONTINUOUS
 62
     7
100
AcDbLine
 10
7.655742
 20
-0.306128
 30
0.0
 11
7.655742
 21
-0.467361
 31
0.0
  0
LINE
  5
5F
100
AcDbEntity
  8
0
  6
CONTINUOUS
 62
     7
100
AcDbLine
 10
7.613663
 20
-0.42631
 30
0.0
 11
7.613663
 21
-0.265057
 31
0.0
  0
LINE
  5
60
100
AcDbEntity
  8
0
  6
CONTINUOUS
 62
     7
100
AcDbLine
 10
7.571575
 20
-0.223988
 30
0.0
 11
7.571575
 21
-0.385258
 31
0.0
  0
LINE
  5
61
100
AcDbEntity
  8
0
  6
CONTINUOUS
 62
     7
100
AcDbLine
 10
7.529503
 20
-0.344194
 30
0.0
 11
7.529503
 21
-0.186619
 31
0.0
  0
LINE
  5
62
100
AcDbEntity
  8
0
  6
CONTINUOUS
 62
     7
100
AcDbLine
 10
7.487419
 20
-0.186033
 30
0.0
 11
7.487419
 21
-0.303156
 31
0.0
  0
LINE
  5
63
100
AcDbEntity
  8
0
  6
CONTINUOUS
 62
     7
100
AcDbLine
 10
7.445351
 20
-0.262106
 30
0.0
 11
7.445351
 21
-0.186033
 31
0.0
  0
LINE
  5
64
100
AcDbEntity
  8
0
  6
CONTINUOUS
 62
     7
100
AcDbLine
 10
7.403271
 20
-0.189772
 30
0.0
 11
7.403271
 21
-0.221041
 31
0.0
  0
LWPOLYLINE
  5
65
100
AcDbEntity
  8
0
  6
CONTINUOUS
 62
     7
100
AcDbPolyline
 90
       50
 70
   129
 43
0.0
 10
7.099693
 20
-0.20525
 42
-0.201328
 10
7.105263
 20
-0.191683
 42
-0.098817
 10
7.111519
 20
-0.187525
 42
-0.097853
 10
7.118927
 20
-0.186064
 10
7.19587
 20
-0.186064
 42
-0.199225
 10
7.209384
 20
-0.191689
 42
-0.198418
 10
7.214982
 20
-0.20525
 10
7.214982
 20
-0.82089
 42
-0.197477
 10
7.209377
 20
-0.834533
 42
-0.200133
 10
7.19587
 20
-0.840183
 10
7.068707
 20
-0.840183
 42
-0.025621
 10
7.066981
 20
-0.840098
 42
-0.031939
 10
7.065454
 20
-0.839846
 42
-0.040183
 10
7.06414
 20
-0.83943
 10
7.063565
 20
-0.839161
 10
7.063048
 20
-0.838852
 10
7.062589
 20
-0.838505
 10
7.062189
 20
-0.838119
 42
-0.06536
 10
7.06157
 20
-0.837236
 42
-0.063885
 10
7.061197
 20
-0.836211
 10
7.061103
 20
-0.835648
 10
7.061072
 20
-0.835052
 10
6.516304
 20
-0.339676
 42
0.145077
 10
6.506378
 20
-0.33488
 42
0.144593
 10
6.495421
 20
-0.336253
 42
0.145334
 10
6.486997
 20
-0.343348
 42
0.146426
 10
6.483848
 20
-0.353857
 10
6.483848
 20
-0.82089
 42
-0.097783
 10
6.482418
 20
-0.828273
 42
-0.09845
 10
6.478297
 20
-0.834533
 42
-0.200587
 10
6.464802
 20
-0.840183
 10
6.387871
 20
-0.840183
 42
-0.198356
 10
6.37417
 20
-0.834533
 42
-0.199465
 10
6.368495
 20
-0.82089
 10
6.368495
 20
-0.20525
 42
-0.200189
 10
6.37417
 20
-0.191683
 42
-0.197632
 10
6.387871
 20
-0.186064
 10
6.515049
 20
-0.186064
 42
-0.026006
 10
6.516715
 20
-0.186146
 42
-0.032398
 10
6.518189
 20
-0.186392
 42
-0.040686
 10
6.519459
 20
-0.1868
 10
6.520014
 20
-0.187063
 10
6.520513
 20
-0.187365
 42
-0.059852
 10
6.521343
 20
-0.188083
 42
-0.065063
 10
6.52194
 20
-0.188948
 42
-0.063191
 10
6.522301
 20
-0.189953
 10
6.522391
 20
-0.190504
 10
6.522422
 20
-0.191088
 10
7.067433
 20
-0.686476
 42
0.653089
 10
7.099693
 20
-0.672314
  0
LINE
  5
66
100
AcDbEntity
  8
0
  6
CONTINUOUS
 62
     7
100
AcDbLine
 10
7.192963
 20
-0.186045
 30
0.0
 11
7.192963
 21
-0.84017
 31
0.0
  0
LINE
  5
67
100
AcDbEntity
  8
0
  6
CONTINUOUS
 62
     7
100
AcDbLine
 10
7.150894
 20
-0.84017
 30
0.0
 11
7.150894
 21
-0.186045
 31
0.0
  0
LINE
  5
68
100
AcDbEntity
  8
0
  6
CONTINUOUS
 62
     7
100
AcDbLine
 10
7.108807
 20
-0.188896
 30
0.0
 11
7.108807
 21
-0.84017
 31
0.0
  0
LINE
  5
69
100
AcDbEntity
  8
0
  6
CONTINUOUS
 62
     7
100
AcDbLine
 10
7.066712
 20
-0.840069
 30
0.0
 11
7.066712
 21
-0.685871
 31
0.0
  0
LINE
  5
6A
100
AcDbEntity
  8
0
  6
CONTINUOUS
 62
     7
100
AcDbLine
 10
7.024635
 20
-0.647224
 30
0.0
 11
7.024635
 21
-0.806589
 31
0.0
  0
LINE
  5
6B
100
AcDbEntity
  8
0
  6
CONTINUOUS
 62
     7
100
AcDbLine
 10
6.982563
 20
-0.767942
 30
0.0
 11
6.982563
 21
-0.608572
 31
0.0
  0
LINE
  5
6C
100
AcDbEntity
  8
0
  6
CONTINUOUS
 62
     7
100
AcDbLine
 10
6.940483
 20
-0.569939
 30
0.0
 11
6.940483
 21
-0.729301
 31
0.0
  0
LINE
  5
6D
100
AcDbEntity
  8
0
  6
CONTINUOUS
 62
     7
100
AcDbLine
 10
6.898414
 20
-0.690655
 30
0.0
 11
6.898414
 21
-0.531284
 31
0.0
  0
LINE
  5
6E
100
AcDbEntity
  8
0
  6
CONTINUOUS
 62
     7
100
AcDbLine
 10
6.856334
 20
-0.492645
 30
0.0
 11
6.856334
 21
-0.652021
 31
0.0
  0
LINE
  5
6F
100
AcDbEntity
  8
0
  6
CONTINUOUS
 62
     7
100
AcDbLine
 10
6.814244
 20
-0.613361
 30
0.0
 11
6.814244
 21
-0.453999
 31
0.0
  0
LINE
  5
70
100
AcDbEntity
  8
0
  6
CONTINUOUS
 62
     7
100
AcDbLine
 10
6.772156
 20
-0.415344
 30
0.0
 11
6.772156
 21
-0.574728
 31
0.0
  0
LINE
  5
71
100
AcDbEntity
  8
0
  6
CONTINUOUS
 62
     7
100
AcDbLine
 10
6.730084
 20
-0.536076
 30
0.0
 11
6.730084
 21
-0.376705
 31
0.0
  0
LINE
  5
72
100
AcDbEntity
  8
0
  6
CONTINUOUS
 62
     7
100
AcDbLine
 10
6.688004
 20
-0.338058
 30
0.0
 11
6.688004
 21
-0.497429
 31
0.0
  0
LINE
  5
73
100
AcDbEntity
  8
0
  6
CONTINUOUS
 62
     7
100
AcDbLine
 10
6.645931
 20
-0.458788
 30
0.0
 11
6.645931
 21
-0.299418
 31
0.0
  0
LINE
  5
74
100
AcDbEntity
  8
0
  6
CONTINUOUS
 62
     7
100
AcDbLine
 10
6.603844
 20
-0.260771
 30
0.0
 11
6.603844
 21
-0.420141
 31
0.0
  0
LINE
  5
75
100
AcDbEntity
  8
0
  6
CONTINUOUS
 62
     7
100
AcDbLine
 10
6.561763
 20
-0.3815
 30
0.0
 11
6.561763
 21
-0.222118
 31
0.0
  0
LINE
  5
76
100
AcDbEntity
  8
0
  6
CONTINUOUS
 62
     7
100
AcDbLine
 10
6.519691
 20
-0.18663
 30
0.0
 11
6.519691
 21
-0.342848
 31
0.0
  0
LINE
  5
77
100
AcDbEntity
  8
0
  6
CONTINUOUS
 62
     7
100
AcDbLine
 10
6.477611
 20
-0.835222
 30
0.0
 11
6.477611
 21
-0.186045
 31
0.0
  0
LINE
  5
78
100
AcDbEntity
  8
0
  6
CONTINUOUS
 62
     7
100
AcDbLine
 10
6.435539
 20
-0.186045
 30
0.0
 11
6.435539
 21
-0.84017
 31
0.0
  0
LINE
  5
79
100
AcDbEntity
  8
0
  6
CONTINUOUS
 62
     7
100
AcDbLine
 10
6.393452
 20
-0.84017
 30
0.0
 11
6.393452
 21
-0.186045
 31
0.0
  0
LWPOLYLINE
  5
7A
100
AcDbEntity
  8
0
  6
CONTINUOUS
 62
     7
100
AcDbPolyline
 90
       53
 70
   129
 43
0.0
 10
4.272854
 20
-0.820871
 42
0.200163
 10
4.278433
 20
-0.834527
 42
0.199439
 10
4.292088
 20
-0.840183
 10
4.369053
 20
-0.840183
 42
0.200133
 10
4.382568
 20
-0.834533
 42
0.197691
 10
4.388166
 20
-0.82089
 10
4.388166
 20
-0.205236
 42
0.198558
 10
4.382565
 20
-0.19168
 42
0.199265
 10
4.369045
 20
-0.186064
 10
4.244163
 20
-0.186064
 42
0.031263
 10
4.241967
 20
-0.186201
 42
0.03752
 10
4.239999
 20
-0.186597
 42
0.044963
 10
4.238285
 20
-0.187249
 42
0.052655
 10
4.236849
 20
-0.188147
 42
0.058565
 10
4.235711
 20
-0.189278
 42
0.060292
 10
4.234887
 20
-0.190627
 42
0.056989
 10
4.234388
 20
-0.192175
 42
0.050217
 10
4.234221
 20
-0.193901
 10
3.884388
 20
-0.664957
 42
-0.11737
 10
3.877529
 20
-0.670776
 42
-0.117966
 10
3.868805
 20
-0.672867
 42
-0.240739
 10
3.853317
 20
-0.664957
 10
3.509075
 20
-0.193888
 42
0.115246
 10
3.502195
 20
-0.188131
 42
0.117226
 10
3.493545
 20
-0.186062
 10
3.368664
 20
-0.186062
 42
0.197338
 10
3.354962
 20
-0.191685
 42
0.098834
 10
3.350761
 20
-0.197903
 42
0.099476
 10
3.349286
 20
-0.205236
 10
3.349286
 20
-0.820866
 42
0.19933
 10
3.354962
 20
-0.834523
 42
0.198495
 10
3.368664
 20
-0.840181
 10
3.445602
 20
-0.840181
 42
0.20007
 10
3.459122
 20
-0.834531
 42
0.197756
 10
3.464722
 20
-0.82089
 10
3.464722
 20
-0.387928
 42
-0.158655
 10
3.468402
 20
-0.37664
 42
-0.157919
 10
3.478036
 20
-0.369651
 42
-0.157583
 10
3.489952
 20
-0.369625
 42
-0.158107
 10
3.499607
 20
-0.376572
 10
3.832584
 20
-0.832232
 42
0.121214
 10
3.839334
 20
-0.838078
 42
0.118857
 10
3.848107
 20
-0.840179
 10
3.88958
 20
-0.840179
 42
0.032804
 10
3.891709
 20
-0.840046
 42
0.039254
 10
3.893618
 20
-0.839648
 42
0.04666
 10
3.895279
 20
-0.838989
 42
0.053842
 10
3.896672
 20
-0.83808
 42
0.118153
 10
3.898574
 20
-0.835562
 42
0.054885
 10
3.899058
 20
-0.833988
 42
0.047931
 10
3.89922
 20
-0.832232
 10
4.238083
 20
-0.376572
 42
-0.725453
 10
4.272854
 20
-0.387928
  0
LINE
  5
7B
100
AcDbEntity
  8
0
  6
CONTINUOUS
 62
     7
100
AcDbLine
 10
4.373783
 20
-0.186638
 30
0.0
 11
4.373783
 21
-0.83956
 31
0.0
  0
LINE
  5
7C
100
AcDbEntity
  8
0
  6
CONTINUOUS
 62
     7
100
AcDbLine
 10
4.331696
 20
-0.840162
 30
0.0
 11
4.331696
 21
-0.186033
 31
0.0
  0
LINE
  5
7D
100
AcDbEntity
  8
0
  6
CONTINUOUS
 62
     7
100
AcDbLine
 10
4.289604
 20
-0.186033
 30
0.0
 11
4.289604
 21
-0.840012
 31
0.0
  0
LINE
  5
7E
100
AcDbEntity
  8
0
  6
CONTINUOUS
 62
     7
100
AcDbLine
 10
4.247532
 20
-0.369667
 30
0.0
 11
4.247532
 21
-0.186033
 31
0.0
  0
LINE
  5
7F
100
AcDbEntity
  8
0
  6
CONTINUOUS
 62
     7
100
AcDbLine
 10
4.205452
 20
-0.225536
 30
0.0
 11
4.205452
 21
-0.421173
 31
0.0
  0
LINE
  5
80
100
AcDbEntity
  8
0
  6
CONTINUOUS
 62
     7
100
AcDbLine
 10
4.16338
 20
-0.478754
 30
0.0
 11
4.16338
 21
-0.28311
 31
0.0
  0
LINE
  5
81
100
AcDbEntity
  8
0
  6
CONTINUOUS
 62
     7
100
AcDbLine
 10
4.121292
 20
-0.340702
 30
0.0
 11
4.121292
 21
-0.536327
 31
0.0
  0
LINE
  5
82
100
AcDbEntity
  8
0
  6
CONTINUOUS
 62
     7
100
AcDbLine
 10
4.079212
 20
-0.593912
 30
0.0
 11
4.079212
 21
-0.398275
 31
0.0
  0
LINE
  5
83
100
AcDbEntity
  8
0
  6
CONTINUOUS
 62
     7
100
AcDbLine
 10
4.03714
 20
-0.455862
 30
0.0
 11
4.03714
 21
-0.651487
 31
0.0
  0
LINE
  5
84
100
AcDbEntity
  8
0
  6
CONTINUOUS
 62
     7
100
AcDbLine
 10
3.99506
 20
-0.709066
 30
0.0
 11
3.99506
 21
-0.513435
 31
0.0
  0
LINE
  5
85
100
AcDbEntity
  8
0
  6
CONTINUOUS
 62
     7
100
AcDbLine
 10
3.952991
 20
-0.571014
 30
0.0
 11
3.952991
 21
-0.766653
 31
0.0
  0
LINE
  5
86
100
AcDbEntity
  8
0
  6
CONTINUOUS
 62
     7
100
AcDbLine
 10
3.9109
 20
-0.824226
 30
0.0
 11
3.9109
 21
-0.628601
 31
0.0
  0
LINE
  5
87
100
AcDbEntity
  8
0
  6
CONTINUOUS
 62
     7
100
AcDbLine
 10
3.868809
 20
-0.672869
 30
0.0
 11
3.868809
 21
-0.840151
 31
0.0
  0
LINE
  5
88
100
AcDbEntity
  8
0
  6
CONTINUOUS
 62
     7
100
AcDbLine
 10
3.826732
 20
-0.824339
 30
0.0
 11
3.826732
 21
-0.628683
 31
0.0
  0
LINE
  5
89
100
AcDbEntity
  8
0
  6
CONTINUOUS
 62
     7
100
AcDbLine
 10
3.78466
 20
-0.571102
 30
0.0
 11
3.78466
 21
-0.766752
 31
0.0
  0
LINE
  5
8A
100
AcDbEntity
  8
0
  6
CONTINUOUS
 62
     7
100
AcDbLine
 10
3.74258
 20
-0.709173
 30
0.0
 11
3.74258
 21
-0.513517
 31
0.0
  0
LINE
  5
8B
100
AcDbEntity
  8
0
  6
CONTINUOUS
 62
     7
100
AcDbLine
 10
3.700508
 20
-0.455936
 30
0.0
 11
3.700508
 21
-0.651587
 31
0.0
  0
LINE
  5
8C
100
AcDbEntity
  8
0
  6
CONTINUOUS
 62
     7
100
AcDbLine
 10
3.658428
 20
-0.594013
 30
0.0
 11
3.658428
 21
-0.398363
 31
0.0
  0
LINE
  5
8D
100
AcDbEntity
  8
0
  6
CONTINUOUS
 62
     7
100
AcDbLine
 10
3.616341
 20
-0.340776
 30
0.0
 11
3.616341
 21
-0.536434
 31
0.0
  0
LINE
  5
8E
100
AcDbEntity
  8
0
  6
CONTINUOUS
 62
     7
100
AcDbLine
 10
3.574249
 20
-0.478842
 30
0.0
 11
3.574249
 21
-0.283203
 31
0.0
  0
LINE
  5
8F
100
AcDbEntity
  8
0
  6
CONTINUOUS
 62
     7
100
AcDbLine
 10
3.532181
 20
-0.225611
 30
0.0
 11
3.532181
 21
-0.421268
 31
0.0
  0
LINE
  5
90
100
AcDbEntity
  8
0
  6
CONTINUOUS
 62
     7
100
AcDbLine
 10
3.490097
 20
-0.369699
 30
0.0
 11
3.490097
 21
-0.186033
 31
0.0
  0
LINE
  5
91
100
AcDbEntity
  8
0
  6
CONTINUOUS
 62
     7
100
AcDbLine
 10
3.448029
 20
-0.186033
 30
0.0
 11
3.448029
 21
-0.84
 31
0.0
  0
LINE
  5
92
100
AcDbEntity
  8
0
  6
CONTINUOUS
 62
     7
100
AcDbLine
 10
3.405949
 20
-0.840151
 30
0.0
 11
3.405949
 21
-0.186033
 31
0.0
  0
LINE
  5
93
100
AcDbEntity
  8
0
  6
CONTINUOUS
 62
     7
100
AcDbLine
 10
3.363876
 20
-0.18663
 30
0.0
 11
3.363876
 21
-0.839584
 31
0.0
  0
LWPOLYLINE
  5
94
100
AcDbEntity
  8
0
  6
CONTINUOUS
 62
     7
100
AcDbPolyline
 90
       31
 70
   129
 43
0.0
 10
1.524818
 20
-0.518616
 10
1.524818
 20
-0.339909
 42
-0.19989
 10
1.536039
 20
-0.312741
 42
-0.198727
 10
1.563293
 20
-0.301488
 10
2.025024
 20
-0.301488
 42
-0.199067
 10
2.05214
 20
-0.312747
 42
-0.198667
 10
2.063372
 20
-0.339909
 42
0.199288
 10
2.069042
 20
-0.353557
 42
0.198536
 10
2.082729
 20
-0.35921
 10
2.159687
 20
-0.35921
 42
0.199959
 10
2.173216
 20
-0.353561
 42
0.197866
 10
2.178821
 20
-0.339922
 42
0.414265
 10
2.025024
 20
-0.186064
 10
1.563293
 20
-0.186064
 42
0.198781
 10
1.454389
 20
-0.231128
 42
0.199044
 10
1.40928
 20
-0.339922
 10
1.40928
 20
-0.686193
 42
0.414214
 10
1.563293
 20
-0.840181
 10
2.025024
 20
-0.840181
 42
0.199069
 10
2.133775
 20
-0.79508
 42
0.198756
 10
2.178821
 20
-0.686199
 42
0.198335
 10
2.173205
 20
-0.672648
 42
0.199124
 10
2.159687
 20
-0.667035
 10
2.082729
 20
-0.667035
 42
0.197611
 10
2.069042
 20
-0.672648
 42
0.200214
 10
2.063372
 20
-0.686199
 42
-0.198268
 10
2.05214
 20
-0.71345
 42
-0.199557
 10
2.025024
 20
-0.724737
 10
1.563293
 20
-0.724737
 42
-0.198731
 10
1.536005
 20
-0.71345
 42
-0.199094
 10
1.524701
 20
-0.686199
  0
LINE
  5
95
100
AcDbEntity
  8
0
  6
CONTINUOUS
 62
     7
100
AcDbLine
 10
2.143673
 20
-0.241957
 30
0.0
 11
2.143673
 21
-0.359188
 31
0.0
  0
LINE
  5
96
100
AcDbEntity
  8
0
  6
CONTINUOUS
 62
     7
100
AcDbLine
 10
2.143673
 20
-0.667007
 30
0.0
 11
2.143673
 21
-0.78422
 31
0.0
  0
LINE
  5
97
100
AcDbEntity
  8
0
  6
CONTINUOUS
 62
     7
100
AcDbLine
 10
2.101593
 20
-0.819733
 30
0.0
 11
2.101593
 21
-0.667007
 31
0.0
  0
LINE
  5
98
100
AcDbEntity
  8
0
  6
CONTINUOUS
 62
     7
100
AcDbLine
 10
2.101593
 20
-0.359188
 30
0.0
 11
2.101593
 21
-0.206457
 31
0.0
  0
LINE
  5
99
100
AcDbEntity
  8
0
  6
CONTINUOUS
 62
     7
100
AcDbLine
 10
2.059521
 20
-0.189974
 30
0.0
 11
2.059521
 21
-0.322971
 31
0.0
  0
LINE
  5
9A
100
AcDbEntity
  8
0
  6
CONTINUOUS
 62
     7
100
AcDbLine
 10
2.059521
 20
-0.703175
 30
0.0
 11
2.059521
 21
-0.836235
 31
0.0
  0
LINE
  5
9B
100
AcDbEntity
  8
0
  6
CONTINUOUS
 62
     7
100
AcDbLine
 10
2.017433
 20
-0.840151
 30
0.0
 11
2.017433
 21
-0.72472
 31
0.0
  0
LINE
  5
9C
100
AcDbEntity
  8
0
  6
CONTINUOUS
 62
     7
100
AcDbLine
 10
2.017433
 20
-0.301476
 30
0.0
 11
2.017433
 21
-0.186045
 31
0.0
  0
LINE
  5
9D
100
AcDbEntity
  8
0
  6
CONTINUOUS
 62
     7
100
AcDbLine
 10
1.975353
 20
-0.186045
 30
0.0
 11
1.975353
 21
-0.301476
 31
0.0
  0
LINE
  5
9E
100
AcDbEntity
  8
0
  6
CONTINUOUS
 62
     7
100
AcDbLine
 10
1.975353
 20
-0.72472
 30
0.0
 11
1.975353
 21
-0.840151
 31
0.0
  0
LINE
  5
9F
100
AcDbEntity
  8
0
  6
CONTINUOUS
 62
     7
100
AcDbLine
 10
1.933281
 20
-0.840151
 30
0.0
 11
1.933281
 21
-0.72472
 31
0.0
  0
LINE
  5
A0
100
AcDbEntity
  8
0
  6
CONTINUOUS
 62
     7
100
AcDbLine
 10
1.933281
 20
-0.301476
 30
0.0
 11
1.933281
 21
-0.186045
 31
0.0
  0
LINE
  5
A1
100
AcDbEntity
  8
0
  6
CONTINUOUS
 62
     7
100
AcDbLine
 10
1.891201
 20
-0.186045
 30
0.0
 11
1.891201
 21
-0.301476
 31
0.0
  0
LINE
  5
A2
100
AcDbEntity
  8
0
  6
CONTINUOUS
 62
     7
100
AcDbLine
 10
1.891201
 20
-0.72472
 30
0.0
 11
1.891201
 21
-0.840151
 31
0.0
  0
LINE
  5
A3
100
AcDbEntity
  8
0
  6
CONTINUOUS
 62
     7
100
AcDbLine
 10
1.84911
 20
-0.840151
 30
0.0
 11
1.84911
 21
-0.72472
 31
0.0
  0
LINE
  5
A4
100
AcDbEntity
  8
0
  6
CONTINUOUS
 62
     7
100
AcDbLine
 10
1.84911
 20
-0.301476
 30
0.0
 11
1.84911
 21
-0.186045
 31
0.0
  0
LINE
  5
A5
100
AcDbEntity
  8
0
  6
CONTINUOUS
 62
     7
100
AcDbLine
 10
1.807022
 20
-0.186045
 30
0.0
 11
1.807022
 21
-0.301464
 31
0.0
  0
LINE
  5
A6
100
AcDbEntity
  8
0
  6
CONTINUOUS
 62
     7
100
AcDbLine
 10
1.807022
 20
-0.72472
 30
0.0
 11
1.807022
 21
-0.840151
 31
0.0
  0
LINE
  5
A7
100
AcDbEntity
  8
0
  6
CONTINUOUS
 62
     7
100
AcDbLine
 10
1.76495
 20
-0.840151
 30
0.0
 11
1.76495
 21
-0.72472
 31
0.0
  0
LINE
  5
A8
100
AcDbEntity
  8
0
  6
CONTINUOUS
 62
     7
100
AcDbLine
 10
1.76495
 20
-0.301464
 30
0.0
 11
1.76495
 21
-0.186045
 31
0.0
  0
LINE
  5
A9
100
AcDbEntity
  8
0
  6
CONTINUOUS
 62
     7
100
AcDbLine
 10
1.722874
 20
-0.186045
 30
0.0
 11
1.722874
 21
-0.301464
 31
0.0
  0
LINE
  5
AA
100
AcDbEntity
  8
0
  6
CONTINUOUS
 62
     7
100
AcDbLine
 10
1.722874
 20
-0.72472
 30
0.0
 11
1.722874
 21
-0.840151
 31
0.0
  0
LINE
  5
AB
100
AcDbEntity
  8
0
  6
CONTINUOUS
 62
     7
100
AcDbLine
 10
1.680801
 20
-0.840151
 30
0.0
 11
1.680801
 21
-0.72472
 31
0.0
  0
LINE
  5
AC
100
AcDbEntity
  8
0
  6
CONTINUOUS
 62
     7
100
AcDbLine
 10
1.680801
 20
-0.301464
 30
0.0
 11
1.680801
 21
-0.186045
 31
0.0
  0
LINE
  5
AD
100
AcDbEntity
  8
0
  6
CONTINUOUS
 62
     7
100
AcDbLine
 10
1.638721
 20
-0.186045
 30
0.0
 11
1.638721
 21
-0.301464
 31
0.0
  0
LINE
  5
AE
100
AcDbEntity
  8
0
  6
CONTINUOUS
 62
     7
100
AcDbLine
 10
1.638721
 20
-0.72472
 30
0.0
 11
1.638721
 21
-0.840151
 31
0.0
  0
LINE
  5
AF
100
AcDbEntity
  8
0
  6
CONTINUOUS
 62
     7
100
AcDbLine
 10
1.59663
 20
-0.840151
 30
0.0
 11
1.59663
 21
-0.72472
 31
0.0
  0
LINE
  5
B0
100
AcDbEntity
  8
0
  6
CONTINUOUS
 62
     7
100
AcDbLine
 10
1.59663
 20
-0.301464
 30
0.0
 11
1.59663
 21
-0.186045
 31
0.0
  0
LINE
  5
B1
100
AcDbEntity
  8
0
  6
CONTINUOUS
 62
     7
100
AcDbLine
 10
1.554558
 20
-0.186291
 30
0.0
 11
1.554558
 21
-0.302464
 31
0.0
  0
LINE
  5
B2
100
AcDbEntity
  8
0
  6
CONTINUOUS
 62
     7
100
AcDbLine
 10
1.554558
 20
-0.723732
 30
0.0
 11
1.554558
 21
-0.839918
 31
0.0
  0
LINE
  5
B3
100
AcDbEntity
  8
0
  6
CONTINUOUS
 62
     7
100
AcDbLine
 10
1.51247
 20
-0.831539
 30
0.0
 11
1.51247
 21
-0.194656
 31
0.0
  0
LINE
  5
B4
100
AcDbEntity
  8
0
  6
CONTINUOUS
 62
     7
100
AcDbLine
 10
1.47039
 20
-0.21719
 30
0.0
 11
1.47039
 21
-0.808994
 31
0.0
  0
LINE
  5
B5
100
AcDbEntity
  8
0
  6
CONTINUOUS
 62
     7
100
AcDbLine
 10
1.428318
 20
-0.760326
 30
0.0
 11
1.428318
 21
-0.26585
 31
0.0
  0
LWPOLYLINE
  5
B6
100
AcDbEntity
  8
0
  6
CONTINUOUS
 62
     7
100
AcDbPolyline
 90
       25
 70
   128
 43
0.0
 10
-0.108934
 20
-0.5158
 10
-0.108934
 20
-0.320662
 42
0.197803
 10
-0.114613
 20
-0.307104
 42
0.198515
 10
-0.128166
 20
-0.301488
 10
-0.205124
 20
-0.301488
 42
-0.198608
 10
-0.218811
 20
-0.295832
 42
-0.199217
 10
-0.224481
 20
-0.282177
 10
-0.224481
 20
-0.205217
 42
-0.200159
 10
-0.218811
 20
-0.191661
 42
-0.197667
 10
-0.205124
 20
-0.186045
 10
0.545181
 20
-0.186045
 42
-0.414242
 10
0.737452
 20
-0.378386
 10
0.737452
 20
-0.647717
 42
-0.198762
 10
0.681127
 20
-0.783809
 42
-0.199038
 10
0.545174
 20
-0.840181
 10
-0.205124
 20
-0.840181
 42
-0.198631
 10
-0.218811
 20
-0.834523
 42
-0.199194
 10
-0.224481
 20
-0.820866
 10
-0.224481
 20
-0.743917
 42
-0.200104
 10
-0.218811
 20
-0.730355
 42
-0.197721
 10
-0.205124
 20
-0.724737
 10
-0.128166
 20
-0.724737
 42
0.200196
 10
-0.114655
 20
-0.719085
 42
0.19763
 10
-0.109059
 20
-0.705441
 10
-0.109059
 20
-0.5158
  0
LWPOLYLINE
  5
B7
100
AcDbEntity
  8
0
  6
CONTINUOUS
 62
     7
100
AcDbPolyline
 90
       14
 70
   128
 43
0.0
 10
0.006504
 20
-0.5158
 10
0.006504
 20
-0.320662
 42
-0.201
 10
0.01209
 20
-0.307104
 42
-0.098683
 10
0.018345
 20
-0.302948
 42
-0.097851
 10
0.025745
 20
-0.301488
 10
0.545181
 20
-0.301488
 42
-0.414214
 10
0.622012
 20
-0.378386
 10
0.622012
 20
-0.647717
 42
-0.198603
 10
0.599506
 20
-0.702178
 42
-0.199221
 10
0.545174
 20
-0.724737
 10
0.025745
 20
-0.724737
 42
-0.198477
 10
0.012055
 20
-0.719085
 42
-0.199344
 10
0.006384
 20
-0.705441
 10
0.006384
 20
-0.5158
  0
LINE
  5
B8
100
AcDbEntity
  8
0
  6
CONTINUOUS
 62
     7
100
AcDbLine
 10
0.713051
 20
-0.28447
 30
0.0
 11
0.713051
 21
-0.741676
 31
0.0
  0
LINE
  5
B9
100
AcDbEntity
  8
0
  6
CONTINUOUS
 62
     7
100
AcDbLine
 10
0.670959
 20
-0.793303
 30
0.0
 11
0.670959
 21
-0.232862
 31
0.0
  0
LINE
  5
BA
100
AcDbEntity
  8
0
  6
CONTINUOUS
 62
     7
100
AcDbLine
 10
0.628872
 20
-0.205212
 30
0.0
 11
0.628872
 21
-0.820978
 31
0.0
  0
LINE
  5
BB
100
AcDbEntity
  8
0
  6
CONTINUOUS
 62
     7
100
AcDbLine
 10
0.586792
 20
-0.835581
 30
0.0
 11
0.586792
 21
-0.712465
 31
0.0
  0
LINE
  5
BC
100
AcDbEntity
  8
0
  6
CONTINUOUS
 62
     7
100
AcDbLine
 10
0.586792
 20
-0.313711
 30
0.0
 11
0.586792
 21
-0.190596
 31
0.0
  0
LINE
  5
BD
100
AcDbEntity
  8
0
  6
CONTINUOUS
 62
     7
100
AcDbLine
 10
0.54472
 20
-0.186028
 30
0.0
 11
0.54472
 21
-0.301464
 31
0.0
  0
LINE
  5
BE
100
AcDbEntity
  8
0
  6
CONTINUOUS
 62
     7
100
AcDbLine
 10
0.54472
 20
-0.724714
 30
0.0
 11
0.54472
 21
-0.840151
 31
0.0
  0
LINE
  5
BF
100
AcDbEntity
  8
0
  6
CONTINUOUS
 62
     7
100
AcDbLine
 10
0.50264
 20
-0.840151
 30
0.0
 11
0.50264
 21
-0.724714
 31
0.0
  0
LINE
  5
C0
100
AcDbEntity
  8
0
  6
CONTINUOUS
 62
     7
100
AcDbLine
 10
0.50264
 20
-0.301464
 30
0.0
 11
0.50264
 21
-0.186028
 31
0.0
  0
LINE
  5
C1
100
AcDbEntity
  8
0
  6
CONTINUOUS
 62
     7
100
AcDbLine
 10
0.460567
 20
-0.186028
 30
0.0
 11
0.460567
 21
-0.301464
 31
0.0
  0
LINE
  5
C2
100
AcDbEntity
  8
0
  6
CONTINUOUS
 62
     7
100
AcDbLine
 10
0.460567
 20
-0.724714
 30
0.0
 11
0.460567
 21
-0.840151
 31
0.0
  0
LINE
  5
C3
100
AcDbEntity
  8
0
  6
CONTINUOUS
 62
     7
100
AcDbLine
 10
0.41848
 20
-0.840151
 30
0.0
 11
0.41848
 21
-0.724714
 31
0.0
  0
LINE
  5
C4
100
AcDbEntity
  8
0
  6
CONTINUOUS
 62
     7
100
AcDbLine
 10
0.41848
 20
-0.301464
 30
0.0
 11
0.41848
 21
-0.186028
 31
0.0
  0
LINE
  5
C5
100
AcDbEntity
  8
0
  6
CONTINUOUS
 62
     7
100
AcDbLine
 10
0.3764
 20
-0.186028
 30
0.0
 11
0.3764
 21
-0.301464
 31
0.0
  0
LINE
  5
C6
100
AcDbEntity
  8
0
  6
CONTINUOUS
 62
     7
100
AcDbLine
 10
0.3764
 20
-0.724714
 30
0.0
 11
0.3764
 21
-0.840151
 31
0.0
  0
LINE
  5
C7
100
AcDbEntity
  8
0
  6
CONTINUOUS
 62
     7
100
AcDbLine
 10
0.334328
 20
-0.840151
 30
0.0
 11
0.334328
 21
-0.724714
 31
0.0
  0
LINE
  5
C8
100
AcDbEntity
  8
0
  6
CONTINUOUS
 62
     7
100
AcDbLine
 10
0.334328
 20
-0.301464
 30
0.0
 11
0.334328
 21
-0.186028
 31
0.0
  0
LINE
  5
C9
100
AcDbEntity
  8
0
  6
CONTINUOUS
 62
     7
100
AcDbLine
 10
0.292248
 20
-0.186028
 30
0.0
 11
0.292248
 21
-0.301464
 31
0.0
  0
LINE
  5
CA
100
AcDbEntity
  8
0
  6
CONTINUOUS
 62
     7
100
AcDbLine
 10
0.292248
 20
-0.724714
 30
0.0
 11
0.292248
 21
-0.840151
 31
0.0
  0
LINE
  5
CB
100
AcDbEntity
  8
0
  6
CONTINUOUS
 62
     7
100
AcDbLine
 10
0.250156
 20
-0.840151
 30
0.0
 11
0.250156
 21
-0.724714
 31
0.0
  0
LINE
  5
CC
100
AcDbEntity
  8
0
  6
CONTINUOUS
 62
     7
100
AcDbLine
 10
0.250156
 20
-0.301464
 30
0.0
 11
0.250156
 21
-0.186028
 31
0.0
  0
LINE
  5
CD
100
AcDbEntity
  8
0
  6
CONTINUOUS
 62
     7
100
AcDbLine
 10
0.208088
 20
-0.186028
 30
0.0
 11
0.208088
 21
-0.301464
 31
0.0
  0
LINE
  5
CE
100
AcDbEntity
  8
0
  6
CONTINUOUS
 62
     7
100
AcDbLine
 10
0.208088
 20
-0.724714
 30
0.0
 11
0.208088
 21
-0.840151
 31
0.0
  0
LINE
  5
CF
100
AcDbEntity
  8
0
  6
CONTINUOUS
 62
     7
100
AcDbLine
 10
0.165997
 20
-0.840151
 30
0.0
 11
0.165997
 21
-0.724714
 31
0.0
  0
LINE
  5
D0
100
AcDbEntity
  8
0
  6
CONTINUOUS
 62
     7
100
AcDbLine
 10
0.165997
 20
-0.301464
 30
0.0
 11
0.165997
 21
-0.186028
 31
0.0
  0
LINE
  5
D1
100
AcDbEntity
  8
0
  6
CONTINUOUS
 62
     7
100
AcDbLine
 10
0.123917
 20
-0.186028
 30
0.0
 11
0.123917
 21
-0.301464
 31
0.0
  0
LINE
  5
D2
100
AcDbEntity
  8
0
  6
CONTINUOUS
 62
     7
100
AcDbLine
 10
0.123917
 20
-0.724714
 30
0.0
 11
0.123917
 21
-0.840151
 31
0.0
  0
LINE
  5
D3
100
AcDbEntity
  8
0
  6
CONTINUOUS
 62
     7
100
AcDbLine
 10
0.081848
 20
-0.840151
 30
0.0
 11
0.081848
 21
-0.724714
 31
0.0
  0
LINE
  5
D4
100
AcDbEntity
  8
0
  6
CONTINUOUS
 62
     7
100
AcDbLine
 10
0.081848
 20
-0.301464
 30
0.0
 11
0.081848
 21
-0.186028
 31
0.0
  0
LINE
  5
D5
100
AcDbEntity
  8
0
  6
CONTINUOUS
 62
     7
100
AcDbLine
 10
0.039768
 20
-0.186028
 30
0.0
 11
0.039768
 21
-0.301464
 31
0.0
  0
LINE
  5
D6
100
AcDbEntity
  8
0
  6
CONTINUOUS
 62
     7
100
AcDbLine
 10
0.039768
 20
-0.724714
 30
0.0
 11
0.039768
 21
-0.840151
 31
0.0
  0
LINE
  5
D7
100
AcDbEntity
  8
0
  6
CONTINUOUS
 62
     7
100
AcDbLine
 10
-0.002304
 20
-0.840151
 30
0.0
 11
-0.002304
 21
-0.186028
 31
0.0
  0
LINE
  5
D8
100
AcDbEntity
  8
0
  6
CONTINUOUS
 62
     7
100
AcDbLine
 10
-0.044382
 20
-0.186028
 30
0.0
 11
-0.044382
 21
-0.840151
 31
0.0
  0
LINE
  5
D9
100
AcDbEntity
  8
0
  6
CONTINUOUS
 62
     7
100
AcDbLine
 10
-0.086483
 20
-0.840151
 30
0.0
 11
-0.086483
 21
-0.186028
 31
0.0
  0
LINE
  5
DA
100
AcDbEntity
  8
0
  6
CONTINUOUS
 62
     7
100
AcDbLine
 10
-0.128561
 20
-0.186028
 30
0.0
 11
-0.128561
 21
-0.301456
 31
0.0
  0
LINE
  5
DB
100
AcDbEntity
  8
0
  6
CONTINUOUS
 62
     7
100
AcDbLine
 10
-0.128561
 20
-0.724714
 30
0.0
 11
-0.128561
 21
-0.840151
 31
0.0
  0
LINE
  5
DC
100
AcDbEntity
  8
0
  6
CONTINUOUS
 62
     7
100
AcDbLine
 10
-0.170633
 20
-0.840151
 30
0.0
 11
-0.170633
 21
-0.724714
 31
0.0
  0
LINE
  5
DD
100
AcDbEntity
  8
0
  6
CONTINUOUS
 62
     7
100
AcDbLine
 10
-0.170633
 20
-0.301456
 30
0.0
 11
-0.170633
 21
-0.186028
 31
0.0
  0
LINE
  5
DE
100
AcDbEntity
  8
0
  6
CONTINUOUS
 62
     7
100
AcDbLine
 10
-0.212713
 20
-0.187555
 30
0.0
 11
-0.212713
 21
-0.299927
 31
0.0
  0
LINE
  5
DF
100
AcDbEntity
  8
0
  6
CONTINUOUS
 62
     7
100
AcDbLine
 10
-0.212713
 20
-0.726231
 30
0.0
 11
-0.212713
 21
-0.838621
 31
0.0
  0
LWPOLYLINE
  5
E0
100
AcDbEntity
  8
0
  6
CONTINUOUS
 62
     7
100
AcDbPolyline
 90
       38
 70
   129
 43
0.0
 10
-1.550293
 20
-0.570749
 10
-1.550293
 20
-0.205217
 42
-0.200604
 10
-1.544698
 20
-0.191661
 42
-0.098627
 10
-1.538448
 20
-0.187505
 42
-0.097951
 10
-1.531059
 20
-0.186045
 10
-0.915417
 20
-0.186045
 42
-0.199198
 10
-0.90189
 20
-0.191661
 42
-0.198626
 10
-0.896287
 20
-0.205217
 10
-0.896287
 20
-0.282177
 42
-0.19774
 10
-0.90189
 20
-0.295827
 42
-0.200085
 10
-0.915417
 20
-0.30148
 10
-1.415621
 20
-0.30148
 42
0.197774
 10
-1.429303
 20
-0.307098
 42
0.200051
 10
-1.434971
 20
-0.320662
 10
-1.434971
 20
-0.436079
 42
0.199202
 10
-1.429303
 20
-0.449731
 42
0.198622
 10
-1.415621
 20
-0.455386
 10
-0.915417
 20
-0.455386
 42
-0.19904
 10
-0.90189
 20
-0.461008
 42
-0.198601
 10
-0.896287
 20
-0.474562
 10
-0.896287
 20
-0.551527
 42
-0.197767
 10
-0.90189
 20
-0.565174
 42
-0.200058
 10
-0.915417
 20
-0.570826
 10
-1.415621
 20
-0.570826
 42
0.197749
 10
-1.429303
 20
-0.576443
 42
0.200075
 10
-1.434971
 20
-0.590004
 10
-1.434971
 20
-0.705435
 42
0.199231
 10
-1.429303
 20
-0.719084
 42
0.198594
 10
-1.415621
 20
-0.724737
 10
-0.915417
 20
-0.724737
 42
-0.199252
 10
-0.90189
 20
-0.730355
 42
-0.198572
 10
-0.896287
 20
-0.743917
 10
-0.896287
 20
-0.820866
 42
-0.197663
 10
-0.90189
 20
-0.834523
 42
-0.200163
 10
-0.915417
 20
-0.840181
 10
-1.531059
 20
-0.840181
 42
-0.198568
 10
-1.544737
 20
-0.834519
 42
-0.199101
 10
-1.550402
 20
-0.820866
  0
LINE
  5
E1
100
AcDbEntity
  8
0
  6
CONTINUOUS
 62
     7
100
AcDbLine
 10
-0.927982
 20
-0.186028
 30
0.0
 11
-0.927982
 21
-0.301456
 31
0.0
  0
LINE
  5
E2
100
AcDbEntity
  8
0
  6
CONTINUOUS
 62
     7
100
AcDbLine
 10
-0.927982
 20
-0.45537
 30
0.0
 11
-0.927982
 21
-0.570807
 31
0.0
  0
LINE
  5
E3
100
AcDbEntity
  8
0
  6
CONTINUOUS
 62
     7
100
AcDbLine
 10
-0.927982
 20
-0.724701
 30
0.0
 11
-0.927982
 21
-0.840151
 31
0.0
  0
LINE
  5
E4
100
AcDbEntity
  8
0
  6
CONTINUOUS
 62
     7
100
AcDbLine
 10
-0.970053
 20
-0.840151
 30
0.0
 11
-0.970053
 21
-0.724701
 31
0.0
  0
LINE
  5
E5
100
AcDbEntity
  8
0
  6
CONTINUOUS
 62
     7
100
AcDbLine
 10
-0.970053
 20
-0.570807
 30
0.0
 11
-0.970053
 21
-0.45537
 31
0.0
  0
LINE
  5
E6
100
AcDbEntity
  8
0
  6
CONTINUOUS
 62
     7
100
AcDbLine
 10
-0.970053
 20
-0.301456
 30
0.0
 11
-0.970053
 21
-0.186028
 31
0.0
  0
LINE
  5
E7
100
AcDbEntity
  8
0
  6
CONTINUOUS
 62
     7
100
AcDbLine
 10
-1.012142
 20
-0.186028
 30
0.0
 11
-1.012142
 21
-0.301456
 31
0.0
  0
LINE
  5
E8
100
AcDbEntity
  8
0
  6
CONTINUOUS
 62
     7
100
AcDbLine
 10
-1.012142
 20
-0.45537
 30
0.0
 11
-1.012142
 21
-0.570807
 31
0.0
  0
LINE
  5
E9
100
AcDbEntity
  8
0
  6
CONTINUOUS
 62
     7
100
AcDbLine
 10
-1.012142
 20
-0.724701
 30
0.0
 11
-1.012142
 21
-0.840151
 31
0.0
  0
LINE
  5
EA
100
AcDbEntity
  8
0
  6
CONTINUOUS
 62
     7
100
AcDbLine
 10
-1.054224
 20
-0.840151
 30
0.0
 11
-1.054224
 21
-0.724701
 31
0.0
  0
LINE
  5
EB
100
AcDbEntity
  8
0
  6
CONTINUOUS
 62
     7
100
AcDbLine
 10
-1.054224
 20
-0.570807
 30
0.0
 11
-1.054224
 21
-0.45537
 31
0.0
  0
LINE
  5
EC
100
AcDbEntity
  8
0
  6
CONTINUOUS
 62
     7
100
AcDbLine
 10
-1.054224
 20
-0.301456
 30
0.0
 11
-1.054224
 21
-0.186028
 31
0.0
  0
LINE
  5
ED
100
AcDbEntity
  8
0
  6
CONTINUOUS
 62
     7
100
AcDbLine
 10
-1.096294
 20
-0.186028
 30
0.0
 11
-1.096294
 21
-0.301456
 31
0.0
  0
LINE
  5
EE
100
AcDbEntity
  8
0
  6
CONTINUOUS
 62
     7
100
AcDbLine
 10
-1.096294
 20
-0.45537
 30
0.0
 11
-1.096294
 21
-0.570807
 31
0.0
  0
LINE
  5
EF
100
AcDbEntity
  8
0
  6
CONTINUOUS
 62
     7
100
AcDbLine
 10
-1.096294
 20
-0.724701
 30
0.0
 11
-1.096294
 21
-0.840151
 31
0.0
  0
LINE
  5
F0
100
AcDbEntity
  8
0
  6
CONTINUOUS
 62
     7
100
AcDbLine
 10
-1.138384
 20
-0.840151
 30
0.0
 11
-1.138384
 21
-0.724701
 31
0.0
  0
LINE
  5
F1
100
AcDbEntity
  8
0
  6
CONTINUOUS
 62
     7
100
AcDbLine
 10
-1.138384
 20
-0.570807
 30
0.0
 11
-1.138384
 21
-0.45537
 31
0.0
  0
LINE
  5
F2
100
AcDbEntity
  8
0
  6
CONTINUOUS
 62
     7
100
AcDbLine
 10
-1.138384
 20
-0.301456
 30
0.0
 11
-1.138384
 21
-0.186028
 31
0.0
  0
LINE
  5
F3
100
AcDbEntity
  8
0
  6
CONTINUOUS
 62
     7
100
AcDbLine
 10
-1.180464
 20
-0.186028
 30
0.0
 11
-1.180464
 21
-0.301456
 31
0.0
  0
LINE
  5
F4
100
AcDbEntity
  8
0
  6
CONTINUOUS
 62
     7
100
AcDbLine
 10
-1.180464
 20
-0.45537
 30
0.0
 11
-1.180464
 21
-0.570807
 31
0.0
  0
LINE
  5
F5
100
AcDbEntity
  8
0
  6
CONTINUOUS
 62
     7
100
AcDbLine
 10
-1.180464
 20
-0.724701
 30
0.0
 11
-1.180464
 21
-0.840151
 31
0.0
  0
LINE
  5
F6
100
AcDbEntity
  8
0
  6
CONTINUOUS
 62
     7
100
AcDbLine
 10
-1.222534
 20
-0.840151
 30
0.0
 11
-1.222534
 21
-0.724701
 31
0.0
  0
LINE
  5
F7
100
AcDbEntity
  8
0
  6
CONTINUOUS
 62
     7
100
AcDbLine
 10
-1.222534
 20
-0.570807
 30
0.0
 11
-1.222534
 21
-0.45537
 31
0.0
  0
LINE
  5
F8
100
AcDbEntity
  8
0
  6
CONTINUOUS
 62
     7
100
AcDbLine
 10
-1.222534
 20
-0.301456
 30
0.0
 11
-1.222534
 21
-0.186028
 31
0.0
  0
LINE
  5
F9
100
AcDbEntity
  8
0
  6
CONTINUOUS
 62
     7
100
AcDbLine
 10
-1.264616
 20
-0.186028
 30
0.0
 11
-1.264616
 21
-0.301456
 31
0.0
  0
LINE
  5
FA
100
AcDbEntity
  8
0
  6
CONTINUOUS
 62
     7
100
AcDbLine
 10
-1.264616
 20
-0.45537
 30
0.0
 11
-1.264616
 21
-0.570807
 31
0.0
  0
LINE
  5
FB
100
AcDbEntity
  8
0
  6
CONTINUOUS
 62
     7
100
AcDbLine
 10
-1.264616
 20
-0.724701
 30
0.0
 11
-1.264616
 21
-0.840151
 31
0.0
  0
LINE
  5
FC
100
AcDbEntity
  8
0
  6
CONTINUOUS
 62
     7
100
AcDbLine
 10
-1.306686
 20
-0.840151
 30
0.0
 11
-1.306686
 21
-0.724701
 31
0.0
  0
LINE
  5
FD
100
AcDbEntity
  8
0
  6
CONTINUOUS
 62
     7
100
AcDbLine
 10
-1.306686
 20
-0.570807
 30
0.0
 11
-1.306686
 21
-0.45537
 31
0.0
  0
LINE
  5
FE
100
AcDbEntity
  8
0
  6
CONTINUOUS
 62
     7
100
AcDbLine
 10
-1.306686
 20
-0.301456
 30
0.0
 11
-1.306686
 21
-0.186028
 31
0.0
  0
LINE
  5
FF
100
AcDbEntity
  8
0
  6
CONTINUOUS
 62
     7
100
AcDbLine
 10
-1.348764
 20
-0.186028
 30
0.0
 11
-1.348764
 21
-0.301456
 31
0.0
  0
LINE
  5
100
100
AcDbEntity
  8
0
  6
CONTINUOUS
 62
     7
100
AcDbLine
 10
-1.348764
 20
-0.45537
 30
0.0
 11
-1.348764
 21
-0.570807
 31
0.0
  0
LINE
  5
101
100
AcDbEntity
  8
0
  6
CONTINUOUS
 62
     7
100
AcDbLine
 10
-1.348764
 20
-0.724701
 30
0.0
 11
-1.348764
 21
-0.840151
 31
0.0
  0
LINE
  5
102
100
AcDbEntity
  8
0
  6
CONTINUOUS
 62
     7
100
AcDbLine
 10
-1.390865
 20
-0.840151
 30
0.0
 11
-1.390865
 21
-0.724701
 31
0.0
  0
LINE
  5
103
100
AcDbEntity
  8
0
  6
CONTINUOUS
 62
     7
100
AcDbLine
 10
-1.390865
 20
-0.570807
 30
0.0
 11
-1.390865
 21
-0.45537
 31
0.0
  0
LINE
  5
104
100
AcDbEntity
  8
0
  6
CONTINUOUS
 62
     7
100
AcDbLine
 10
-1.390865
 20
-0.301456
 30
0.0
 11
-1.390865
 21
-0.186028
 31
0.0
  0
LINE
  5
105
100
AcDbEntity
  8
0
  6
CONTINUOUS
 62
     7
100
AcDbLine
 10
-1.432945
 20
-0.186028
 30
0.0
 11
-1.432945
 21
-0.312164
 31
0.0
  0
LINE
  5
106
100
AcDbEntity
  8
0
  6
CONTINUOUS
 62
     7
100
AcDbLine
 10
-1.432945
 20
-0.444626
 30
0.0
 11
-1.432945
 21
-0.581512
 31
0.0
  0
LINE
  5
107
100
AcDbEntity
  8
0
  6
CONTINUOUS
 62
     7
100
AcDbLine
 10
-1.432945
 20
-0.71397
 30
0.0
 11
-1.432945
 21
-0.840151
 31
0.0
  0
LINE
  5
108
100
AcDbEntity
  8
0
  6
CONTINUOUS
 62
     7
100
AcDbLine
 10
-1.475016
 20
-0.840151
 30
0.0
 11
-1.475016
 21
-0.186028
 31
0.0
  0
LINE
  5
109
100
AcDbEntity
  8
0
  6
CONTINUOUS
 62
     7
100
AcDbLine
 10
-1.517097
 20
-0.186028
 30
0.0
 11
-1.517097
 21
-0.840151
 31
0.0
  0
LWPOLYLINE
  5
10A
100
AcDbEntity
  8
0
  6
CONTINUOUS
 62
     7
100
AcDbPolyline
 90
       31
 70
   128
 43
0.0
 10
-2.491427
 20
-0.394573
 10
-2.491427
 20
-0.205217
 42
-0.201099
 10
-2.485848
 20
-0.191661
 42
-0.098731
 10
-2.479595
 20
-0.187505
 42
-0.097859
 10
-2.472195
 20
-0.186045
 10
-1.87582
 20
-0.186045
 42
-0.41425
 10
-1.722009
 20
-0.33989
 10
-1.722009
 20
-0.472668
 42
-0.198627
 10
-1.744519
 20
-0.527132
 42
-0.199198
 10
-1.798864
 20
-0.549692
 10
-1.798864
 20
-0.54962
 42
-0.413937
 10
-1.722009
 20
-0.626579
 10
-1.722009
 20
-0.820866
 42
-0.197672
 10
-1.727612
 20
-0.834523
 42
-0.200154
 10
-1.74114
 20
-0.840181
 10
-1.818096
 20
-0.840181
 42
-0.198472
 10
-1.831781
 20
-0.834518
 42
-0.199171
 10
-1.83745
 20
-0.820866
 10
-1.83745
 20
-0.647717
 42
0.198737
 10
-1.848688
 20
-0.620548
 42
0.199088
 10
-1.87582
 20
-0.609294
 10
-2.356773
 20
-0.609294
 42
0.197615
 10
-2.370465
 20
-0.614914
 42
0.200138
 10
-2.376136
 20
-0.628475
 10
-2.376136
 20
-0.820866
 42
-0.197684
 10
-2.381736
 20
-0.834514
 42
-0.200142
 10
-2.395256
 20
-0.840167
 10
-2.472195
 20
-0.840167
 42
-0.198496
 10
-2.485887
 20
-0.834514
 42
-0.199329
 10
-2.491558
 20
-0.820866
 10
-2.491558
 20
-0.394573
  0
LWPOLYLINE
  5
10B
100
AcDbEntity
  8
0
  6
CONTINUOUS
 62
     7
100
AcDbPolyline
 90
       13
 70
   128
 43
0.0
 10
-2.376024
 20
-0.394573
 10
-2.376024
 20
-0.45532
 42
0.415065
 10
-2.337542
 20
-0.49388
 10
-1.87582
 20
-0.49388
 42
0.199489
 10
-1.848688
 20
-0.482592
 42
0.198337
 10
-1.83745
 20
-0.455339
 10
-1.83745
 20
-0.33989
 42
0.198782
 10
-1.848688
 20
-0.31273
 42
0.199043
 10
-1.87582
 20
-0.30148
 10
-2.337542
 20
-0.30148
 42
0.198286
 10
-2.364832
 20
-0.31273
 42
0.199538
 10
-2.376136
 20
-0.33989
 10
-2.376136
 20
-0.394573
  0
LINE
  5
10C
100
AcDbEntity
  8
0
  6
CONTINUOUS
 62
     7
100
AcDbLine
 10
-1.72744
 20
-0.299116
 30
0.0
 11
-1.72744
 21
-0.50128
 31
0.0
  0
LINE
  5
10D
100
AcDbEntity
  8
0
  6
CONTINUOUS
 62
     7
100
AcDbLine
 10
-1.72744
 20
-0.597998
 30
0.0
 11
-1.72744
 21
-0.834372
 31
0.0
  0
LINE
  5
10E
100
AcDbEntity
  8
0
  6
CONTINUOUS
 62
     7
100
AcDbLine
 10
-1.769529
 20
-0.840143
 30
0.0
 11
-1.769529
 21
-0.555454
 31
0.0
  0
LINE
  5
10F
100
AcDbEntity
  8
0
  6
CONTINUOUS
 62
     7
100
AcDbLine
 10
-1.769529
 20
-0.543842
 30
0.0
 11
-1.769529
 21
-0.228632
 31
0.0
  0
LINE
  5
110
100
AcDbEntity
  8
0
  6
CONTINUOUS
 62
     7
100
AcDbLine
 10
-1.811619
 20
-0.200064
 30
0.0
 11
-1.811619
 21
-0.840143
 31
0.0
  0
LINE
  5
111
100
AcDbEntity
  8
0
  6
CONTINUOUS
 62
     7
100
AcDbLine
 10
-1.853701
 20
-0.616276
 30
0.0
 11
-1.853701
 21
-0.486835
 31
0.0
  0
LINE
  5
112
100
AcDbEntity
  8
0
  6
CONTINUOUS
 62
     7
100
AcDbLine
 10
-1.853701
 20
-0.308481
 30
0.0
 11
-1.853701
 21
-0.187632
 31
0.0
  0
LINE
  5
113
100
AcDbEntity
  8
0
  6
CONTINUOUS
 62
     7
100
AcDbLine
 10
-1.895771
 20
-0.186028
 30
0.0
 11
-1.895771
 21
-0.301456
 31
0.0
  0
LINE
  5
114
100
AcDbEntity
  8
0
  6
CONTINUOUS
 62
     7
100
AcDbLine
 10
-1.895771
 20
-0.493853
 30
0.0
 11
-1.895771
 21
-0.60927
 31
0.0
  0
LINE
  5
115
100
AcDbEntity
  8
0
  6
CONTINUOUS
 62
     7
100
AcDbLine
 10
-1.937851
 20
-0.60927
 30
0.0
 11
-1.937851
 21
-0.493853
 31
0.0
  0
LINE
  5
116
100
AcDbEntity
  8
0
  6
CONTINUOUS
 62
     7
100
AcDbLine
 10
-1.937851
 20
-0.301456
 30
0.0
 11
-1.937851
 21
-0.186028
 31
0.0
  0
LINE
  5
117
100
AcDbEntity
  8
0
  6
CONTINUOUS
 62
     7
100
AcDbLine
 10
-1.979921
 20
-0.186028
 30
0.0
 11
-1.979921
 21
-0.301456
 31
0.0
  0
LINE
  5
118
100
AcDbEntity
  8
0
  6
CONTINUOUS
 62
     7
100
AcDbLine
 10
-1.979921
 20
-0.493853
 30
0.0
 11
-1.979921
 21
-0.60927
 31
0.0
  0
LINE
  5
119
100
AcDbEntity
  8
0
  6
CONTINUOUS
 62
     7
100
AcDbLine
 10
-2.022011
 20
-0.60927
 30
0.0
 11
-2.022011
 21
-0.493853
 31
0.0
  0
LINE
  5
11A
100
AcDbEntity
  8
0
  6
CONTINUOUS
 62
     7
100
AcDbLine
 10
-2.022011
 20
-0.301456
 30
0.0
 11
-2.022011
 21
-0.186028
 31
0.0
  0
LINE
  5
11B
100
AcDbEntity
  8
0
  6
CONTINUOUS
 62
     7
100
AcDbLine
 10
-2.064091
 20
-0.186028
 30
0.0
 11
-2.064091
 21
-0.301456
 31
0.0
  0
LINE
  5
11C
100
AcDbEntity
  8
0
  6
CONTINUOUS
 62
     7
100
AcDbLine
 10
-2.064091
 20
-0.493853
 30
0.0
 11
-2.064091
 21
-0.60927
 31
0.0
  0
LINE
  5
11D
100
AcDbEntity
  8
0
  6
CONTINUOUS
 62
     7
100
AcDbLine
 10
-2.106161
 20
-0.60927
 30
0.0
 11
-2.106161
 21
-0.493853
 31
0.0
  0
LINE
  5
11E
100
AcDbEntity
  8
0
  6
CONTINUOUS
 62
     7
100
AcDbLine
 10
-2.106161
 20
-0.301456
 30
0.0
 11
-2.106161
 21
-0.186014
 31
0.0
  0
LINE
  5
11F
100
AcDbEntity
  8
0
  6
CONTINUOUS
 62
     7
100
AcDbLine
 10
-2.148241
 20
-0.186014
 30
0.0
 11
-2.148241
 21
-0.301456
 31
0.0
  0
LINE
  5
120
100
AcDbEntity
  8
0
  6
CONTINUOUS
 62
     7
100
AcDbLine
 10
-2.148241
 20
-0.493853
 30
0.0
 11
-2.148241
 21
-0.60927
 31
0.0
  0
LINE
  5
121
100
AcDbEntity
  8
0
  6
CONTINUOUS
 62
     7
100
AcDbLine
 10
-2.190332
 20
-0.60927
 30
0.0
 11
-2.190332
 21
-0.493853
 31
0.0
  0
LINE
  5
122
100
AcDbEntity
  8
0
  6
CONTINUOUS
 62
     7
100
AcDbLine
 10
-2.190332
 20
-0.301456
 30
0.0
 11
-2.190332
 21
-0.186014
 31
0.0
  0
LINE
  5
123
100
AcDbEntity
  8
0
  6
CONTINUOUS
 62
     7
100
AcDbLine
 10
-2.232403
 20
-0.186014
 30
0.0
 11
-2.232403
 21
-0.301456
 31
0.0
  0
LINE
  5
124
100
AcDbEntity
  8
0
  6
CONTINUOUS
 62
     7
100
AcDbLine
 10
-2.232403
 20
-0.493853
 30
0.0
 11
-2.232403
 21
-0.60927
 31
0.0
  0
LINE
  5
125
100
AcDbEntity
  8
0
  6
CONTINUOUS
 62
     7
100
AcDbLine
 10
-2.274483
 20
-0.60927
 30
0.0
 11
-2.274483
 21
-0.493853
 31
0.0
  0
LINE
  5
126
100
AcDbEntity
  8
0
  6
CONTINUOUS
 62
     7
100
AcDbLine
 10
-2.274483
 20
-0.301456
 30
0.0
 11
-2.274483
 21
-0.186014
 31
0.0
  0
LINE
  5
127
100
AcDbEntity
  8
0
  6
CONTINUOUS
 62
     7
100
AcDbLine
 10
-2.316553
 20
-0.186014
 30
0.0
 11
-2.316553
 21
-0.301456
 31
0.0
  0
LINE
  5
128
100
AcDbEntity
  8
0
  6
CONTINUOUS
 62
     7
100
AcDbLine
 10
-2.316553
 20
-0.493853
 30
0.0
 11
-2.316553
 21
-0.60927
 31
0.0
  0
LINE
  5
129
100
AcDbEntity
  8
0
  6
CONTINUOUS
 62
     7
100
AcDbLine
 10
-2.358643
 20
-0.60936
 30
0.0
 11
-2.358643
 21
-0.487572
 31
0.0
  0
LINE
  5
12A
100
AcDbEntity
  8
0
  6
CONTINUOUS
 62
     7
100
AcDbLine
 10
-2.358643
 20
-0.307713
 30
0.0
 11
-2.358643
 21
-0.186014
 31
0.0
  0
LINE
  5
12B
100
AcDbEntity
  8
0
  6
CONTINUOUS
 62
     7
100
AcDbLine
 10
-2.400703
 20
-0.186014
 30
0.0
 11
-2.400703
 21
-0.840143
 31
0.0
  0
LINE
  5
12C
100
AcDbEntity
  8
0
  6
CONTINUOUS
 62
     7
100
AcDbLine
 10
-2.442795
 20
-0.840143
 30
0.0
 11
-2.442795
 21
-0.186014
 31
0.0
  0
LINE
  5
12D
100
AcDbEntity
  8
0
  6
CONTINUOUS
 62
     7
100
AcDbLine
 10
-2.484875
 20
-0.190729
 30
0.0
 11
-2.484875
 21
-0.835423
 31
0.0
  0
LWPOLYLINE
  5
12E
100
AcDbEntity
  8
0
  6
CONTINUOUS
 62
     7
100
AcDbPolyline
 90
       20
 70
   128
 43
0.0
 10
4.559917
 20
-0.394592
 10
4.559917
 20
-0.205236
 42
-0.201384
 10
4.565488
 20
-0.19168
 42
-0.098782
 10
4.571744
 20
-0.187524
 42
-0.097796
 10
4.579151
 20
-0.186064
 10
5.175545
 20
-0.186064
 42
-0.414213
 10
5.329312
 20
-0.339922
 10
5.329312
 20
-0.455351
 42
-0.198757
 10
5.284269
 20
-0.564224
 42
-0.199068
 10
5.175526
 20
-0.609321
 10
4.694584
 20
-0.609321
 42
0.197919
 10
4.680884
 20
-0.614931
 42
0.200195
 10
4.675209
 20
-0.628506
 10
4.675209
 20
-0.820871
 42
-0.197629
 10
4.669609
 20
-0.834525
 42
-0.200198
 10
4.65609
 20
-0.840181
 10
4.579151
 20
-0.840181
 42
-0.198402
 10
4.565444
 20
-0.834525
 42
-0.199425
 10
4.559766
 20
-0.820871
 10
4.559766
 20
-0.394592
  0
LWPOLYLINE
  5
12F
100
AcDbEntity
  8
0
  6
CONTINUOUS
 62
     7
100
AcDbPolyline
 90
       14
 70
   128
 43
0.0
 10
4.67535
 20
-0.394592
 10
4.67535
 20
-0.455339
 42
0.199631
 10
4.686563
 20
-0.4826
 42
0.199145
 10
4.713833
 20
-0.493891
 10
5.175526
 20
-0.493891
 42
0.199517
 10
5.202652
 20
-0.482603
 42
0.198309
 10
5.213887
 20
-0.455351
 10
5.213887
 20
-0.339922
 42
0.198715
 10
5.202652
 20
-0.312755
 42
0.199111
 10
5.175526
 20
-0.301502
 10
4.713833
 20
-0.301502
 42
0.198179
 10
4.686522
 20
-0.312751
 42
0.199645
 10
4.675209
 20
-0.339909
 10
4.675209
 20
-0.394592
  0
LINE
  5
130
100
AcDbEntity
  8
0
  6
CONTINUOUS
 62
     7
100
AcDbLine
 10
5.299492
 20
-0.248743
 30
0.0
 11
5.299492
 21
-0.546574
 31
0.0
  0
LINE
  5
131
100
AcDbEntity
  8
0
  6
CONTINUOUS
 62
     7
100
AcDbLine
 10
5.257401
 20
-0.585686
 30
0.0
 11
5.257401
 21
-0.209637
 31
0.0
  0
LINE
  5
132
100
AcDbEntity
  8
0
  6
CONTINUOUS
 62
     7
100
AcDbLine
 10
5.215321
 20
-0.191277
 30
0.0
 11
5.215321
 21
-0.604053
 31
0.0
  0
LINE
  5
133
100
AcDbEntity
  8
0
  6
CONTINUOUS
 62
     7
100
AcDbLine
 10
5.173249
 20
-0.609289
 30
0.0
 11
5.173249
 21
-0.49386
 31
0.0
  0
LINE
  5
134
100
AcDbEntity
  8
0
  6
CONTINUOUS
 62
     7
100
AcDbLine
 10
5.173249
 20
-0.301476
 30
0.0
 11
5.173249
 21
-0.186033
 31
0.0
  0
LINE
  5
135
100
AcDbEntity
  8
0
  6
CONTINUOUS
 62
     7
100
AcDbLine
 10
5.131172
 20
-0.186033
 30
0.0
 11
5.131172
 21
-0.301476
 31
0.0
  0
LINE
  5
136
100
AcDbEntity
  8
0
  6
CONTINUOUS
 62
     7
100
AcDbLine
 10
5.131172
 20
-0.49386
 30
0.0
 11
5.131172
 21
-0.609289
 31
0.0
  0
LINE
  5
137
100
AcDbEntity
  8
0
  6
CONTINUOUS
 62
     7
100
AcDbLine
 10
5.089069
 20
-0.609289
 30
0.0
 11
5.089069
 21
-0.49386
 31
0.0
  0
LINE
  5
138
100
AcDbEntity
  8
0
  6
CONTINUOUS
 62
     7
100
AcDbLine
 10
5.089069
 20
-0.301476
 30
0.0
 11
5.089069
 21
-0.186033
 31
0.0
  0
LINE
  5
139
100
AcDbEntity
  8
0
  6
CONTINUOUS
 62
     7
100
AcDbLine
 10
5.046989
 20
-0.186033
 30
0.0
 11
5.046989
 21
-0.301476
 31
0.0
  0
LINE
  5
13A
100
AcDbEntity
  8
0
  6
CONTINUOUS
 62
     7
100
AcDbLine
 10
5.046989
 20
-0.49386
 30
0.0
 11
5.046989
 21
-0.609289
 31
0.0
  0
LINE
  5
13B
100
AcDbEntity
  8
0
  6
CONTINUOUS
 62
     7
100
AcDbLine
 10
5.004921
 20
-0.609289
 30
0.0
 11
5.004921
 21
-0.49386
 31
0.0
  0
LINE
  5
13C
100
AcDbEntity
  8
0
  6
CONTINUOUS
 62
     7
100
AcDbLine
 10
5.004921
 20
-0.301476
 30
0.0
 11
5.004921
 21
-0.186033
 31
0.0
  0
LINE
  5
13D
100
AcDbEntity
  8
0
  6
CONTINUOUS
 62
     7
100
AcDbLine
 10
4.962837
 20
-0.186033
 30
0.0
 11
4.962837
 21
-0.301476
 31
0.0
  0
LINE
  5
13E
100
AcDbEntity
  8
0
  6
CONTINUOUS
 62
     7
100
AcDbLine
 10
4.962837
 20
-0.49386
 30
0.0
 11
4.962837
 21
-0.609289
 31
0.0
  0
LINE
  5
13F
100
AcDbEntity
  8
0
  6
CONTINUOUS
 62
     7
100
AcDbLine
 10
4.920769
 20
-0.609289
 30
0.0
 11
4.920769
 21
-0.49386
 31
0.0
  0
LINE
  5
140
100
AcDbEntity
  8
0
  6
CONTINUOUS
 62
     7
100
AcDbLine
 10
4.920769
 20
-0.301476
 30
0.0
 11
4.920769
 21
-0.186033
 31
0.0
  0
LINE
  5
141
100
AcDbEntity
  8
0
  6
CONTINUOUS
 62
     7
100
AcDbLine
 10
4.878689
 20
-0.186033
 30
0.0
 11
4.878689
 21
-0.301476
 31
0.0
  0
LINE
  5
142
100
AcDbEntity
  8
0
  6
CONTINUOUS
 62
     7
100
AcDbLine
 10
4.878689
 20
-0.49386
 30
0.0
 11
4.878689
 21
-0.609289
 31
0.0
  0
LINE
  5
143
100
AcDbEntity
  8
0
  6
CONTINUOUS
 62
     7
100
AcDbLine
 10
4.836601
 20
-0.609289
 30
0.0
 11
4.836601
 21
-0.49386
 31
0.0
  0
LINE
  5
144
100
AcDbEntity
  8
0
  6
CONTINUOUS
 62
     7
100
AcDbLine
 10
4.836601
 20
-0.301476
 30
0.0
 11
4.836601
 21
-0.186033
 31
0.0
  0
LINE
  5
145
100
AcDbEntity
  8
0
  6
CONTINUOUS
 62
     7
100
AcDbLine
 10
4.794529
 20
-0.186033
 30
0.0
 11
4.794529
 21
-0.301476
 31
0.0
  0
LINE
  5
146
100
AcDbEntity
  8
0
  6
CONTINUOUS
 62
     7
100
AcDbLine
 10
4.794529
 20
-0.49386
 30
0.0
 11
4.794529
 21
-0.609289
 31
0.0
  0
LINE
  5
147
100
AcDbEntity
  8
0
  6
CONTINUOUS
 62
     7
100
AcDbLine
 10
4.752438
 20
-0.609283
 30
0.0
 11
4.752438
 21
-0.49386
 31
0.0
  0
LINE
  5
148
100
AcDbEntity
  8
0
  6
CONTINUOUS
 62
     7
100
AcDbLine
 10
4.752438
 20
-0.301476
 30
0.0
 11
4.752438
 21
-0.186033
 31
0.0
  0
LINE
  5
149
100
AcDbEntity
  8
0
  6
CONTINUOUS
 62
     7
100
AcDbLine
 10
4.710358
 20
-0.186033
 30
0.0
 11
4.710358
 21
-0.301626
 31
0.0
  0
LINE
  5
14A
100
AcDbEntity
  8
0
  6
CONTINUOUS
 62
     7
100
AcDbLine
 10
4.710358
 20
-0.493721
 30
0.0
 11
4.710358
 21
-0.609283
 31
0.0
  0
LINE
  5
14B
100
AcDbEntity
  8
0
  6
CONTINUOUS
 62
     7
100
AcDbLine
 10
4.668285
 20
-0.835732
 30
0.0
 11
4.668285
 21
-0.186033
 31
0.0
  0
LINE
  5
14C
100
AcDbEntity
  8
0
  6
CONTINUOUS
 62
     7
100
AcDbLine
 10
4.626209
 20
-0.186033
 30
0.0
 11
4.626209
 21
-0.840151
 31
0.0
  0
LINE
  5
14D
100
AcDbEntity
  8
0
  6
CONTINUOUS
 62
     7
100
AcDbLine
 10
4.584118
 20
-0.840151
 30
0.0
 11
4.584118
 21
-0.186033
 31
0.0
  0
LWPOLYLINE
  5
14E
100
AcDbEntity
  8
0
  6
CONTINUOUS
 62
     7
100
AcDbPolyline
 90
       15
 70
   128
 43
0.0
 10
-3.133875
 20
-0.570763
 10
-3.240534
 20
-0.570763
 42
-0.132207
 10
-3.250214
 20
-0.568179
 42
-0.132697
 10
-3.257267
 20
-0.561091
 42
-0.132654
 10
-3.259791
 20
-0.551414
 42
-0.132122
 10
-3.257103
 20
-0.541759
 10
-3.12212
 20
-0.312296
 42
-0.130955
 10
-3.115107
 20
-0.305368
 42
-0.130505
 10
-3.105562
 20
-0.302835
 42
-0.264937
 10
-3.088953
 20
-0.312296
 10
-2.953987
 20
-0.541765
 42
-0.267773
 10
-2.953899
 20
-0.561113
 42
-0.131974
 10
-2.960933
 20
-0.568218
 42
-0.132677
 10
-2.970558
 20
-0.570821
 10
-3.133875
 20
-0.570821
  0
LWPOLYLINE
  5
14F
100
AcDbEntity
  8
0
  6
CONTINUOUS
 62
     7
100
AcDbPolyline
 90
       42
 70
   128
 43
0.0
 10
-3.50713
 20
-0.840094
 10
-3.443617
 20
-0.840094
 42
0.035763
 10
-3.441243
 20
-0.839945
 42
0.041906
 10
-3.439098
 20
-0.839471
 42
0.048563
 10
-3.437218
 20
-0.83868
 42
0.054455
 10
-3.435635
 20
-0.837586
 42
0.115166
 10
-3.433459
 20
-0.834564
 42
0.052712
 10
-3.432903
 20
-0.832687
 42
0.046379
 10
-3.432717
 20
-0.830608
 10
-3.347656
 20
-0.695679
 42
-0.131877
 10
-3.340652
 20
-0.688768
 42
-0.130008
 10
-3.331066
 20
-0.686243
 10
-2.880033
 20
-0.686243
 42
-0.035205
 10
-2.877654
 20
-0.686404
 42
-0.041234
 10
-2.875504
 20
-0.686885
 42
-0.047851
 10
-2.87362
 20
-0.687677
 42
-0.053864
 10
-2.872033
 20
-0.688767
 42
-0.115046
 10
-2.869852
 20
-0.691763
 42
-0.053199
 10
-2.869295
 20
-0.693619
 42
-0.047017
 10
-2.869109
 20
-0.695673
 10
-2.784071
 20
-0.830608
 42
0.132869
 10
-2.777086
 20
-0.837603
 42
0.131292
 10
-2.767473
 20
-0.84016
 10
-2.67746
 20
-0.84016
 42
0.132614
 10
-2.667834
 20
-0.837555
 42
0.131904
 10
-2.660799
 20
-0.830451
 42
0.267833
 10
-2.660881
 20
-0.81111
 10
-3.023014
 20
-0.195475
 42
0.128713
 10
-3.030084
 20
-0.188572
 42
0.130034
 10
-3.039583
 20
-0.186049
 10
-3.171507
 20
-0.186049
 42
0.034665
 10
-3.173921
 20
-0.186211
 42
0.040652
 10
-3.176103
 20
-0.186692
 42
0.04732
 10
-3.178015
 20
-0.187484
 42
0.053542
 10
-3.179625
 20
-0.188574
 42
0.115524
 10
-3.181838
 20
-0.191568
 42
0.053873
 10
-3.182403
 20
-0.193423
 42
0.047734
 10
-3.182593
 20
-0.195475
 10
-3.550211
 20
-0.811102
 42
0.268888
 10
-3.550358
 20
-0.830455
 42
0.269412
 10
-3.533642
 20
-0.840166
 10
-3.50713
 20
-0.840166
  0
LINE
  5
150
100
AcDbEntity
  8
0
  6
CONTINUOUS
 62
     7
100
AcDbLine
 10
-2.695238
 20
-0.840132
 30
0.0
 11
-2.695238
 21
-0.752773
 31
0.0
  0
LINE
  5
151
100
AcDbEntity
  8
0
  6
CONTINUOUS
 62
     7
100
AcDbLine
 10
-2.737308
 20
-0.681232
 30
0.0
 11
-2.737308
 21
-0.840132
 31
0.0
  0
LINE
  5
152
100
AcDbEntity
  8
0
  6
CONTINUOUS
 62
     7
100
AcDbLine
 10
-2.779388
 20
-0.836016
 30
0.0
 11
-2.779388
 21
-0.609705
 31
0.0
  0
LINE
  5
153
100
AcDbEntity
  8
0
  6
CONTINUOUS
 62
     7
100
AcDbLine
 10
-2.821459
 20
-0.538177
 30
0.0
 11
-2.821459
 21
-0.767105
 31
0.0
  0
LINE
  5
154
100
AcDbEntity
  8
0
  6
CONTINUOUS
 62
     7
100
AcDbLine
 10
-2.863548
 20
-0.695583
 30
0.0
 11
-2.863548
 21
-0.466642
 31
0.0
  0
LINE
  5
155
100
AcDbEntity
  8
0
  6
CONTINUOUS
 62
     7
100
AcDbLine
 10
-2.905628
 20
-0.395115
 30
0.0
 11
-2.905628
 21
-0.686218
 31
0.0
  0
LINE
  5
156
100
AcDbEntity
  8
0
  6
CONTINUOUS
 62
     7
100
AcDbLine
 10
-2.9477
 20
-0.686218
 30
0.0
 11
-2.9477
 21
-0.323587
 31
0.0
  0
LINE
  5
157
100
AcDbEntity
  8
0
  6
CONTINUOUS
 62
     7
100
AcDbLine
 10
-2.98978
 20
-0.25206
 30
0.0
 11
-2.98978
 21
-0.480982
 31
0.0
  0
LINE
  5
158
100
AcDbEntity
  8
0
  6
CONTINUOUS
 62
     7
100
AcDbLine
 10
-2.98978
 20
-0.570787
 30
0.0
 11
-2.98978
 21
-0.686218
 31
0.0
  0
LINE
  5
159
100
AcDbEntity
  8
0
  6
CONTINUOUS
 62
     7
100
AcDbLine
 10
-3.03187
 20
-0.686218
 30
0.0
 11
-3.03187
 21
-0.570787
 31
0.0
  0
LINE
  5
15A
100
AcDbEntity
  8
0
  6
CONTINUOUS
 62
     7
100
AcDbLine
 10
-3.03187
 20
-0.409454
 30
0.0
 11
-3.03187
 21
-0.18767
 31
0.0
  0
LINE
  5
15B
100
AcDbEntity
  8
0
  6
CONTINUOUS
 62
     7
100
AcDbLine
 10
-3.07394
 20
-0.186033
 30
0.0
 11
-3.07394
 21
-0.337919
 31
0.0
  0
LINE
  5
15C
100
AcDbEntity
  8
0
  6
CONTINUOUS
 62
     7
100
AcDbLine
 10
-3.07394
 20
-0.570787
 30
0.0
 11
-3.07394
 21
-0.686218
 31
0.0
  0
LINE
  5
15D
100
AcDbEntity
  8
0
  6
CONTINUOUS
 62
     7
100
AcDbLine
 10
-3.11602
 20
-0.686218
 30
0.0
 11
-3.11602
 21
-0.570801
 31
0.0
  0
LINE
  5
15E
100
AcDbEntity
  8
0
  6
CONTINUOUS
 62
     7
100
AcDbLine
 10
-3.11602
 20
-0.305901
 30
0.0
 11
-3.11602
 21
-0.186033
 31
0.0
  0
LINE
  5
15F
100
AcDbEntity
  8
0
  6
CONTINUOUS
 62
     7
100
AcDbLine
 10
-3.158091
 20
-0.186033
 30
0.0
 11
-3.158091
 21
-0.373369
 31
0.0
  0
LINE
  5
160
100
AcDbEntity
  8
0
  6
CONTINUOUS
 62
     7
100
AcDbLine
 10
-3.158091
 20
-0.570763
 30
0.0
 11
-3.158091
 21
-0.686218
 31
0.0
  0
LINE
  5
161
100
AcDbEntity
  8
0
  6
CONTINUOUS
 62
     7
100
AcDbLine
 10
-3.200172
 20
-0.686218
 30
0.0
 11
-3.200172
 21
-0.570763
 31
0.0
  0
LINE
  5
162
100
AcDbEntity
  8
0
  6
CONTINUOUS
 62
     7
100
AcDbLine
 10
-3.200172
 20
-0.444891
 30
0.0
 11
-3.200172
 21
-0.215956
 31
0.0
  0
LINE
  5
163
100
AcDbEntity
  8
0
  6
CONTINUOUS
 62
     7
100
AcDbLine
 10
-3.242243
 20
-0.287491
 30
0.0
 11
-3.242243
 21
-0.516424
 31
0.0
  0
LINE
  5
164
100
AcDbEntity
  8
0
  6
CONTINUOUS
 62
     7
100
AcDbLine
 10
-3.242243
 20
-0.570686
 30
0.0
 11
-3.242243
 21
-0.686218
 31
0.0
  0
LINE
  5
165
100
AcDbEntity
  8
0
  6
CONTINUOUS
 62
     7
100
AcDbLine
 10
-3.284323
 20
-0.686218
 30
0.0
 11
-3.284323
 21
-0.359018
 31
0.0
  0
LINE
  5
166
100
AcDbEntity
  8
0
  6
CONTINUOUS
 62
     7
100
AcDbLine
 10
-3.326412
 20
-0.430546
 30
0.0
 11
-3.326412
 21
-0.686218
 31
0.0
  0
LINE
  5
167
100
AcDbEntity
  8
0
  6
CONTINUOUS
 62
     7
100
AcDbLine
 10
-3.368483
 20
-0.731028
 30
0.0
 11
-3.368483
 21
-0.502087
 31
0.0
  0
LINE
  5
168
100
AcDbEntity
  8
0
  6
CONTINUOUS
 62
     7
100
AcDbLine
 10
-3.410572
 20
-0.573614
 30
0.0
 11
-3.410572
 21
-0.802549
 31
0.0
  0
LINE
  5
169
100
AcDbEntity
  8
0
  6
CONTINUOUS
 62
     7
100
AcDbLine
 10
-3.452652
 20
-0.840094
 30
0.0
 11
-3.452652
 21
-0.645142
 31
0.0
  0
LINE
  5
16A
100
AcDbEntity
  8
0
  6
CONTINUOUS
 62
     7
100
AcDbLine
 10
-3.494724
 20
-0.716677
 30
0.0
 11
-3.494724
 21
-0.840094
 31
0.0
  0
LINE
  5
16B
100
AcDbEntity
  8
0
  6
CONTINUOUS
 62
     7
100
AcDbLine
 10
-3.536804
 20
-0.839867
 30
0.0
 11
-3.536804
 21
-0.788204
 31
0.0
  0
LWPOLYLINE
  5
16C
100
AcDbEntity
  8
0
  6
CONTINUOUS
 62
     7
100
AcDbPolyline
 90
       15
 70
   128
 43
0.0
 10
5.745434
 20
-0.570787
 10
5.638783
 20
-0.570787
 42
-0.132112
 10
5.629092
 20
-0.568204
 42
-0.132801
 10
5.622035
 20
-0.561116
 42
-0.132853
 10
5.619516
 20
-0.551439
 42
-0.132214
 10
5.622215
 20
-0.541784
 10
5.757187
 20
-0.312315
 42
-0.130948
 10
5.764199
 20
-0.30539
 42
-0.13047
 10
5.773743
 20
-0.302859
 42
-0.264914
 10
5.790348
 20
-0.312315
 10
5.925319
 20
-0.541784
 42
-0.267468
 10
5.925396
 20
-0.561136
 42
-0.131892
 10
5.918365
 20
-0.568243
 42
-0.132783
 10
5.908749
 20
-0.570846
 10
5.745434
 20
-0.570846
  0
LWPOLYLINE
  5
16D
100
AcDbEntity
  8
0
  6
CONTINUOUS
 62
     7
100
AcDbPolyline
 90
       42
 70
   128
 43
0.0
 10
5.372181
 20
-0.840126
 10
5.4357
 20
-0.840126
 42
0.036007
 10
5.438061
 20
-0.839978
 42
0.042172
 10
5.440194
 20
-0.839505
 42
0.048807
 10
5.442063
 20
-0.838714
 42
0.054605
 10
5.443638
 20
-0.837618
 42
0.11497
 10
5.445802
 20
-0.834593
 42
0.052426
 10
5.446354
 20
-0.832715
 42
0.046074
 10
5.446539
 20
-0.830633
 10
5.531662
 20
-0.695698
 42
-0.133461
 10
5.538633
 20
-0.68879
 42
-0.065168
 10
5.543264
 20
-0.686907
 42
-0.064214
 10
5.54826
 20
-0.686265
 10
5.999294
 20
-0.686265
 42
-0.035376
 10
6.001663
 20
-0.686426
 42
-0.041416
 10
6.003803
 20
-0.686907
 42
-0.048013
 10
6.005679
 20
-0.687699
 42
-0.053956
 10
6.007258
 20
-0.68879
 42
-0.114876
 10
6.009429
 20
-0.691787
 42
-0.052983
 10
6.009983
 20
-0.693643
 42
-0.046791
 10
6.010169
 20
-0.695698
 10
6.095234
 20
-0.830633
 42
0.133463
 10
6.102207
 20
-0.837624
 42
0.131209
 10
6.111835
 20
-0.840179
 10
6.201866
 20
-0.840179
 42
0.132769
 10
6.211479
 20
-0.837574
 42
0.131827
 10
6.218509
 20
-0.830468
 42
0.267429
 10
6.218437
 20
-0.811121
 10
5.856293
 20
-0.195494
 42
0.128152
 10
5.849211
 20
-0.188593
 42
0.130013
 10
5.839725
 20
-0.186071
 10
5.70781
 20
-0.186071
 42
0.034479
 10
5.705384
 20
-0.186236
 42
0.040436
 10
5.703193
 20
-0.18672
 42
0.047101
 10
5.701272
 20
-0.187514
 42
0.053371
 10
5.699654
 20
-0.188605
 42
0.115548
 10
5.697432
 20
-0.191601
 42
0.054064
 10
5.696864
 20
-0.193454
 42
0.047967
 10
5.696674
 20
-0.195505
 10
5.329098
 20
-0.811127
 42
0.580734
 10
5.345688
 20
-0.840191
 10
5.372181
 20
-0.840191
  0
LINE
  5
16E
100
AcDbEntity
  8
0
  6
CONTINUOUS
 62
     7
100
AcDbLine
 10
6.183098
 20
-0.840151
 30
0.0
 11
6.183098
 21
-0.751118
 31
0.0
  0
LINE
  5
16F
100
AcDbEntity
  8
0
  6
CONTINUOUS
 62
     7
100
AcDbLine
 10
6.141026
 20
-0.67959
 30
0.0
 11
6.141026
 21
-0.840151
 31
0.0
  0
LINE
  5
170
100
AcDbEntity
  8
0
  6
CONTINUOUS
 62
     7
100
AcDbLine
 10
6.098938
 20
-0.835222
 30
0.0
 11
6.098938
 21
-0.608057
 31
0.0
  0
LINE
  5
171
100
AcDbEntity
  8
0
  6
CONTINUOUS
 62
     7
100
AcDbLine
 10
6.056858
 20
-0.536516
 30
0.0
 11
6.056858
 21
-0.765469
 31
0.0
  0
LINE
  5
172
100
AcDbEntity
  8
0
  6
CONTINUOUS
 62
     7
100
AcDbLine
 10
6.014786
 20
-0.69413
 30
0.0
 11
6.014786
 21
-0.464989
 31
0.0
  0
LINE
  5
173
100
AcDbEntity
  8
0
  6
CONTINUOUS
 62
     7
100
AcDbLine
 10
5.972706
 20
-0.393459
 30
0.0
 11
5.972706
 21
-0.686249
 31
0.0
  0
LINE
  5
174
100
AcDbEntity
  8
0
  6
CONTINUOUS
 62
     7
100
AcDbLine
 10
5.930614
 20
-0.686249
 30
0.0
 11
5.930614
 21
-0.321932
 31
0.0
  0
LINE
  5
175
100
AcDbEntity
  8
0
  6
CONTINUOUS
 62
     7
100
AcDbLine
 10
5.888527
 20
-0.250399
 30
0.0
 11
5.888527
 21
-0.479351
 31
0.0
  0
LINE
  5
176
100
AcDbEntity
  8
0
  6
CONTINUOUS
 62
     7
100
AcDbLine
 10
5.888527
 20
-0.57082
 30
0.0
 11
5.888527
 21
-0.686249
 31
0.0
  0
LINE
  5
177
100
AcDbEntity
  8
0
  6
CONTINUOUS
 62
     7
100
AcDbLine
 10
5.846455
 20
-0.686249
 30
0.0
 11
5.846455
 21
-0.57082
 31
0.0
  0
LINE
  5
178
100
AcDbEntity
  8
0
  6
CONTINUOUS
 62
     7
100
AcDbLine
 10
5.846455
 20
-0.40781
 30
0.0
 11
5.846455
 21
-0.187298
 31
0.0
  0
LINE
  5
179
100
AcDbEntity
  8
0
  6
CONTINUOUS
 62
     7
100
AcDbLine
 10
5.804375
 20
-0.186052
 30
0.0
 11
5.804375
 21
-0.336283
 31
0.0
  0
LINE
  5
17A
100
AcDbEntity
  8
0
  6
CONTINUOUS
 62
     7
100
AcDbLine
 10
5.804375
 20
-0.57082
 30
0.0
 11
5.804375
 21
-0.686249
 31
0.0
  0
LINE
  5
17B
100
AcDbEntity
  8
0
  6
CONTINUOUS
 62
     7
100
AcDbLine
 10
5.762306
 20
-0.686237
 30
0.0
 11
5.762306
 21
-0.57082
 31
0.0
  0
LINE
  5
17C
100
AcDbEntity
  8
0
  6
CONTINUOUS
 62
     7
100
AcDbLine
 10
5.762306
 20
-0.306599
 30
0.0
 11
5.762306
 21
-0.186052
 31
0.0
  0
LINE
  5
17D
100
AcDbEntity
  8
0
  6
CONTINUOUS
 62
     7
100
AcDbLine
 10
5.720223
 20
-0.186052
 30
0.0
 11
5.720223
 21
-0.375061
 31
0.0
  0
LINE
  5
17E
100
AcDbEntity
  8
0
  6
CONTINUOUS
 62
     7
100
AcDbLine
 10
5.720223
 20
-0.570787
 30
0.0
 11
5.720223
 21
-0.686237
 31
0.0
  0
LINE
  5
17F
100
AcDbEntity
  8
0
  6
CONTINUOUS
 62
     7
100
AcDbLine
 10
5.678154
 20
-0.686237
 30
0.0
 11
5.678154
 21
-0.570787
 31
0.0
  0
LINE
  5
180
100
AcDbEntity
  8
0
  6
CONTINUOUS
 62
     7
100
AcDbLine
 10
5.678154
 20
-0.44659
 30
0.0
 11
5.678154
 21
-0.217642
 31
0.0
  0
LINE
  5
181
100
AcDbEntity
  8
0
  6
CONTINUOUS
 62
     7
100
AcDbLine
 10
5.636074
 20
-0.289183
 30
0.0
 11
5.636074
 21
-0.518105
 31
0.0
  0
LINE
  5
182
100
AcDbEntity
  8
0
  6
CONTINUOUS
 62
     7
100
AcDbLine
 10
5.636074
 20
-0.570612
 30
0.0
 11
5.636074
 21
-0.686237
 31
0.0
  0
LINE
  5
183
100
AcDbEntity
  8
0
  6
CONTINUOUS
 62
     7
100
AcDbLine
 10
5.593975
 20
-0.686237
 30
0.0
 11
5.593975
 21
-0.36071
 31
0.0
  0
LINE
  5
184
100
AcDbEntity
  8
0
  6
CONTINUOUS
 62
     7
100
AcDbLine
 10
5.551895
 20
-0.432245
 30
0.0
 11
5.551895
 21
-0.686237
 31
0.0
  0
LINE
  5
185
100
AcDbEntity
  8
0
  6
CONTINUOUS
 62
     7
100
AcDbLine
 10
5.509823
 20
-0.732719
 30
0.0
 11
5.509823
 21
-0.503773
 31
0.0
  0
LINE
  5
186
100
AcDbEntity
  8
0
  6
CONTINUOUS
 62
     7
100
AcDbLine
 10
5.467743
 20
-0.575314
 30
0.0
 11
5.467743
 21
-0.804249
 31
0.0
  0
LINE
  5
187
100
AcDbEntity
  8
0
  6
CONTINUOUS
 62
     7
100
AcDbLine
 10
5.425675
 20
-0.840132
 30
0.0
 11
5.425675
 21
-0.646841
 31
0.0
  0
LINE
  5
188
100
AcDbEntity
  8
0
  6
CONTINUOUS
 62
     7
100
AcDbLine
 10
5.383595
 20
-0.718369
 30
0.0
 11
5.383595
 21
-0.840132
 31
0.0
  0
LINE
  5
189
100
AcDbEntity
  8
0
  6
CONTINUOUS
 62
     7
100
AcDbLine
 10
5.341526
 20
-0.839716
 30
0.0
 11
5.341526
 21
-0.789904
 31
0.0
  0
LWPOLYLINE
  5
18A
100
AcDbEntity
  8
0
  6
CONTINUOUS
 62
     7
100
AcDbPolyline
 90
       24
 70
   129
 43
0.0
 10
-4.090408
 20
-0.724663
 10
-4.312178
 20
-0.724663
 42
-0.414779
 10
-4.350767
 20
-0.68618
 10
-4.350767
 20
-0.205212
 42
0.198822
 10
-4.356366
 20
-0.191653
 42
0.199182
 10
-4.369902
 20
-0.186037
 10
-4.446857
 20
-0.186037
 42
0.197565
 10
-4.460527
 20
-0.191662
 42
0.199969
 10
-4.466189
 20
-0.205212
 10
-4.466189
 20
-0.68618
 42
0.414214
 10
-4.312178
 20
-0.840156
 10
-3.831215
 20
-0.840156
 42
0.199084
 10
-3.722466
 20
-0.795062
 42
0.198758
 10
-3.677421
 20
-0.68618
 10
-3.677421
 20
-0.205212
 42
0.198491
 10
-3.683019
 20
-0.191653
 42
0.199333
 10
-3.696533
 20
-0.186037
 10
-3.773489
 20
-0.186037
 42
0.197416
 10
-3.787174
 20
-0.191662
 42
0.098772
 10
-3.791369
 20
-0.19788
 42
0.099382
 10
-3.792842
 20
-0.205212
 10
-3.792842
 20
-0.68618
 42
-0.198289
 10
-3.804081
 20
-0.713444
 42
-0.199536
 10
-3.831215
 20
-0.724737
  0
LINE
  5
18B
100
AcDbEntity
  8
0
  6
CONTINUOUS
 62
     7
100
AcDbLine
 10
-3.705088
 20
-0.186014
 30
0.0
 11
-3.705088
 21
-0.774376
 31
0.0
  0
LINE
  5
18C
100
AcDbEntity
  8
0
  6
CONTINUOUS
 62
     7
100
AcDbLine
 10
-3.747168
 20
-0.815144
 30
0.0
 11
-3.747168
 21
-0.186014
 31
0.0
  0
LINE
  5
18D
100
AcDbEntity
  8
0
  6
CONTINUOUS
 62
     7
100
AcDbLine
 10
-3.789238
 20
-0.194153
 30
0.0
 11
-3.789238
 21
-0.834297
 31
0.0
  0
LINE
  5
18E
100
AcDbEntity
  8
0
  6
CONTINUOUS
 62
     7
100
AcDbLine
 10
-3.831318
 20
-0.840143
 30
0.0
 11
-3.831318
 21
-0.724701
 31
0.0
  0
LINE
  5
18F
100
AcDbEntity
  8
0
  6
CONTINUOUS
 62
     7
100
AcDbLine
 10
-3.873407
 20
-0.724701
 30
0.0
 11
-3.873407
 21
-0.840143
 31
0.0
  0
LINE
  5
190
100
AcDbEntity
  8
0
  6
CONTINUOUS
 62
     7
100
AcDbLine
 10
-3.915478
 20
-0.840143
 30
0.0
 11
-3.915478
 21
-0.724701
 31
0.0
  0
LINE
  5
191
100
AcDbEntity
  8
0
  6
CONTINUOUS
 62
     7
100
AcDbLine
 10
-3.957569
 20
-0.724695
 30
0.0
 11
-3.957569
 21
-0.840143
 31
0.0
  0
LINE
  5
192
100
AcDbEntity
  8
0
  6
CONTINUOUS
 62
     7
100
AcDbLine
 10
-3.999649
 20
-0.840143
 30
0.0
 11
-3.999649
 21
-0.724676
 31
0.0
  0
LINE
  5
193
100
AcDbEntity
  8
0
  6
CONTINUOUS
 62
     7
100
AcDbLine
 10
-4.04172
 20
-0.724676
 30
0.0
 11
-4.04172
 21
-0.840143
 31
0.0
  0
LINE
  5
194
100
AcDbEntity
  8
0
  6
CONTINUOUS
 62
     7
100
AcDbLine
 10
-4.083799
 20
-0.840143
 30
0.0
 11
-4.083799
 21
-0.724676
 31
0.0
  0
LINE
  5
195
100
AcDbEntity
  8
0
  6
CONTINUOUS
 62
     7
100
AcDbLine
 10
-4.12587
 20
-0.724663
 30
0.0
 11
-4.12587
 21
-0.840143
 31
0.0
  0
LINE
  5
196
100
AcDbEntity
  8
0
  6
CONTINUOUS
 62
     7
100
AcDbLine
 10
-4.16795
 20
-0.840143
 30
0.0
 11
-4.16795
 21
-0.724663
 31
0.0
  0
LINE
  5
197
100
AcDbEntity
  8
0
  6
CONTINUOUS
 62
     7
100
AcDbLine
 10
-4.210022
 20
-0.724663
 30
0.0
 11
-4.210022
 21
-0.840143
 31
0.0
  0
LINE
  5
198
100
AcDbEntity
  8
0
  6
CONTINUOUS
 62
     7
100
AcDbLine
 10
-4.252111
 20
-0.840143
 30
0.0
 11
-4.252111
 21
-0.724663
 31
0.0
  0
LINE
  5
199
100
AcDbEntity
  8
0
  6
CONTINUOUS
 62
     7
100
AcDbLine
 10
-4.294191
 20
-0.724663
 30
0.0
 11
-4.294191
 21
-0.840143
 31
0.0
  0
LINE
  5
19A
100
AcDbEntity
  8
0
  6
CONTINUOUS
 62
     7
100
AcDbLine
 10
-4.336262
 20
-0.838243
 30
0.0
 11
-4.336262
 21
-0.716236
 31
0.0
  0
LINE
  5
19B
100
AcDbEntity
  8
0
  6
CONTINUOUS
 62
     7
100
AcDbLine
 10
-4.378342
 20
-0.186014
 30
0.0
 11
-4.378342
 21
-0.825209
 31
0.0
  0
LINE
  5
19C
100
AcDbEntity
  8
0
  6
CONTINUOUS
 62
     7
100
AcDbLine
 10
-4.420431
 20
-0.795675
 30
0.0
 11
-4.420431
 21
-0.186014
 31
0.0
  0
LINE
  5
19D
100
AcDbEntity
  8
0
  6
CONTINUOUS
 62
     7
100
AcDbLine
 10
-4.462502
 20
-0.193995
 30
0.0
 11
-4.462502
 21
-0.719501
 31
0.0
  0
LWPOLYLINE
  5
19E
100
AcDbEntity
  8
0
  6
CONTINUOUS
 62
     7
100
AcDbPolyline
 90
       14
 70
   128
 43
0.0
 10
2.740578
 20
-0.301426
 10
2.485214
 20
-0.301426
 42
0.197962
 10
2.457905
 20
-0.312718
 42
0.199441
 10
2.446594
 20
-0.33989
 10
2.446594
 20
-0.686193
 42
0.19917
 10
2.457905
 20
-0.713448
 42
0.198654
 10
2.485214
 20
-0.724737
 10
3.043137
 20
-0.724737
 42
0.199579
 10
3.070252
 20
-0.713448
 42
0.198246
 10
3.081483
 20
-0.686193
 10
3.081483
 20
-0.339909
 42
0.198664
 10
3.070252
 20
-0.312741
 42
0.199161
 10
3.043137
 20
-0.301488
 10
2.740578
 20
-0.301488
  0
LWPOLYLINE
  5
19F
100
AcDbEntity
  8
0
  6
CONTINUOUS
 62
     7
100
AcDbPolyline
 90
       12
 70
   128
 43
0.0
 10
2.740578
 20
-0.185995
 10
3.043137
 20
-0.185995
 42
-0.414345
 10
3.196913
 20
-0.339909
 10
3.196913
 20
-0.686193
 42
-0.198734
 10
3.151873
 20
-0.795079
 42
-0.19909
 10
3.043137
 20
-0.840181
 10
2.485214
 20
-0.840181
 42
-0.414214
 10
2.331172
 20
-0.686193
 10
2.331172
 20
-0.33989
 42
-0.199091
 10
2.37629
 20
-0.231115
 42
-0.198734
 10
2.485214
 20
-0.186059
 10
2.740578
 20
-0.186059
  0
LINE
  5
1A0
100
AcDbEntity
  8
0
  6
CONTINUOUS
 62
     7
100
AcDbLine
 10
3.195614
 20
-0.319395
 30
0.0
 11
3.195614
 21
-0.706738
 31
0.0
  0
LINE
  5
1A1
100
AcDbEntity
  8
0
  6
CONTINUOUS
 62
     7
100
AcDbLine
 10
3.153523
 20
-0.793428
 30
0.0
 11
3.153523
 21
-0.232731
 31
0.0
  0
LINE
  5
1A2
100
AcDbEntity
  8
0
  6
CONTINUOUS
 62
     7
100
AcDbLine
 10
3.111454
 20
-0.202021
 30
0.0
 11
3.111454
 21
-0.824139
 31
0.0
  0
LINE
  5
1A3
100
AcDbEntity
  8
0
  6
CONTINUOUS
 62
     7
100
AcDbLine
 10
3.069362
 20
-0.837885
 30
0.0
 11
3.069362
 21
-0.714335
 31
0.0
  0
LINE
  5
1A4
100
AcDbEntity
  8
0
  6
CONTINUOUS
 62
     7
100
AcDbLine
 10
3.069362
 20
-0.311823
 30
0.0
 11
3.069362
 21
-0.188274
 31
0.0
  0
LINE
  5
1A5
100
AcDbEntity
  8
0
  6
CONTINUOUS
 62
     7
100
AcDbLine
 10
3.027283
 20
-0.186008
 30
0.0
 11
3.027283
 21
-0.301464
 31
0.0
  0
LINE
  5
1A6
100
AcDbEntity
  8
0
  6
CONTINUOUS
 62
     7
100
AcDbLine
 10
3.027283
 20
-0.72472
 30
0.0
 11
3.027283
 21
-0.840151
 31
0.0
  0
LINE
  5
1A7
100
AcDbEntity
  8
0
  6
CONTINUOUS
 62
     7
100
AcDbLine
 10
2.98521
 20
-0.840151
 30
0.0
 11
2.98521
 21
-0.72472
 31
0.0
  0
LINE
  5
1A8
100
AcDbEntity
  8
0
  6
CONTINUOUS
 62
     7
100
AcDbLine
 10
2.98521
 20
-0.301464
 30
0.0
 11
2.98521
 21
-0.186008
 31
0.0
  0
LINE
  5
1A9
100
AcDbEntity
  8
0
  6
CONTINUOUS
 62
     7
100
AcDbLine
 10
2.943131
 20
-0.186008
 30
0.0
 11
2.943131
 21
-0.301464
 31
0.0
  0
LINE
  5
1AA
100
AcDbEntity
  8
0
  6
CONTINUOUS
 62
     7
100
AcDbLine
 10
2.943131
 20
-0.72472
 30
0.0
 11
2.943131
 21
-0.840151
 31
0.0
  0
LINE
  5
1AB
100
AcDbEntity
  8
0
  6
CONTINUOUS
 62
     7
100
AcDbLine
 10
2.901043
 20
-0.840151
 30
0.0
 11
2.901043
 21
-0.72472
 31
0.0
  0
LINE
  5
1AC
100
AcDbEntity
  8
0
  6
CONTINUOUS
 62
     7
100
AcDbLine
 10
2.901043
 20
-0.301464
 30
0.0
 11
2.901043
 21
-0.186008
 31
0.0
  0
LINE
  5
1AD
100
AcDbEntity
  8
0
  6
CONTINUOUS
 62
     7
100
AcDbLine
 10
2.858971
 20
-0.186008
 30
0.0
 11
2.858971
 21
-0.301464
 31
0.0
  0
LINE
  5
1AE
100
AcDbEntity
  8
0
  6
CONTINUOUS
 62
     7
100
AcDbLine
 10
2.858971
 20
-0.72472
 30
0.0
 11
2.858971
 21
-0.840151
 31
0.0
  0
LINE
  5
1AF
100
AcDbEntity
  8
0
  6
CONTINUOUS
 62
     7
100
AcDbLine
 10
2.816891
 20
-0.840151
 30
0.0
 11
2.816891
 21
-0.72472
 31
0.0
  0
LINE
  5
1B0
100
AcDbEntity
  8
0
  6
CONTINUOUS
 62
     7
100
AcDbLine
 10
2.816891
 20
-0.301464
 30
0.0
 11
2.816891
 21
-0.186008
 31
0.0
  0
LINE
  5
1B1
100
AcDbEntity
  8
0
  6
CONTINUOUS
 62
     7
100
AcDbLine
 10
2.774818
 20
-0.186008
 30
0.0
 11
2.774818
 21
-0.301464
 31
0.0
  0
LINE
  5
1B2
100
AcDbEntity
  8
0
  6
CONTINUOUS
 62
     7
100
AcDbLine
 10
2.774818
 20
-0.72472
 30
0.0
 11
2.774818
 21
-0.840151
 31
0.0
  0
LINE
  5
1B3
100
AcDbEntity
  8
0
  6
CONTINUOUS
 62
     7
100
AcDbLine
 10
2.732739
 20
-0.840151
 30
0.0
 11
2.732739
 21
-0.72472
 31
0.0
  0
LINE
  5
1B4
100
AcDbEntity
  8
0
  6
CONTINUOUS
 62
     7
100
AcDbLine
 10
2.732739
 20
-0.301426
 30
0.0
 11
2.732739
 21
-0.186033
 31
0.0
  0
LINE
  5
1B5
100
AcDbEntity
  8
0
  6
CONTINUOUS
 62
     7
100
AcDbLine
 10
2.690651
 20
-0.186033
 30
0.0
 11
2.690651
 21
-0.301426
 31
0.0
  0
LINE
  5
1B6
100
AcDbEntity
  8
0
  6
CONTINUOUS
 62
     7
100
AcDbLine
 10
2.690651
 20
-0.72472
 30
0.0
 11
2.690651
 21
-0.840151
 31
0.0
  0
LINE
  5
1B7
100
AcDbEntity
  8
0
  6
CONTINUOUS
 62
     7
100
AcDbLine
 10
2.64856
 20
-0.840151
 30
0.0
 11
2.64856
 21
-0.72472
 31
0.0
  0
LINE
  5
1B8
100
AcDbEntity
  8
0
  6
CONTINUOUS
 62
     7
100
AcDbLine
 10
2.64856
 20
-0.301426
 30
0.0
 11
2.64856
 21
-0.186033
 31
0.0
  0
LINE
  5
1B9
100
AcDbEntity
  8
0
  6
CONTINUOUS
 62
     7
100
AcDbLine
 10
2.606491
 20
-0.186033
 30
0.0
 11
2.606491
 21
-0.301426
 31
0.0
  0
LINE
  5
1BA
100
AcDbEntity
  8
0
  6
CONTINUOUS
 62
     7
100
AcDbLine
 10
2.606491
 20
-0.72472
 30
0.0
 11
2.606491
 21
-0.840151
 31
0.0
  0
LINE
  5
1BB
100
AcDbEntity
  8
0
  6
CONTINUOUS
 62
     7
100
AcDbLine
 10
2.564407
 20
-0.840151
 30
0.0
 11
2.564407
 21
-0.72472
 31
0.0
  0
LINE
  5
1BC
100
AcDbEntity
  8
0
  6
CONTINUOUS
 62
     7
100
AcDbLine
 10
2.564407
 20
-0.301426
 30
0.0
 11
2.564407
 21
-0.186033
 31
0.0
  0
LINE
  5
1BD
100
AcDbEntity
  8
0
  6
CONTINUOUS
 62
     7
100
AcDbLine
 10
2.522339
 20
-0.186033
 30
0.0
 11
2.522339
 21
-0.301426
 31
0.0
  0
LINE
  5
1BE
100
AcDbEntity
  8
0
  6
CONTINUOUS
 62
     7
100
AcDbLine
 10
2.522339
 20
-0.72472
 30
0.0
 11
2.522339
 21
-0.840151
 31
0.0
  0
LINE
  5
1BF
100
AcDbEntity
  8
0
  6
CONTINUOUS
 62
     7
100
AcDbLine
 10
2.480259
 20
-0.840075
 30
0.0
 11
2.480259
 21
-0.724411
 31
0.0
  0
LINE
  5
1C0
100
AcDbEntity
  8
0
  6
CONTINUOUS
 62
     7
100
AcDbLine
 10
2.480259
 20
-0.301746
 30
0.0
 11
2.480259
 21
-0.186121
 31
0.0
  0
LINE
  5
1C1
100
AcDbEntity
  8
0
  6
CONTINUOUS
 62
     7
100
AcDbLine
 10
2.438187
 20
-0.193373
 30
0.0
 11
2.438187
 21
-0.832817
 31
0.0
  0
LINE
  5
1C2
100
AcDbEntity
  8
0
  6
CONTINUOUS
 62
     7
100
AcDbLine
 10
2.396099
 20
-0.811769
 30
0.0
 11
2.396099
 21
-0.214396
 31
0.0
  0
LINE
  5
1C3
100
AcDbEntity
  8
0
  6
CONTINUOUS
 62
     7
100
AcDbLine
 10
2.354008
 20
-0.259329
 30
0.0
 11
2.354008
 21
-0.766829
 31
0.0
  0
LWPOLYLINE
  5
1C4
100
AcDbEntity
  8
0
  6
CONTINUOUS
 62
     7
100
AcDbPolyline
 90
       40
 70
   129
 43
0.0
 10
-5.694281
 20
-0.359125
 42
0.200538
 10
-5.680746
 20
-0.353521
 42
0.098505
 10
-5.676597
 20
-0.347273
 42
0.097857
 10
-5.67514
 20
-0.33989
 42
0.414269
 10
-5.828963
 20
-0.186045
 10
-6.290674
 20
-0.186045
 42
0.198759
 10
-6.399587
 20
-0.231105
 42
0.199065
 10
-6.4447
 20
-0.33989
 10
-6.4447
 20
-0.416838
 42
0.414214
 10
-6.290674
 20
-0.570818
 10
-5.828963
 20
-0.570818
 42
-0.414214
 10
-5.790592
 20
-0.609226
 10
-5.790592
 20
-0.68618
 42
-0.198326
 10
-5.801831
 20
-0.713435
 42
-0.199498
 10
-5.828963
 20
-0.724724
 10
-6.290674
 20
-0.724724
 42
-0.198717
 10
-6.31797
 20
-0.713435
 42
-0.199109
 10
-6.329276
 20
-0.68618
 42
0.198531
 10
-6.334877
 20
-0.672619
 42
0.199291
 10
-6.348398
 20
-0.667002
 10
-6.425354
 20
-0.667002
 42
0.197781
 10
-6.439033
 20
-0.672619
 42
0.20004
 10
-6.4447
 20
-0.68618
 42
0.414214
 10
-6.290674
 20
-0.840156
 10
-5.828963
 20
-0.840156
 42
0.199067
 10
-5.720214
 20
-0.795058
 42
0.198758
 10
-5.67517
 20
-0.68618
 10
-5.67517
 20
-0.609226
 42
0.414213
 10
-5.828963
 20
-0.455386
 10
-6.290674
 20
-0.455386
 42
-0.198693
 10
-6.31797
 20
-0.444099
 42
-0.199133
 10
-6.329276
 20
-0.416849
 10
-6.329276
 20
-0.33989
 42
-0.199519
 10
-6.31797
 20
-0.312721
 42
-0.198308
 10
-6.290674
 20
-0.301467
 10
-5.828963
 20
-0.301467
 42
-0.199089
 10
-5.801831
 20
-0.312721
 42
-0.198735
 10
-5.790592
 20
-0.33989
 42
0.199223
 10
-5.784924
 20
-0.353542
 42
0.198604
 10
-5.771238
 20
-0.359198
  0
LINE
  5
1C5
100
AcDbEntity
  8
0
  6
CONTINUOUS
 62
     7
100
AcDbLine
 10
-5.682724
 20
-0.292015
 30
0.0
 11
-5.682724
 21
-0.355272
 31
0.0
  0
LINE
  5
1C6
100
AcDbEntity
  8
0
  6
CONTINUOUS
 62
     7
100
AcDbLine
 10
-5.682724
 20
-0.561359
 30
0.0
 11
-5.682724
 21
-0.734085
 31
0.0
  0
LINE
  5
1C7
100
AcDbEntity
  8
0
  6
CONTINUOUS
 62
     7
100
AcDbLine
 10
-5.724814
 20
-0.799509
 30
0.0
 11
-5.724814
 21
-0.495968
 31
0.0
  0
LINE
  5
1C8
100
AcDbEntity
  8
0
  6
CONTINUOUS
 62
     7
100
AcDbLine
 10
-5.724814
 20
-0.35915
 30
0.0
 11
-5.724814
 21
-0.226631
 31
0.0
  0
LWPOLYLINE
  5
1C9
100
AcDbEntity
  8
0
  6
CONTINUOUS
 62
     7
100
AcDbPolyline
 90
        5
 70
   128
 43
0.0
 10
-8.667431
 20
0.272949
 10
-8.667431
 20
-1.568451
 10
-6.826027
 20
-1.568451
 10
-6.826027
 20
0.272957
 10
-8.667431
 20
0.272957
  0
LWPOLYLINE
  5
1CA
100
AcDbEntity
  8
0
  6
CONTINUOUS
 62
     7
100
AcDbPolyline
 90
        5
 70
   128
 43
0.0
 10
-8.510916
 20
0.116438
 10
-8.510916
 20
-1.411921
 10
-6.982548
 20
-1.411921
 10
-6.982548
 20
0.116438
 10
-8.509499
 20
0.116438
  0
LWPOLYLINE
  5
1CB
100
AcDbEntity
  8
0
  6
CONTINUOUS
 62
     7
100
AcDbPolyline
 90
       11
 70
   128
 43
0.0
 10
-8.354397
 20
-0.040089
 10
-7.286381
 20
-0.040089
 10
-7.139067
 20
-0.251839
 10
-7.139067
 20
-1.04365
 10
-7.286381
 20
-1.255402
 10
-8.354397
 20
-1.255402
 10
-8.354397
 20
-1.04365
 10
-8.188673
 20
-1.04365
 10
-8.188673
 20
-0.251839
 10
-8.354397
 20
-0.251839
 10
-8.354397
 20
-0.040089
  0
LWPOLYLINE
  5
1CC
100
AcDbEntity
  8
0
  6
CONTINUOUS
 62
     7
100
AcDbPolyline
 90
        5
 70
   128
 43
0.0
 10
-7.976904
 20
-0.251839
 10
-7.976904
 20
-1.04365
 10
-7.366112
 20
-1.04365
 10
-7.366112
 20
-0.251839
 10
-7.976904
 20
-0.251839
  0
LINE
  5
1CD
100
AcDbEntity
  8
0
  6
CONTINUOUS
 62
     7
100
AcDbLine
 10
-7.288504
 20
0.272949
 30
0.0
 11
-7.288504
 21
0.116438
 31
0.0
  0
LINE
  5
1CE
100
AcDbEntity
  8
0
  6
CONTINUOUS
 62
     7
100
AcDbLine
 10
-7.288504
 20
-0.040089
 30
0.0
 11
-7.288504
 21
-1.255402
 31
0.0
  0
LINE
  5
1CF
100
AcDbEntity
  8
0
  6
CONTINUOUS
 62
     7
100
AcDbLine
 10
-7.288504
 20
-1.411913
 30
0.0
 11
-7.288504
 21
-1.568451
 31
0.0
  0
LINE
  5
1D0
100
AcDbEntity
  8
0
  6
CONTINUOUS
 62
     7
100
AcDbLine
 10
-7.258518
 20
0.272949
 30
0.0
 11
-7.258518
 21
0.116438
 31
0.0
  0
LINE
  5
1D1
100
AcDbEntity
  8
0
  6
CONTINUOUS
 62
     7
100
AcDbLine
 10
-7.258518
 20
-0.080139
 30
0.0
 11
-7.258518
 21
-1.215351
 31
0.0
  0
LINE
  5
1D2
100
AcDbEntity
  8
0
  6
CONTINUOUS
 62
     7
100
AcDbLine
 10
-7.258518
 20
-1.411921
 30
0.0
 11
-7.258518
 21
-1.56844
 31
0.0
  0
LINE
  5
1D3
100
AcDbEntity
  8
0
  6
CONTINUOUS
 62
     7
100
AcDbLine
 10
-7.228571
 20
0.272949
 30
0.0
 11
-7.228571
 21
0.116438
 31
0.0
  0
LINE
  5
1D4
100
AcDbEntity
  8
0
  6
CONTINUOUS
 62
     7
100
AcDbLine
 10
-7.228571
 20
-0.123222
 30
0.0
 11
-7.228571
 21
-1.172272
 31
0.0
  0
LINE
  5
1D5
100
AcDbEntity
  8
0
  6
CONTINUOUS
 62
     7
100
AcDbLine
 10
-7.228571
 20
-1.411913
 30
0.0
 11
-7.228571
 21
-1.568451
 31
0.0
  0
LINE
  5
1D6
100
AcDbEntity
  8
0
  6
CONTINUOUS
 62
     7
100
AcDbLine
 10
-7.198584
 20
0.272949
 30
0.0
 11
-7.198584
 21
0.116438
 31
0.0
  0
LINE
  5
1D7
100
AcDbEntity
  8
0
  6
CONTINUOUS
 62
     7
100
AcDbLine
 10
-7.198584
 20
-0.166319
 30
0.0
 11
-7.198584
 21
-1.129169
 31
0.0
  0
LINE
  5
1D8
100
AcDbEntity
  8
0
  6
CONTINUOUS
 62
     7
100
AcDbLine
 10
-7.198584
 20
-1.411921
 30
0.0
 11
-7.198584
 21
-1.568451
 31
0.0
  0
LINE
  5
1D9
100
AcDbEntity
  8
0
  6
CONTINUOUS
 62
     7
100
AcDbLine
 10
-7.168589
 20
0.272949
 30
0.0
 11
-7.168589
 21
0.116438
 31
0.0
  0
LINE
  5
1DA
100
AcDbEntity
  8
0
  6
CONTINUOUS
 62
     7
100
AcDbLine
 10
-7.168589
 20
-0.209404
 30
0.0
 11
-7.168589
 21
-1.086092
 31
0.0
  0
LINE
  5
1DB
100
AcDbEntity
  8
0
  6
CONTINUOUS
 62
     7
100
AcDbLine
 10
-7.168589
 20
-1.411913
 30
0.0
 11
-7.168589
 21
-1.568451
 31
0.0
  0
LINE
  5
1DC
100
AcDbEntity
  8
0
  6
CONTINUOUS
 62
     7
100
AcDbLine
 10
-7.138622
 20
0.272949
 30
0.0
 11
-7.138622
 21
0.116438
 31
0.0
  0
LINE
  5
1DD
100
AcDbEntity
  8
0
  6
CONTINUOUS
 62
     7
100
AcDbLine
 10
-7.138622
 20
-1.411921
 30
0.0
 11
-7.138622
 21
-1.568451
 31
0.0
  0
LINE
  5
1DE
100
AcDbEntity
  8
0
  6
CONTINUOUS
 62
     7
100
AcDbLine
 10
-8.187804
 20
0.272949
 30
0.0
 11
-8.187804
 21
0.116438
 31
0.0
  0
LINE
  5
1DF
100
AcDbEntity
  8
0
  6
CONTINUOUS
 62
     7
100
AcDbLine
 10
-8.187804
 20
-0.040089
 30
0.0
 11
-8.187804
 21
-1.255413
 31
0.0
  0
LINE
  5
1E0
100
AcDbEntity
  8
0
  6
CONTINUOUS
 62
     7
100
AcDbLine
 10
-8.187804
 20
-1.411921
 30
0.0
 11
-8.187804
 21
-1.568451
 31
0.0
  0
LINE
  5
1E1
100
AcDbEntity
  8
0
  6
CONTINUOUS
 62
     7
100
AcDbLine
 10
-8.157809
 20
0.272949
 30
0.0
 11
-8.157809
 21
0.116438
 31
0.0
  0
LINE
  5
1E2
100
AcDbEntity
  8
0
  6
CONTINUOUS
 62
     7
100
AcDbLine
 10
-8.157809
 20
-0.040089
 30
0.0
 11
-8.157809
 21
-1.255413
 31
0.0
  0
LINE
  5
1E3
100
AcDbEntity
  8
0
  6
CONTINUOUS
 62
     7
100
AcDbLine
 10
-8.157809
 20
-1.411921
 30
0.0
 11
-8.157809
 21
-1.568451
 31
0.0
  0
LINE
  5
1E4
100
AcDbEntity
  8
0
  6
CONTINUOUS
 62
     7
100
AcDbLine
 10
-7.977951
 20
0.272949
 30
0.0
 11
-7.977951
 21
0.116438
 31
0.0
  0
LINE
  5
1E5
100
AcDbEntity
  8
0
  6
CONTINUOUS
 62
     7
100
AcDbLine
 10
-7.977951
 20
-0.040089
 30
0.0
 11
-7.977951
 21
-1.255402
 31
0.0
  0
LINE
  5
1E6
100
AcDbEntity
  8
0
  6
CONTINUOUS
 62
     7
100
AcDbLine
 10
-7.977951
 20
-1.411913
 30
0.0
 11
-7.977951
 21
-1.56844
 31
0.0
  0
LINE
  5
1E7
100
AcDbEntity
  8
0
  6
CONTINUOUS
 62
     7
100
AcDbLine
 10
-8.007946
 20
0.272949
 30
0.0
 11
-8.007946
 21
0.116438
 31
0.0
  0
LINE
  5
1E8
100
AcDbEntity
  8
0
  6
CONTINUOUS
 62
     7
100
AcDbLine
 10
-8.007946
 20
-0.040089
 30
0.0
 11
-8.007946
 21
-1.255413
 31
0.0
  0
LINE
  5
1E9
100
AcDbEntity
  8
0
  6
CONTINUOUS
 62
     7
100
AcDbLine
 10
-8.007946
 20
-1.411921
 30
0.0
 11
-8.007946
 21
-1.568451
 31
0.0
  0
LINE
  5
1EA
100
AcDbEntity
  8
0
  6
CONTINUOUS
 62
     7
100
AcDbLine
 10
-8.037931
 20
0.272949
 30
0.0
 11
-8.037931
 21
0.116438
 31
0.0
  0
LINE
  5
1EB
100
AcDbEntity
  8
0
  6
CONTINUOUS
 62
     7
100
AcDbLine
 10
-8.037931
 20
-0.040089
 30
0.0
 11
-8.037931
 21
-1.255413
 31
0.0
  0
LINE
  5
1EC
100
AcDbEntity
  8
0
  6
CONTINUOUS
 62
     7
100
AcDbLine
 10
-8.037931
 20
-1.411921
 30
0.0
 11
-8.037931
 21
-1.568451
 31
0.0
  0
LINE
  5
1ED
100
AcDbEntity
  8
0
  6
CONTINUOUS
 62
     7
100
AcDbLine
 10
-8.06788
 20
0.272949
 30
0.0
 11
-8.06788
 21
0.116438
 31
0.0
  0
LINE
  5
1EE
100
AcDbEntity
  8
0
  6
CONTINUOUS
 62
     7
100
AcDbLine
 10
-8.06788
 20
-0.040089
 30
0.0
 11
-8.06788
 21
-1.255413
 31
0.0
  0
LINE
  5
1EF
100
AcDbEntity
  8
0
  6
CONTINUOUS
 62
     7
100
AcDbLine
 10
-8.06788
 20
-1.411921
 30
0.0
 11
-8.06788
 21
-1.568451
 31
0.0
  0
LINE
  5
1F0
100
AcDbEntity
  8
0
  6
CONTINUOUS
 62
     7
100
AcDbLine
 10
-8.097865
 20
0.272949
 30
0.0
 11
-8.097865
 21
0.116438
 31
0.0
  0
LINE
  5
1F1
100
AcDbEntity
  8
0
  6
CONTINUOUS
 62
     7
100
AcDbLine
 10
-8.097865
 20
-0.040089
 30
0.0
 11
-8.097865
 21
-1.255413
 31
0.0
  0
LINE
  5
1F2
100
AcDbEntity
  8
0
  6
CONTINUOUS
 62
     7
100
AcDbLine
 10
-8.097865
 20
-1.411921
 30
0.0
 11
-8.097865
 21
-1.568451
 31
0.0
  0
LINE
  5
1F3
100
AcDbEntity
  8
0
  6
CONTINUOUS
 62
     7
100
AcDbLine
 10
-8.127842
 20
0.272949
 30
0.0
 11
-8.127842
 21
0.116438
 31
0.0
  0
LINE
  5
1F4
100
AcDbEntity
  8
0
  6
CONTINUOUS
 62
     7
100
AcDbLine
 10
-8.127842
 20
-0.040089
 30
0.0
 11
-8.127842
 21
-1.255413
 31
0.0
  0
LINE
  5
1F5
100
AcDbEntity
  8
0
  6
CONTINUOUS
 62
     7
100
AcDbLine
 10
-8.127842
 20
-1.411921
 30
0.0
 11
-8.127842
 21
-1.568451
 31
0.0
  0
LINE
  5
1F6
100
AcDbEntity
  8
0
  6
CONTINUOUS
 62
     7
100
AcDbLine
 10
-8.337685
 20
0.272949
 30
0.0
 11
-8.337685
 21
0.116438
 31
0.0
  0
LINE
  5
1F7
100
AcDbEntity
  8
0
  6
CONTINUOUS
 62
     7
100
AcDbLine
 10
-8.337685
 20
-0.040089
 30
0.0
 11
-8.337685
 21
-0.251839
 31
0.0
  0
LINE
  5
1F8
100
AcDbEntity
  8
0
  6
CONTINUOUS
 62
     7
100
AcDbLine
 10
-8.337685
 20
-1.04365
 30
0.0
 11
-8.337685
 21
-1.255413
 31
0.0
  0
LINE
  5
1F9
100
AcDbEntity
  8
0
  6
CONTINUOUS
 62
     7
100
AcDbLine
 10
-8.337685
 20
-1.411921
 30
0.0
 11
-8.337685
 21
-1.568451
 31
0.0
  0
LINE
  5
1FA
100
AcDbEntity
  8
0
  6
CONTINUOUS
 62
     7
100
AcDbLine
 10
-7.378433
 20
0.272949
 30
0.0
 11
-7.378433
 21
0.116438
 31
0.0
  0
LINE
  5
1FB
100
AcDbEntity
  8
0
  6
CONTINUOUS
 62
     7
100
AcDbLine
 10
-7.378433
 20
-0.040089
 30
0.0
 11
-7.378433
 21
-0.251839
 31
0.0
  0
LINE
  5
1FC
100
AcDbEntity
  8
0
  6
CONTINUOUS
 62
     7
100
AcDbLine
 10
-7.378433
 20
-1.04365
 30
0.0
 11
-7.378433
 21
-1.255402
 31
0.0
  0
LINE
  5
1FD
100
AcDbEntity
  8
0
  6
CONTINUOUS
 62
     7
100
AcDbLine
 10
-7.378433
 20
-1.411913
 30
0.0
 11
-7.378433
 21
-1.56844
 31
0.0
  0
LINE
  5
1FE
100
AcDbEntity
  8
0
  6
CONTINUOUS
 62
     7
100
AcDbLine
 10
-7.408409
 20
0.272949
 30
0.0
 11
-7.408409
 21
0.116438
 31
0.0
  0
LINE
  5
1FF
100
AcDbEntity
  8
0
  6
CONTINUOUS
 62
     7
100
AcDbLine
 10
-7.408409
 20
-0.040089
 30
0.0
 11
-7.408409
 21
-0.251839
 31
0.0
  0
LINE
  5
200
100
AcDbEntity
  8
0
  6
CONTINUOUS
 62
     7
100
AcDbLine
 10
-7.408409
 20
-1.04365
 30
0.0
 11
-7.408409
 21
-1.255402
 31
0.0
  0
LINE
  5
201
100
AcDbEntity
  8
0
  6
CONTINUOUS
 62
     7
100
AcDbLine
 10
-7.408409
 20
-1.411913
 30
0.0
 11
-7.408409
 21
-1.56844
 31
0.0
  0
LINE
  5
202
100
AcDbEntity
  8
0
  6
CONTINUOUS
 62
     7
100
AcDbLine
 10
-7.438377
 20
0.272949
 30
0.0
 11
-7.438377
 21
0.116438
 31
0.0
  0
LINE
  5
203
100
AcDbEntity
  8
0
  6
CONTINUOUS
 62
     7
100
AcDbLine
 10
-7.438377
 20
-0.040089
 30
0.0
 11
-7.438377
 21
-0.251839
 31
0.0
  0
LINE
  5
204
100
AcDbEntity
  8
0
  6
CONTINUOUS
 62
     7
100
AcDbLine
 10
-7.438377
 20
-1.04365
 30
0.0
 11
-7.438377
 21
-1.255402
 31
0.0
  0
LINE
  5
205
100
AcDbEntity
  8
0
  6
CONTINUOUS
 62
     7
100
AcDbLine
 10
-7.438377
 20
-1.411913
 30
0.0
 11
-7.438377
 21
-1.56844
 31
0.0
  0
LINE
  5
206
100
AcDbEntity
  8
0
  6
CONTINUOUS
 62
     7
100
AcDbLine
 10
-7.468363
 20
0.272949
 30
0.0
 11
-7.468363
 21
0.116438
 31
0.0
  0
LINE
  5
207
100
AcDbEntity
  8
0
  6
CONTINUOUS
 62
     7
100
AcDbLine
 10
-7.468363
 20
-0.040089
 30
0.0
 11
-7.468363
 21
-0.251833
 31
0.0
  0
LINE
  5
208
100
AcDbEntity
  8
0
  6
CONTINUOUS
 62
     7
100
AcDbLine
 10
-7.468363
 20
-1.04365
 30
0.0
 11
-7.468363
 21
-1.255402
 31
0.0
  0
LINE
  5
209
100
AcDbEntity
  8
0
  6
CONTINUOUS
 62
     7
100
AcDbLine
 10
-7.468363
 20
-1.411913
 30
0.0
 11
-7.468363
 21
-1.56844
 31
0.0
  0
LINE
  5
20A
100
AcDbEntity
  8
0
  6
CONTINUOUS
 62
     7
100
AcDbLine
 10
-7.498339
 20
0.272949
 30
0.0
 11
-7.498339
 21
0.116438
 31
0.0
  0
LINE
  5
20B
100
AcDbEntity
  8
0
  6
CONTINUOUS
 62
     7
100
AcDbLine
 10
-7.498339
 20
-0.040089
 30
0.0
 11
-7.498339
 21
-0.251839
 31
0.0
  0
LINE
  5
20C
100
AcDbEntity
  8
0
  6
CONTINUOUS
 62
     7
100
AcDbLine
 10
-7.498339
 20
-1.04365
 30
0.0
 11
-7.498339
 21
-1.255402
 31
0.0
  0
LINE
  5
20D
100
AcDbEntity
  8
0
  6
CONTINUOUS
 62
     7
100
AcDbLine
 10
-7.498339
 20
-1.411913
 30
0.0
 11
-7.498339
 21
-1.56844
 31
0.0
  0
LINE
  5
20E
100
AcDbEntity
  8
0
  6
CONTINUOUS
 62
     7
100
AcDbLine
 10
-7.528305
 20
0.272949
 30
0.0
 11
-7.528305
 21
0.116438
 31
0.0
  0
LINE
  5
20F
100
AcDbEntity
  8
0
  6
CONTINUOUS
 62
     7
100
AcDbLine
 10
-7.528305
 20
-0.040089
 30
0.0
 11
-7.528305
 21
-0.251839
 31
0.0
  0
LINE
  5
210
100
AcDbEntity
  8
0
  6
CONTINUOUS
 62
     7
100
AcDbLine
 10
-7.528305
 20
-1.04365
 30
0.0
 11
-7.528305
 21
-1.255402
 31
0.0
  0
LINE
  5
211
100
AcDbEntity
  8
0
  6
CONTINUOUS
 62
     7
100
AcDbLine
 10
-7.528305
 20
-1.411913
 30
0.0
 11
-7.528305
 21
-1.56844
 31
0.0
  0
LINE
  5
212
100
AcDbEntity
  8
0
  6
CONTINUOUS
 62
     7
100
AcDbLine
 10
-7.5583
 20
0.272949
 30
0.0
 11
-7.5583
 21
0.116438
 31
0.0
  0
LINE
  5
213
100
AcDbEntity
  8
0
  6
CONTINUOUS
 62
     7
100
AcDbLine
 10
-7.5583
 20
-0.040089
 30
0.0
 11
-7.5583
 21
-0.251839
 31
0.0
  0
LINE
  5
214
100
AcDbEntity
  8
0
  6
CONTINUOUS
 62
     7
100
AcDbLine
 10
-7.5583
 20
-1.04365
 30
0.0
 11
-7.5583
 21
-1.255402
 31
0.0
  0
LINE
  5
215
100
AcDbEntity
  8
0
  6
CONTINUOUS
 62
     7
100
AcDbLine
 10
-7.5583
 20
-1.411913
 30
0.0
 11
-7.5583
 21
-1.56844
 31
0.0
  0
LINE
  5
216
100
AcDbEntity
  8
0
  6
CONTINUOUS
 62
     7
100
AcDbLine
 10
-7.588268
 20
0.272949
 30
0.0
 11
-7.588268
 21
0.116438
 31
0.0
  0
LINE
  5
217
100
AcDbEntity
  8
0
  6
CONTINUOUS
 62
     7
100
AcDbLine
 10
-7.588268
 20
-0.040089
 30
0.0
 11
-7.588268
 21
-0.251839
 31
0.0
  0
LINE
  5
218
100
AcDbEntity
  8
0
  6
CONTINUOUS
 62
     7
100
AcDbLine
 10
-7.588268
 20
-1.04365
 30
0.0
 11
-7.588268
 21
-1.255402
 31
0.0
  0
LINE
  5
219
100
AcDbEntity
  8
0
  6
CONTINUOUS
 62
     7
100
AcDbLine
 10
-7.588268
 20
-1.411913
 30
0.0
 11
-7.588268
 21
-1.56844
 31
0.0
  0
LINE
  5
21A
100
AcDbEntity
  8
0
  6
CONTINUOUS
 62
     7
100
AcDbLine
 10
-7.618235
 20
0.272949
 30
0.0
 11
-7.618235
 21
0.116438
 31
0.0
  0
LINE
  5
21B
100
AcDbEntity
  8
0
  6
CONTINUOUS
 62
     7
100
AcDbLine
 10
-7.618235
 20
-0.040089
 30
0.0
 11
-7.618235
 21
-0.251839
 31
0.0
  0
LINE
  5
21C
100
AcDbEntity
  8
0
  6
CONTINUOUS
 62
     7
100
AcDbLine
 10
-7.618235
 20
-1.04365
 30
0.0
 11
-7.618235
 21
-1.255402
 31
0.0
  0
LINE
  5
21D
100
AcDbEntity
  8
0
  6
CONTINUOUS
 62
     7
100
AcDbLine
 10
-7.618235
 20
-1.411913
 30
0.0
 11
-7.618235
 21
-1.56844
 31
0.0
  0
LINE
  5
21E
100
AcDbEntity
  8
0
  6
CONTINUOUS
 62
     7
100
AcDbLine
 10
-7.64822
 20
0.272949
 30
0.0
 11
-7.64822
 21
0.116438
 31
0.0
  0
LINE
  5
21F
100
AcDbEntity
  8
0
  6
CONTINUOUS
 62
     7
100
AcDbLine
 10
-7.64822
 20
-0.040089
 30
0.0
 11
-7.64822
 21
-0.251839
 31
0.0
  0
LINE
  5
220
100
AcDbEntity
  8
0
  6
CONTINUOUS
 62
     7
100
AcDbLine
 10
-7.64822
 20
-1.04365
 30
0.0
 11
-7.64822
 21
-1.255402
 31
0.0
  0
LINE
  5
221
100
AcDbEntity
  8
0
  6
CONTINUOUS
 62
     7
100
AcDbLine
 10
-7.64822
 20
-1.411913
 30
0.0
 11
-7.64822
 21
-1.56844
 31
0.0
  0
LINE
  5
222
100
AcDbEntity
  8
0
  6
CONTINUOUS
 62
     7
100
AcDbLine
 10
-7.678196
 20
0.272949
 30
0.0
 11
-7.678196
 21
0.116438
 31
0.0
  0
LINE
  5
223
100
AcDbEntity
  8
0
  6
CONTINUOUS
 62
     7
100
AcDbLine
 10
-7.678196
 20
-0.040089
 30
0.0
 11
-7.678196
 21
-0.251839
 31
0.0
  0
LINE
  5
224
100
AcDbEntity
  8
0
  6
CONTINUOUS
 62
     7
100
AcDbLine
 10
-7.678196
 20
-1.04365
 30
0.0
 11
-7.678196
 21
-1.255402
 31
0.0
  0
LINE
  5
225
100
AcDbEntity
  8
0
  6
CONTINUOUS
 62
     7
100
AcDbLine
 10
-7.678196
 20
-1.411913
 30
0.0
 11
-7.678196
 21
-1.56844
 31
0.0
  0
LINE
  5
226
100
AcDbEntity
  8
0
  6
CONTINUOUS
 62
     7
100
AcDbLine
 10
-7.708183
 20
0.272949
 30
0.0
 11
-7.708183
 21
0.116438
 31
0.0
  0
LINE
  5
227
100
AcDbEntity
  8
0
  6
CONTINUOUS
 62
     7
100
AcDbLine
 10
-7.708183
 20
-0.040089
 30
0.0
 11
-7.708183
 21
-0.251833
 31
0.0
  0
LINE
  5
228
100
AcDbEntity
  8
0
  6
CONTINUOUS
 62
     7
100
AcDbLine
 10
-7.708183
 20
-1.04365
 30
0.0
 11
-7.708183
 21
-1.255402
 31
0.0
  0
LINE
  5
229
100
AcDbEntity
  8
0
  6
CONTINUOUS
 62
     7
100
AcDbLine
 10
-7.708183
 20
-1.411913
 30
0.0
 11
-7.708183
 21
-1.56844
 31
0.0
  0
LINE
  5
22A
100
AcDbEntity
  8
0
  6
CONTINUOUS
 62
     7
100
AcDbLine
 10
-7.738149
 20
0.272949
 30
0.0
 11
-7.738149
 21
0.116438
 31
0.0
  0
LINE
  5
22B
100
AcDbEntity
  8
0
  6
CONTINUOUS
 62
     7
100
AcDbLine
 10
-7.738149
 20
-0.040089
 30
0.0
 11
-7.738149
 21
-0.251833
 31
0.0
  0
LINE
  5
22C
100
AcDbEntity
  8
0
  6
CONTINUOUS
 62
     7
100
AcDbLine
 10
-7.738149
 20
-1.04365
 30
0.0
 11
-7.738149
 21
-1.255402
 31
0.0
  0
LINE
  5
22D
100
AcDbEntity
  8
0
  6
CONTINUOUS
 62
     7
100
AcDbLine
 10
-7.738149
 20
-1.411913
 30
0.0
 11
-7.738149
 21
-1.56844
 31
0.0
  0
LINE
  5
22E
100
AcDbEntity
  8
0
  6
CONTINUOUS
 62
     7
100
AcDbLine
 10
-7.768126
 20
0.272949
 30
0.0
 11
-7.768126
 21
0.116438
 31
0.0
  0
LINE
  5
22F
100
AcDbEntity
  8
0
  6
CONTINUOUS
 62
     7
100
AcDbLine
 10
-7.768126
 20
-0.040089
 30
0.0
 11
-7.768126
 21
-0.251833
 31
0.0
  0
LINE
  5
230
100
AcDbEntity
  8
0
  6
CONTINUOUS
 62
     7
100
AcDbLine
 10
-7.768126
 20
-1.04365
 30
0.0
 11
-7.768126
 21
-1.255402
 31
0.0
  0
LINE
  5
231
100
AcDbEntity
  8
0
  6
CONTINUOUS
 62
     7
100
AcDbLine
 10
-7.768126
 20
-1.411913
 30
0.0
 11
-7.768126
 21
-1.56844
 31
0.0
  0
LINE
  5
232
100
AcDbEntity
  8
0
  6
CONTINUOUS
 62
     7
100
AcDbLine
 10
-7.798094
 20
0.272949
 30
0.0
 11
-7.798094
 21
0.116438
 31
0.0
  0
LINE
  5
233
100
AcDbEntity
  8
0
  6
CONTINUOUS
 62
     7
100
AcDbLine
 10
-7.798094
 20
-0.040089
 30
0.0
 11
-7.798094
 21
-0.251833
 31
0.0
  0
LINE
  5
234
100
AcDbEntity
  8
0
  6
CONTINUOUS
 62
     7
100
AcDbLine
 10
-7.798094
 20
-1.04365
 30
0.0
 11
-7.798094
 21
-1.255402
 31
0.0
  0
LINE
  5
235
100
AcDbEntity
  8
0
  6
CONTINUOUS
 62
     7
100
AcDbLine
 10
-7.798094
 20
-1.411913
 30
0.0
 11
-7.798094
 21
-1.56844
 31
0.0
  0
LINE
  5
236
100
AcDbEntity
  8
0
  6
CONTINUOUS
 62
     7
100
AcDbLine
 10
-7.828079
 20
0.272949
 30
0.0
 11
-7.828079
 21
0.116438
 31
0.0
  0
LINE
  5
237
100
AcDbEntity
  8
0
  6
CONTINUOUS
 62
     7
100
AcDbLine
 10
-7.828079
 20
-0.040089
 30
0.0
 11
-7.828079
 21
-0.251833
 31
0.0
  0
LINE
  5
238
100
AcDbEntity
  8
0
  6
CONTINUOUS
 62
     7
100
AcDbLine
 10
-7.828079
 20
-1.04365
 30
0.0
 11
-7.828079
 21
-1.255402
 31
0.0
  0
LINE
  5
239
100
AcDbEntity
  8
0
  6
CONTINUOUS
 62
     7
100
AcDbLine
 10
-7.828079
 20
-1.411913
 30
0.0
 11
-7.828079
 21
-1.56844
 31
0.0
  0
LINE
  5
23A
100
AcDbEntity
  8
0
  6
CONTINUOUS
 62
     7
100
AcDbLine
 10
-7.858074
 20
0.272949
 30
0.0
 11
-7.858074
 21
0.116438
 31
0.0
  0
LINE
  5
23B
100
AcDbEntity
  8
0
  6
CONTINUOUS
 62
     7
100
AcDbLine
 10
-7.858074
 20
-0.040089
 30
0.0
 11
-7.858074
 21
-0.251833
 31
0.0
  0
LINE
  5
23C
100
AcDbEntity
  8
0
  6
CONTINUOUS
 62
     7
100
AcDbLine
 10
-7.858074
 20
-1.04365
 30
0.0
 11
-7.858074
 21
-1.255402
 31
0.0
  0
LINE
  5
23D
100
AcDbEntity
  8
0
  6
CONTINUOUS
 62
     7
100
AcDbLine
 10
-7.858074
 20
-1.411913
 30
0.0
 11
-7.858074
 21
-1.56844
 31
0.0
  0
LINE
  5
23E
100
AcDbEntity
  8
0
  6
CONTINUOUS
 62
     7
100
AcDbLine
 10
-7.888041
 20
0.272949
 30
0.0
 11
-7.888041
 21
0.116438
 31
0.0
  0
LINE
  5
23F
100
AcDbEntity
  8
0
  6
CONTINUOUS
 62
     7
100
AcDbLine
 10
-7.888041
 20
-0.040089
 30
0.0
 11
-7.888041
 21
-0.251833
 31
0.0
  0
LINE
  5
240
100
AcDbEntity
  8
0
  6
CONTINUOUS
 62
     7
100
AcDbLine
 10
-7.888041
 20
-1.04365
 30
0.0
 11
-7.888041
 21
-1.255402
 31
0.0
  0
LINE
  5
241
100
AcDbEntity
  8
0
  6
CONTINUOUS
 62
     7
100
AcDbLine
 10
-7.888041
 20
-1.411913
 30
0.0
 11
-7.888041
 21
-1.56844
 31
0.0
  0
LINE
  5
242
100
AcDbEntity
  8
0
  6
CONTINUOUS
 62
     7
100
AcDbLine
 10
-7.918007
 20
0.272949
 30
0.0
 11
-7.918007
 21
0.116438
 31
0.0
  0
LINE
  5
243
100
AcDbEntity
  8
0
  6
CONTINUOUS
 62
     7
100
AcDbLine
 10
-7.918007
 20
-0.040089
 30
0.0
 11
-7.918007
 21
-0.251839
 31
0.0
  0
LINE
  5
244
100
AcDbEntity
  8
0
  6
CONTINUOUS
 62
     7
100
AcDbLine
 10
-7.918007
 20
-1.04365
 30
0.0
 11
-7.918007
 21
-1.255402
 31
0.0
  0
LINE
  5
245
100
AcDbEntity
  8
0
  6
CONTINUOUS
 62
     7
100
AcDbLine
 10
-7.918007
 20
-1.411913
 30
0.0
 11
-7.918007
 21
-1.56844
 31
0.0
  0
LINE
  5
246
100
AcDbEntity
  8
0
  6
CONTINUOUS
 62
     7
100
AcDbLine
 10
-7.947985
 20
0.272949
 30
0.0
 11
-7.947985
 21
0.116438
 31
0.0
  0
LINE
  5
247
100
AcDbEntity
  8
0
  6
CONTINUOUS
 62
     7
100
AcDbLine
 10
-7.947985
 20
-0.040089
 30
0.0
 11
-7.947985
 21
-0.251833
 31
0.0
  0
LINE
  5
248
100
AcDbEntity
  8
0
  6
CONTINUOUS
 62
     7
100
AcDbLine
 10
-7.947985
 20
-1.04365
 30
0.0
 11
-7.947985
 21
-1.255402
 31
0.0
  0
LINE
  5
249
100
AcDbEntity
  8
0
  6
CONTINUOUS
 62
     7
100
AcDbLine
 10
-7.947985
 20
-1.411913
 30
0.0
 11
-7.947985
 21
-1.56844
 31
0.0
  0
LINE
  5
24A
100
AcDbEntity
  8
0
  6
CONTINUOUS
 62
     7
100
AcDbLine
 10
-8.21779
 20
0.272949
 30
0.0
 11
-8.21779
 21
0.116438
 31
0.0
  0
LINE
  5
24B
100
AcDbEntity
  8
0
  6
CONTINUOUS
 62
     7
100
AcDbLine
 10
-8.21779
 20
-0.040089
 30
0.0
 11
-8.21779
 21
-0.251839
 31
0.0
  0
LINE
  5
24C
100
AcDbEntity
  8
0
  6
CONTINUOUS
 62
     7
100
AcDbLine
 10
-8.21779
 20
-1.04365
 30
0.0
 11
-8.21779
 21
-1.255402
 31
0.0
  0
LINE
  5
24D
100
AcDbEntity
  8
0
  6
CONTINUOUS
 62
     7
100
AcDbLine
 10
-8.21779
 20
-1.411913
 30
0.0
 11
-8.21779
 21
-1.56844
 31
0.0
  0
LINE
  5
24E
100
AcDbEntity
  8
0
  6
CONTINUOUS
 62
     7
100
AcDbLine
 10
-8.247738
 20
0.272949
 30
0.0
 11
-8.247738
 21
0.116438
 31
0.0
  0
LINE
  5
24F
100
AcDbEntity
  8
0
  6
CONTINUOUS
 62
     7
100
AcDbLine
 10
-8.247738
 20
-0.040089
 30
0.0
 11
-8.247738
 21
-0.251839
 31
0.0
  0
LINE
  5
250
100
AcDbEntity
  8
0
  6
CONTINUOUS
 62
     7
100
AcDbLine
 10
-8.247738
 20
-1.04365
 30
0.0
 11
-8.247738
 21
-1.255413
 31
0.0
  0
LINE
  5
251
100
AcDbEntity
  8
0
  6
CONTINUOUS
 62
     7
100
AcDbLine
 10
-8.247738
 20
-1.411921
 30
0.0
 11
-8.247738
 21
-1.568451
 31
0.0
  0
LINE
  5
252
100
AcDbEntity
  8
0
  6
CONTINUOUS
 62
     7
100
AcDbLine
 10
-8.277723
 20
0.272949
 30
0.0
 11
-8.277723
 21
0.116438
 31
0.0
  0
LINE
  5
253
100
AcDbEntity
  8
0
  6
CONTINUOUS
 62
     7
100
AcDbLine
 10
-8.277723
 20
-0.040089
 30
0.0
 11
-8.277723
 21
-0.251839
 31
0.0
  0
LINE
  5
254
100
AcDbEntity
  8
0
  6
CONTINUOUS
 62
     7
100
AcDbLine
 10
-8.277723
 20
-1.04365
 30
0.0
 11
-8.277723
 21
-1.255413
 31
0.0
  0
LINE
  5
255
100
AcDbEntity
  8
0
  6
CONTINUOUS
 62
     7
100
AcDbLine
 10
-8.277723
 20
-1.411921
 30
0.0
 11
-8.277723
 21
-1.568451
 31
0.0
  0
LINE
  5
256
100
AcDbEntity
  8
0
  6
CONTINUOUS
 62
     7
100
AcDbLine
 10
-8.3077
 20
0.272949
 30
0.0
 11
-8.3077
 21
0.116438
 31
0.0
  0
LINE
  5
257
100
AcDbEntity
  8
0
  6
CONTINUOUS
 62
     7
100
AcDbLine
 10
-8.3077
 20
-0.040089
 30
0.0
 11
-8.3077
 21
-0.251839
 31
0.0
  0
LINE
  5
258
100
AcDbEntity
  8
0
  6
CONTINUOUS
 62
     7
100
AcDbLine
 10
-8.3077
 20
-1.04365
 30
0.0
 11
-8.3077
 21
-1.255402
 31
0.0
  0
LINE
  5
259
100
AcDbEntity
  8
0
  6
CONTINUOUS
 62
     7
100
AcDbLine
 10
-8.3077
 20
-1.411913
 30
0.0
 11
-8.3077
 21
-1.56844
 31
0.0
  0
LINE
  5
25A
100
AcDbEntity
  8
0
  6
CONTINUOUS
 62
     7
100
AcDbLine
 10
-5.766886
 20
-0.199101
 30
0.0
 11
-5.766886
 21
-0.359169
 31
0.0
  0
LINE
  5
25B
100
AcDbEntity
  8
0
  6
CONTINUOUS
 62
     7
100
AcDbLine
 10
-5.766886
 20
-0.468437
 30
0.0
 11
-5.766886
 21
-0.827045
 31
0.0
  0
LINE
  5
25C
100
AcDbEntity
  8
0
  6
CONTINUOUS
 62
     7
100
AcDbLine
 10
-5.808966
 20
-0.838821
 30
0.0
 11
-5.808966
 21
-0.719069
 31
0.0
  0
LINE
  5
25D
100
AcDbEntity
  8
0
  6
CONTINUOUS
 62
     7
100
AcDbLine
 10
-5.808966
 20
-0.576408
 30
0.0
 11
-5.808966
 21
-0.456673
 31
0.0
  0
LINE
  5
25E
100
AcDbEntity
  8
0
  6
CONTINUOUS
 62
     7
100
AcDbLine
 10
-5.808966
 20
-0.307066
 30
0.0
 11
-5.808966
 21
-0.187336
 31
0.0
  0
LINE
  5
25F
100
AcDbEntity
  8
0
  6
CONTINUOUS
 62
     7
100
AcDbLine
 10
-5.851036
 20
-0.186028
 30
0.0
 11
-5.851036
 21
-0.301445
 31
0.0
  0
LINE
  5
260
100
AcDbEntity
  8
0
  6
CONTINUOUS
 62
     7
100
AcDbLine
 10
-5.851036
 20
-0.455358
 30
0.0
 11
-5.851036
 21
-0.570787
 31
0.0
  0
LINE
  5
261
100
AcDbEntity
  8
0
  6
CONTINUOUS
 62
     7
100
AcDbLine
 10
-5.851036
 20
-0.724701
 30
0.0
 11
-5.851036
 21
-0.840132
 31
0.0
  0
LINE
  5
262
100
AcDbEntity
  8
0
  6
CONTINUOUS
 62
     7
100
AcDbLine
 10
-5.893116
 20
-0.840132
 30
0.0
 11
-5.893116
 21
-0.724701
 31
0.0
  0
LINE
  5
263
100
AcDbEntity
  8
0
  6
CONTINUOUS
 62
     7
100
AcDbLine
 10
-5.893116
 20
-0.570787
 30
0.0
 11
-5.893116
 21
-0.455358
 31
0.0
  0
LINE
  5
264
100
AcDbEntity
  8
0
  6
CONTINUOUS
 62
     7
100
AcDbLine
 10
-5.893116
 20
-0.301445
 30
0.0
 11
-5.893116
 21
-0.186028
 31
0.0
  0
LINE
  5
265
100
AcDbEntity
  8
0
  6
CONTINUOUS
 62
     7
100
AcDbLine
 10
-5.935205
 20
-0.186028
 30
0.0
 11
-5.935205
 21
-0.301445
 31
0.0
  0
LINE
  5
266
100
AcDbEntity
  8
0
  6
CONTINUOUS
 62
     7
100
AcDbLine
 10
-5.935205
 20
-0.455358
 30
0.0
 11
-5.935205
 21
-0.570787
 31
0.0
  0
LINE
  5
267
100
AcDbEntity
  8
0
  6
CONTINUOUS
 62
     7
100
AcDbLine
 10
-5.935205
 20
-0.724701
 30
0.0
 11
-5.935205
 21
-0.840132
 31
0.0
  0
LINE
  5
268
100
AcDbEntity
  8
0
  6
CONTINUOUS
 62
     7
100
AcDbLine
 10
-5.977276
 20
-0.840132
 30
0.0
 11
-5.977276
 21
-0.724701
 31
0.0
  0
LINE
  5
269
100
AcDbEntity
  8
0
  6
CONTINUOUS
 62
     7
100
AcDbLine
 10
-5.977276
 20
-0.570787
 30
0.0
 11
-5.977276
 21
-0.455358
 31
0.0
  0
LINE
  5
26A
100
AcDbEntity
  8
0
  6
CONTINUOUS
 62
     7
100
AcDbLine
 10
-5.977276
 20
-0.301445
 30
0.0
 11
-5.977276
 21
-0.186028
 31
0.0
  0
LINE
  5
26B
100
AcDbEntity
  8
0
  6
CONTINUOUS
 62
     7
100
AcDbLine
 10
-6.019357
 20
-0.186014
 30
0.0
 11
-6.019357
 21
-0.301445
 31
0.0
  0
LINE
  5
26C
100
AcDbEntity
  8
0
  6
CONTINUOUS
 62
     7
100
AcDbLine
 10
-6.019357
 20
-0.455358
 30
0.0
 11
-6.019357
 21
-0.570787
 31
0.0
  0
LINE
  5
26D
100
AcDbEntity
  8
0
  6
CONTINUOUS
 62
     7
100
AcDbLine
 10
-6.019357
 20
-0.724701
 30
0.0
 11
-6.019357
 21
-0.840132
 31
0.0
  0
LINE
  5
26E
100
AcDbEntity
  8
0
  6
CONTINUOUS
 62
     7
100
AcDbLine
 10
-8.637449
 20
0.272949
 30
0.0
 11
-8.637449
 21
-1.56844
 31
0.0
  0
LINE
  5
26F
100
AcDbEntity
  8
0
  6
CONTINUOUS
 62
     7
100
AcDbLine
 10
-8.607454
 20
0.272949
 30
0.0
 11
-8.607454
 21
-1.568451
 31
0.0
  0
LINE
  5
270
100
AcDbEntity
  8
0
  6
CONTINUOUS
 62
     7
100
AcDbLine
 10
-8.577487
 20
0.272949
 30
0.0
 11
-8.577487
 21
-1.568451
 31
0.0
  0
LINE
  5
271
100
AcDbEntity
  8
0
  6
CONTINUOUS
 62
     7
100
AcDbLine
 10
-6.838859
 20
0.272957
 30
0.0
 11
-6.838859
 21
-1.56844
 31
0.0
  0
LINE
  5
272
100
AcDbEntity
  8
0
  6
CONTINUOUS
 62
     7
100
AcDbLine
 10
-6.868854
 20
0.272949
 30
0.0
 11
-6.868854
 21
-1.56844
 31
0.0
  0
LINE
  5
273
100
AcDbEntity
  8
0
  6
CONTINUOUS
 62
     7
100
AcDbLine
 10
-6.898821
 20
0.272949
 30
0.0
 11
-6.898821
 21
-1.56844
 31
0.0
  0
LINE
  5
274
100
AcDbEntity
  8
0
  6
CONTINUOUS
 62
     7
100
AcDbLine
 10
-6.928787
 20
0.272949
 30
0.0
 11
-6.928787
 21
-1.568451
 31
0.0
  0
LINE
  5
275
100
AcDbEntity
  8
0
  6
CONTINUOUS
 62
     7
100
AcDbLine
 10
-6.958765
 20
0.272949
 30
0.0
 11
-6.958765
 21
-1.568451
 31
0.0
  0
LINE
  5
276
100
AcDbEntity
  8
0
  6
CONTINUOUS
 62
     7
100
AcDbLine
 10
-7.348448
 20
0.272949
 30
0.0
 11
-7.348448
 21
0.116438
 31
0.0
  0
LINE
  5
277
100
AcDbEntity
  8
0
  6
CONTINUOUS
 62
     7
100
AcDbLine
 10
-7.348448
 20
-0.040089
 30
0.0
 11
-7.348448
 21
-1.255402
 31
0.0
  0
LINE
  5
278
100
AcDbEntity
  8
0
  6
CONTINUOUS
 62
     7
100
AcDbLine
 10
-7.348448
 20
-1.411913
 30
0.0
 11
-7.348448
 21
-1.568451
 31
0.0
  0
LINE
  5
279
100
AcDbEntity
  8
0
  6
CONTINUOUS
 62
     7
100
AcDbLine
 10
-7.318482
 20
0.272949
 30
0.0
 11
-7.318482
 21
0.116438
 31
0.0
  0
LINE
  5
27A
100
AcDbEntity
  8
0
  6
CONTINUOUS
 62
     7
100
AcDbLine
 10
-7.318482
 20
-0.040089
 30
0.0
 11
-7.318482
 21
-1.255402
 31
0.0
  0
LINE
  5
27B
100
AcDbEntity
  8
0
  6
CONTINUOUS
 62
     7
100
AcDbLine
 10
-7.318482
 20
-1.411921
 30
0.0
 11
-7.318482
 21
-1.568451
 31
0.0
  0
LINE
  5
27C
100
AcDbEntity
  8
0
  6
CONTINUOUS
 62
     7
100
AcDbLine
 10
-8.547521
 20
0.272949
 30
0.0
 11
-8.547521
 21
-1.568451
 31
0.0
  0
LINE
  5
27D
100
AcDbEntity
  8
0
  6
CONTINUOUS
 62
     7
100
AcDbLine
 10
-8.517544
 20
0.272949
 30
0.0
 11
-8.517544
 21
-1.568451
 31
0.0
  0
LINE
  5
27E
100
AcDbEntity
  8
0
  6
CONTINUOUS
 62
     7
100
AcDbLine
 10
-8.487578
 20
0.272949
 30
0.0
 11
-8.487578
 21
0.116438
 31
0.0
  0
LINE
  5
27F
100
AcDbEntity
  8
0
  6
CONTINUOUS
 62
     7
100
AcDbLine
 10
-8.487578
 20
-1.411921
 30
0.0
 11
-8.487578
 21
-1.568451
 31
0.0
  0
LINE
  5
280
100
AcDbEntity
  8
0
  6
CONTINUOUS
 62
     7
100
AcDbLine
 10
-6.988731
 20
0.272949
 30
0.0
 11
-6.988731
 21
0.116438
 31
0.0
  0
LINE
  5
281
100
AcDbEntity
  8
0
  6
CONTINUOUS
 62
     7
100
AcDbLine
 10
-6.988731
 20
-1.411921
 30
0.0
 11
-6.988731
 21
-1.568451
 31
0.0
  0
LINE
  5
282
100
AcDbEntity
  8
0
  6
CONTINUOUS
 62
     7
100
AcDbLine
 10
-7.018717
 20
0.272949
 30
0.0
 11
-7.018717
 21
0.116438
 31
0.0
  0
LINE
  5
283
100
AcDbEntity
  8
0
  6
CONTINUOUS
 62
     7
100
AcDbLine
 10
-7.018717
 20
-1.411913
 30
0.0
 11
-7.018717
 21
-1.56844
 31
0.0
  0
LINE
  5
284
100
AcDbEntity
  8
0
  6
CONTINUOUS
 62
     7
100
AcDbLine
 10
-7.048712
 20
0.272949
 30
0.0
 11
-7.048712
 21
0.116438
 31
0.0
  0
LINE
  5
285
100
AcDbEntity
  8
0
  6
CONTINUOUS
 62
     7
100
AcDbLine
 10
-7.048712
 20
-1.411913
 30
0.0
 11
-7.048712
 21
-1.56844
 31
0.0
  0
LINE
  5
286
100
AcDbEntity
  8
0
  6
CONTINUOUS
 62
     7
100
AcDbLine
 10
-7.078661
 20
0.272949
 30
0.0
 11
-7.078661
 21
0.116438
 31
0.0
  0
LINE
  5
287
100
AcDbEntity
  8
0
  6
CONTINUOUS
 62
     7
100
AcDbLine
 10
-7.078661
 20
-1.411913
 30
0.0
 11
-7.078661
 21
-1.56844
 31
0.0
  0
LINE
  5
288
100
AcDbEntity
  8
0
  6
CONTINUOUS
 62
     7
100
AcDbLine
 10
-7.108646
 20
0.272949
 30
0.0
 11
-7.108646
 21
0.116438
 31
0.0
  0
LINE
  5
289
100
AcDbEntity
  8
0
  6
CONTINUOUS
 62
     7
100
AcDbLine
 10
-7.108646
 20
-1.411921
 30
0.0
 11
-7.108646
 21
-1.568451
 31
0.0
  0
LINE
  5
28A
100
AcDbEntity
  8
0
  6
CONTINUOUS
 62
     7
100
AcDbLine
 10
-8.367662
 20
0.272949
 30
0.0
 11
-8.367662
 21
0.116438
 31
0.0
  0
LINE
  5
28B
100
AcDbEntity
  8
0
  6
CONTINUOUS
 62
     7
100
AcDbLine
 10
-8.367662
 20
-1.411921
 30
0.0
 11
-8.367662
 21
-1.568451
 31
0.0
  0
LINE
  5
28C
100
AcDbEntity
  8
0
  6
CONTINUOUS
 62
     7
100
AcDbLine
 10
-8.397629
 20
0.272949
 30
0.0
 11
-8.397629
 21
0.116438
 31
0.0
  0
LINE
  5
28D
100
AcDbEntity
  8
0
  6
CONTINUOUS
 62
     7
100
AcDbLine
 10
-8.397629
 20
-1.411921
 30
0.0
 11
-8.397629
 21
-1.568451
 31
0.0
  0
LINE
  5
28E
100
AcDbEntity
  8
0
  6
CONTINUOUS
 62
     7
100
AcDbLine
 10
-8.427596
 20
0.272949
 30
0.0
 11
-8.427596
 21
0.116438
 31
0.0
  0
LINE
  5
28F
100
AcDbEntity
  8
0
  6
CONTINUOUS
 62
     7
100
AcDbLine
 10
-8.427596
 20
-1.411921
 30
0.0
 11
-8.427596
 21
-1.568451
 31
0.0
  0
LINE
  5
290
100
AcDbEntity
  8
0
  6
CONTINUOUS
 62
     7
100
AcDbLine
 10
-8.457582
 20
0.272949
 30
0.0
 11
-8.457582
 21
0.116438
 31
0.0
  0
LINE
  5
291
100
AcDbEntity
  8
0
  6
CONTINUOUS
 62
     7
100
AcDbLine
 10
-8.457582
 20
-1.411921
 30
0.0
 11
-8.457582
 21
-1.568451
 31
0.0
  0
LINE
  5
292
100
AcDbEntity
  8
0
  6
CONTINUOUS
 62
     7
100
AcDbLine
 10
-6.061428
 20
-0.840132
 30
0.0
 11
-6.061428
 21
-0.724701
 31
0.0
  0
LINE
  5
293
100
AcDbEntity
  8
0
  6
CONTINUOUS
 62
     7
100
AcDbLine
 10
-6.061428
 20
-0.570787
 30
0.0
 11
-6.061428
 21
-0.455358
 31
0.0
  0
LINE
  5
294
100
AcDbEntity
  8
0
  6
CONTINUOUS
 62
     7
100
AcDbLine
 10
-6.061428
 20
-0.301445
 30
0.0
 11
-6.061428
 21
-0.186014
 31
0.0
  0
LINE
  5
295
100
AcDbEntity
  8
0
  6
CONTINUOUS
 62
     7
100
AcDbLine
 10
-6.103508
 20
-0.186014
 30
0.0
 11
-6.103508
 21
-0.301445
 31
0.0
  0
LINE
  5
296
100
AcDbEntity
  8
0
  6
CONTINUOUS
 62
     7
100
AcDbLine
 10
-6.103508
 20
-0.455358
 30
0.0
 11
-6.103508
 21
-0.570787
 31
0.0
  0
LINE
  5
297
100
AcDbEntity
  8
0
  6
CONTINUOUS
 62
     7
100
AcDbLine
 10
-6.103508
 20
-0.724701
 30
0.0
 11
-6.103508
 21
-0.840132
 31
0.0
  0
LINE
  5
298
100
AcDbEntity
  8
0
  6
CONTINUOUS
 62
     7
100
AcDbLine
 10
-6.145597
 20
-0.840132
 30
0.0
 11
-6.145597
 21
-0.724701
 31
0.0
  0
LINE
  5
299
100
AcDbEntity
  8
0
  6
CONTINUOUS
 62
     7
100
AcDbLine
 10
-6.145597
 20
-0.570787
 30
0.0
 11
-6.145597
 21
-0.455358
 31
0.0
  0
LINE
  5
29A
100
AcDbEntity
  8
0
  6
CONTINUOUS
 62
     7
100
AcDbLine
 10
-6.145597
 20
-0.301445
 30
0.0
 11
-6.145597
 21
-0.186014
 31
0.0
  0
LINE
  5
29B
100
AcDbEntity
  8
0
  6
CONTINUOUS
 62
     7
100
AcDbLine
 10
-6.187668
 20
-0.186014
 30
0.0
 11
-6.187668
 21
-0.301445
 31
0.0
  0
LINE
  5
29C
100
AcDbEntity
  8
0
  6
CONTINUOUS
 62
     7
100
AcDbLine
 10
-6.187668
 20
-0.455358
 30
0.0
 11
-6.187668
 21
-0.570787
 31
0.0
  0
LINE
  5
29D
100
AcDbEntity
  8
0
  6
CONTINUOUS
 62
     7
100
AcDbLine
 10
-6.187668
 20
-0.724701
 30
0.0
 11
-6.187668
 21
-0.840132
 31
0.0
  0
LINE
  5
29E
100
AcDbEntity
  8
0
  6
CONTINUOUS
 62
     7
100
AcDbLine
 10
-6.229748
 20
-0.840132
 30
0.0
 11
-6.229748
 21
-0.724701
 31
0.0
  0
LINE
  5
29F
100
AcDbEntity
  8
0
  6
CONTINUOUS
 62
     7
100
AcDbLine
 10
-6.229748
 20
-0.570787
 30
0.0
 11
-6.229748
 21
-0.455358
 31
0.0
  0
LINE
  5
2A0
100
AcDbEntity
  8
0
  6
CONTINUOUS
 62
     7
100
AcDbLine
 10
-6.229748
 20
-0.301445
 30
0.0
 11
-6.229748
 21
-0.186014
 31
0.0
  0
LINE
  5
2A1
100
AcDbEntity
  8
0
  6
CONTINUOUS
 62
     7
100
AcDbLine
 10
-6.27182
 20
-0.186014
 30
0.0
 11
-6.27182
 21
-0.301445
 31
0.0
  0
LINE
  5
2A2
100
AcDbEntity
  8
0
  6
CONTINUOUS
 62
     7
100
AcDbLine
 10
-6.27182
 20
-0.455358
 30
0.0
 11
-6.27182
 21
-0.570787
 31
0.0
  0
LINE
  5
2A3
100
AcDbEntity
  8
0
  6
CONTINUOUS
 62
     7
100
AcDbLine
 10
-6.27182
 20
-0.724701
 30
0.0
 11
-6.27182
 21
-0.840132
 31
0.0
  0
LINE
  5
2A4
100
AcDbEntity
  8
0
  6
CONTINUOUS
 62
     7
100
AcDbLine
 10
-6.31391
 20
-0.838369
 30
0.0
 11
-6.31391
 21
-0.716921
 31
0.0
  0
LINE
  5
2A5
100
AcDbEntity
  8
0
  6
CONTINUOUS
 62
     7
100
AcDbLine
 10
-6.31391
 20
-0.569033
 30
0.0
 11
-6.31391
 21
-0.44759
 31
0.0
  0
LINE
  5
2A6
100
AcDbEntity
  8
0
  6
CONTINUOUS
 62
     7
100
AcDbLine
 10
-6.31391
 20
-0.309206
 30
0.0
 11
-6.31391
 21
-0.187771
 31
0.0
  0
LINE
  5
2A7
100
AcDbEntity
  8
0
  6
CONTINUOUS
 62
     7
100
AcDbLine
 10
-6.35599
 20
-0.200535
 30
0.0
 11
-6.35599
 21
-0.556261
 31
0.0
  0
LINE
  5
2A8
100
AcDbEntity
  8
0
  6
CONTINUOUS
 62
     7
100
AcDbLine
 10
-6.35599
 20
-0.666977
 30
0.0
 11
-6.35599
 21
-0.825604
 31
0.0
  0
LINE
  5
2A9
100
AcDbEntity
  8
0
  6
CONTINUOUS
 62
     7
100
AcDbLine
 10
-6.39806
 20
-0.796513
 30
0.0
 11
-6.39806
 21
-0.666977
 31
0.0
  0
LINE
  5
2AA
100
AcDbEntity
  8
0
  6
CONTINUOUS
 62
     7
100
AcDbLine
 10
-6.39806
 20
-0.527168
 30
0.0
 11
-6.39806
 21
-0.229628
 31
0.0
  0
LINE
  5
2AB
100
AcDbEntity
  8
0
  6
CONTINUOUS
 62
     7
100
AcDbLine
 10
-6.44014
 20
-0.302929
 30
0.0
 11
-6.44014
 21
-0.453829
 31
0.0
  0
LINE
  5
2AC
100
AcDbEntity
  8
0
  6
CONTINUOUS
 62
     7
100
AcDbLine
 10
-6.44014
 20
-0.673849
 30
0.0
 11
-6.44014
 21
-0.723171
 31
0.0
  0
ENDBLK
  5
2AE
100
AcDbEntity
  8
0
100
AcDbBlockEnd
  0
BLOCK
  5
2C9
100
AcDbEntity
  8
0
100
AcDbBlockBegin
  2
M_PFN_2
 70
     0
 10
0.0
 20
0.0
 30
0.0
  3
M_PFN_2
  1

  0
POINT
  5
2CA
100
AcDbEntity
  8
0
  6
BYBLOCK
 62
     0
100
AcDbPoint
 10
0.0
 20
0.0
 30
0.0
  0
ENDBLK
  5
4CB
100
AcDbEntity
  8
0
100
AcDbBlockEnd
  0
BLOCK
  5
2D6
100
AcDbEntity
  8
0
100
AcDbBlockBegin
  2
M_PFN_101
 70
     0
 10
0.0
 20
0.0
 30
0.0
  3
M_PFN_101
  1

  0
SOLID
  5
2D7
100
AcDbEntity
  8
0
  6
BYBLOCK
 62
     0
100
AcDbTrace
 10
0.068898
 20
0.016265
 30
0.0
 11
0.068898
 21
-0.016265
 31
0.0
 12
0.0
 22
0.0
 32
0.0
 13
0.0
 23
0.0
 33
0.0
  0
ENDBLK
  5
4E3
100
AcDbEntity
  8
0
100
AcDbBlockEnd
  0
BLOCK
  5
2DC
100
AcDbEntity
  8
0
100
AcDbBlockBegin
  2
M_PFN_100
 70
     0
 10
0.0
 20
0.0
 30
0.0
  3
M_PFN_100
  1

  0
SOLID
  5
2DD
100
AcDbEntity
  8
0
  6
BYBLOCK
 62
     0
100
AcDbTrace
 10
-0.068898
 20
0.016265
 30
0.0
 11
-0.068898
 21
-0.016265
 31
0.0
 12
0.0
 22
0.0
 32
0.0
 13
0.0
 23
0.0
 33
0.0
  0
ENDBLK
  5
4D5
100
AcDbEntity
  8
0
100
AcDbBlockEnd
  0
BLOCK
  5
463
100
AcDbEntity
  8
0
100
AcDbBlockBegin
  2
M_PFN_4
 70
     0
 10
0.0
 20
0.0
 30
0.0
  3
M_PFN_4
  1

  0
POINT
  5
464
100
AcDbEntity
  8
0
  6
BYBLOCK
 62
     0
100
AcDbPoint
 10
0.0
 20
0.0
 30
0.0
  0
ENDBLK
  5
469
100
AcDbEntity
  8
0
100
AcDbBlockEnd
  0
BLOCK
  5
5D8
100
AcDbEntity
  8
0
 62
     0
100
AcDbBlockBegin
  2
LAYERS
 70
     0
 10
0.0
 20
0.0
 30
0.0
  3
LAYERS
  1

  0
LINE
  5
5BE
100
AcDbEntity
  8
DOT3
100
AcDbLine
 10
15.728102
 20
-20.191846
 30
0.0
 11
33.963642
 21
-20.191846
 31
0.0
  0
LINE
  5
5BF
100
AcDbEntity
  8
HATCH
100
AcDbLine
 10
15.728102
 20
-40.191846
 30
0.0
 11
33.963642
 21
-40.191846
 31
0.0
  0
LINE
  5
5C0
100
AcDbEntity
  8
HIDDEN1
100
AcDbLine
 10
15.728102
 20
-60.191846
 30
0.0
 11
33.963642
 21
-60.191846
 31
0.0
  0
LINE
  5
5C1
100
AcDbEntity
  8
HIDDEN2
100
AcDbLine
 10
15.728102
 20
-80.191846
 30
0.0
 11
33.963642
 21
-80.191846
 31
0.0
  0
LINE
  5
5C2
100
AcDbEntity
  8
HIDDEN3
100
AcDbLine
 10
15.728102
 20
-100.191846
 30
0.0
 11
33.963642
 21
-100.191846
 31
0.0
  0
LINE
  5
5C3
100
AcDbEntity
  8
BORDER
100
AcDbLine
 10
-40.642757
 20
-20.191846
 30
0.0
 11
-22.407217
 21
-20.191846
 31
0.0
  0
LINE
  5
5C4
100
AcDbEntity
  8
CENTER1
100
AcDbLine
 10
-40.642757
 20
-40.191846
 30
0.0
 11
-22.407217
 21
-40.191846
 31
0.0
  0
LINE
  5
5C5
100
AcDbEntity
  8
CENTER2
100
AcDbLine
 10
-40.642757
 20
-60.191846
 30
0.0
 11
-22.407217
 21
-60.191846
 31
0.0
  0
LINE
  5
5C6
100
AcDbEntity
  8
CENTER3
100
AcDbLine
 10
-40.642757
 20
-80.191846
 30
0.0
 11
-22.407217
 21
-80.191846
 31
0.0
  0
LINE
  5
5C7
100
AcDbEntity
  8
DASHDOT1
100
AcDbLine
 10
-40.642757
 20
-100.191846
 30
0.0
 11
-22.407217
 21
-100.191846
 31
0.0
  0
LINE
  5
5C8
100
AcDbEntity
  8
DOT1
100
AcDbLine
 10
-11.897776
 20
-80.191846
 30
0.0
 11
6.337764
 21
-80.191846
 31
0.0
  0
LINE
  5
5C9
100
AcDbEntity
  8
DOT2
100
AcDbLine
 10
-11.897776
 20
-100.191846
 30
0.0
 11
6.337764
 21
-100.191846
 31
0.0
  0
LINE
  5
5CA
100
AcDbEntity
  8
DASHDOT2
100
AcDbLine
 10
-11.897776
 20
-20.191846
 30
0.0
 11
6.337764
 21
-20.191846
 31
0.0
  0
LINE
  5
5CB
100
AcDbEntity
  8
DASHDOT3
100
AcDbLine
 10
-11.897776
 20
-40.191846
 30
0.0
 11
6.337764
 21
-40.191846
 31
0.0
  0
LINE
  5
5CC
100
AcDbEntity
  8
DIM
100
AcDbLine
 10
-11.897776
 20
-60.191846
 30
0.0
 11
6.337764
 21
-60.191846
 31
0.0
  0
LINE
  5
5CD
100
AcDbEntity
  8
OBJECT2
100
AcDbLine
 10
43.074203
 20
-80.191846
 30
0.0
 11
61.309743
 21
-80.191846
 31
0.0
  0
LINE
  5
5CE
100
AcDbEntity
  8
OBJECT3
100
AcDbLine
 10
43.074203
 20
-100.191846
 30
0.0
 11
61.309743
 21
-100.191846
 31
0.0
  0
LINE
  5
5CF
100
AcDbEntity
  8
TEXT1
100
AcDbLine
 10
70.700077
 20
-80.191846
 30
0.0
 11
88.935617
 21
-80.191846
 31
0.0
  0
LINE
  5
5D0
100
AcDbEntity
  8
TEXT2
100
AcDbLine
 10
70.700077
 20
-100.191846
 30
0.0
 11
88.935617
 21
-100.191846
 31
0.0
  0
LINE
  5
5D1
100
AcDbEntity
  8
MFG
100
AcDbLine
 10
43.074203
 20
-20.191846
 30
0.0
 11
61.309743
 21
-20.191846
 31
0.0
  0
LINE
  5
5D2
100
AcDbEntity
  8
MFGTEXT
100
AcDbLine
 10
43.074203
 20
-40.191846
 30
0.0
 11
61.309743
 21
-40.191846
 31
0.0
  0
LINE
  5
5D3
100
AcDbEntity
  8
OBJECT1
100
AcDbLine
 10
43.074203
 20
-60.191846
 30
0.0
 11
61.309743
 21
-60.191846
 31
0.0
  0
LINE
  5
5D4
100
AcDbEntity
  8
PHANTOM3
100
AcDbLine
 10
70.700077
 20
-60.191846
 30
0.0
 11
88.935617
 21
-60.191846
 31
0.0
  0
LINE
  5
5D5
100
AcDbEntity
  8
PHANTOM1
100
AcDbLine
 10
70.700077
 20
-20.191846
 30
0.0
 11
88.935617
 21
-20.191846
 31
0.0
  0
LINE
  5
5D6
100
AcDbEntity
  8
PHANTOM2
100
AcDbLine
 10
70.700077
 20
-40.191846
 30
0.0
 11
88.935617
 21
-40.191846
 31
0.0
  0
LINE
  5
5D7
100
AcDbEntity
  8
TEXT3
100
AcDbLine
 10
98.325951
 20
-20.191846
 30
0.0
 11
116.561491
 21
-20.191846
 31
0.0
  0
ENDBLK
  5
5D9
100
AcDbEntity
  8
0
 62
     0
100
AcDbBlockEnd
  0
ENDSEC
  0
SECTION
  2
ENTITIES
  0
TEXT
  5
341
100
AcDbEntity
  8
DIM
100
AcDbText
 10
21.237909
 20
8.905623
 30
0.0
 40
0.4
  1
A,B,C
 41
0.897713
  7
M_STANDARD
 11
21.237909
 21
9.105623
 31
0.0
100
AcDbText
 73
     2
  0
TEXT
  5
342
100
AcDbEntity
  8
DIM
100
AcDbText
 10
21.237909
 20
17.646467
 30
0.0
 40
0.4
  1
A,B,C
 41
0.897713
  7
M_STANDARD
 11
21.237909
 21
17.846467
 31
0.0
100
AcDbText
 73
     2
  0
TEXT
  5
343
100
AcDbEntity
  8
DIM
100
AcDbText
 10
21.237909
 20
20.482459
 30
0.0
 40
0.4
  1
NO KNOCKOUTS ON
 41
0.899768
  7
M_STANDARD
 11
21.237909
 21
20.682459
 31
0.0
100
AcDbText
 73
     2
  0
TEXT
  5
344
100
AcDbEntity
  8
DIM
100
AcDbText
 10
4.300549
 20
9.032323
 30
0.0
 40
0.4
  1
A,B,C
 41
0.897713
  7
M_STANDARD
 11
4.300549
 21
9.232323
 31
0.0
100
AcDbText
 73
     2
  0
TEXT
  5
345
100
AcDbEntity
  8
DIM
100
AcDbText
 10
21.237909
 20
8.229839
 30
0.0
 40
0.4
  1
KNOCKOUTS
 41
0.899335
  7
M_STANDARD
 11
21.237909
 21
8.429839
 31
0.0
100
AcDbText
 73
     2
  0
TEXT
  5
346
100
AcDbEntity
  8
DIM
100
AcDbText
 10
21.237909
 20
16.970682
 30
0.0
 40
0.4
  1
KNOCKOUTS
 41
0.899335
  7
M_STANDARD
 11
21.237909
 21
17.170682
 31
0.0
100
AcDbText
 73
     2
  0
TEXT
  5
347
100
AcDbEntity
  8
DIM
100
AcDbText
 10
21.237909
 20
19.806675
 30
0.0
 40
0.4
  1
HANDLE SIDE
 41
0.899561
  7
M_STANDARD
 11
21.237909
 21
20.006675
 31
0.0
100
AcDbText
 73
     2
  0
TEXT
  5
348
100
AcDbEntity
  8
DIM
100
AcDbText
 10
4.300549
 20
8.356539
 30
0.0
 40
0.4
  1
KNOCKOUTS
 41
0.899335
  7
M_STANDARD
 11
4.300549
 21
8.556539
 31
0.0
100
AcDbText
 73
     2
  0
LWPOLYLINE
  5
349
100
AcDbEntity
  8
DIM
100
AcDbPolyline
 90
        3
 70
   128
 43
0.0
 10
19.012568
 20
8.174939
 10
20.354709
 20
9.105623
 10
21.104709
 20
9.105623
  0
INSERT
  5
34B
100
AcDbEntity
  8
DIM
100
AcDbBlockReference
  2
M_PFN_101
 10
19.012568
 20
8.174939
 30
0.0
 41
4.0
 42
4.0
 43
4.0
 50
34.73869
  0
LWPOLYLINE
  5
34C
100
AcDbEntity
  8
DIM
100
AcDbPolyline
 90
        3
 70
   128
 43
0.0
 10
19.075516
 20
18.80839
 10
20.354709
 20
17.846467
 10
21.104709
 20
17.846467
  0
INSERT
  5
34E
100
AcDbEntity
  8
DIM
100
AcDbBlockReference
  2
M_PFN_101
 10
19.075516
 20
18.80839
 30
0.0
 41
4.0
 42
4.0
 43
4.0
 50
323.057677
  0
LWPOLYLINE
  5
34F
100
AcDbEntity
  8
DIM
100
AcDbPolyline
 90
        3
 70
   128
 43
0.0
 10
21.104709
 20
20.682459
 10
20.354709
 20
20.682459
 10
18.947277
 20
19.714596
  0
INSERT
  5
351
100
AcDbEntity
  8
DIM
100
AcDbBlockReference
  2
M_PFN_100
 10
18.947277
 20
19.714596
 30
0.0
 41
4.0
 42
4.0
 43
4.0
 50
214.515527
  0
LWPOLYLINE
  5
352
100
AcDbEntity
  8
DIM
100
AcDbPolyline
 90
        3
 70
   128
 43
0.0
 10
-0.665596
 20
7.361736
 10
3.297349
 20
9.232323
 10
4.047349
 20
9.232323
  0
INSERT
  5
354
100
AcDbEntity
  8
DIM
100
AcDbBlockReference
  2
M_PFN_101
 10
-0.665596
 20
7.361736
 30
0.0
 41
4.0
 42
4.0
 43
4.0
 50
25.268222
  0
LWPOLYLINE
  5
355
100
AcDbEntity
  8
DIM
100
AcDbPolyline
 90
        3
 70
   128
 43
0.0
 10
3.396585
 20
20.276306
 10
2.646585
 20
20.276306
 10
1.126266
 20
18.801784
  0
INSERT
  5
357
100
AcDbEntity
  8
DIM
100
AcDbBlockReference
  2
M_PFN_100
 10
1.126266
 20
18.801784
 30
0.0
 41
4.0
 42
4.0
 43
4.0
 50
224.123907
  0
TEXT
  5
358
100
AcDbEntity
  8
DIM
100
AcDbText
 10
-7.839812
 20
-2.028401
 30
0.0
 40
0.4
  1
A,B,C,D
 41
0.898877
  7
M_STANDARD
 11
-7.839812
 21
-1.828401
 31
0.0
100
AcDbText
 73
     2
  0
TEXT
  5
359
100
AcDbEntity
  8
DIM
100
AcDbText
 10
-7.839812
 20
-2.704185
 30
0.0
 40
0.4
  1
KNOCKOUTS
 41
0.899335
  7
M_STANDARD
 11
-7.839812
 21
-2.504185
 31
0.0
100
AcDbText
 73
     2
  0
LWPOLYLINE
  5
35A
100
AcDbEntity
  8
DIM
100
AcDbPolyline
 90
        3
 70
   128
 43
0.0
 10
-1.589219
 20
-2.823272
 10
-4.256354
 20
-1.871093
 10
-5.006354
 20
-1.871093
  0
INSERT
  5
35C
100
AcDbEntity
  8
DIM
100
AcDbBlockReference
  2
M_PFN_101
 10
-1.589219
 20
-2.823272
 30
0.0
 41
4.0
 42
4.0
 43
4.0
 50
160.353209
  0
TEXT
  5
35D
100
AcDbEntity
  8
DIM
100
AcDbText
 10
3.459652
 20
-5.859388
 30
0.0
 40
0.4
  1
A,B,C
 41
0.897713
  7
M_STANDARD
 11
3.459652
 21
-5.659388
 31
0.0
100
AcDbText
 73
     2
  0
TEXT
  5
35E
100
AcDbEntity
  8
DIM
100
AcDbText
 10
3.459652
 20
-6.535172
 30
0.0
 40
0.4
  1
KNOCKOUTS
 41
0.899335
  7
M_STANDARD
 11
3.459652
 21
-6.335172
 31
0.0
100
AcDbText
 73
     2
  0
TEXT
  5
35F
100
AcDbEntity
  8
TEXT1
100
AcDbText
 10
-22.483519
 20
-7.859094
 30
0.0
 40
0.32
  1
NOTES:
 41
1.017741
  7
M_STANDARD
 11
-22.483519
 21
-7.699094
 31
0.0
100
AcDbText
 73
     2
  0
TEXT
  5
360
100
AcDbEntity
  8
TEXT1
100
AcDbText
 10
-22.469992
 20
-9.039412
 30
0.0
 40
0.32
  1
UL LISTED - FILE E-2875
 41
0.899903
  7
M_STANDARD
 11
-22.469992
 21
-8.879412
 31
0.0
100
AcDbText
 73
     2
  0
TEXT
  5
361
100
AcDbEntity
  8
TEXT1
100
AcDbText
 10
-22.469992
 20
-9.639412
 30
0.0
 40
0.32
  1
ALL NEUTRALS - INSULATED GROUNDABLE
 41
0.899958
  7
M_STANDARD
 11
-22.469992
 21
-9.479412
 31
0.0
100
AcDbText
 73
     2
  0
TEXT
  5
362
100
AcDbEntity
  8
TEXT1
100
AcDbText
 10
-22.469992
 20
-10.239412
 30
0.0
 40
0.32
  1
SUITABLE FOR USE AS SERVICE EQUIPMENT
 41
0.899963
  7
M_STANDARD
 11
-22.469992
 21
-10.079412
 31
0.0
100
AcDbText
 73
     2
  0
TEXT
  5
363
100
AcDbEntity
  8
TEXT1
100
AcDbText
 10
-22.469992
 20
-10.839412
 30
0.0
 40
0.32
  1
SHORT CIRCUIT RATINGS:
 41
0.928455
  7
M_STANDARD
 11
-22.469992
 21
-10.679412
 31
0.0
100
AcDbText
 73
     2
  0
TEXT
  5
364
100
AcDbEntity
  8
TEXT1
100
AcDbText
 10
-21.469992
 20
-11.439412
 30
0.0
 40
0.32
  1
10,000 AMPERES WHEN USED WITH OR PROTECTED BY CLASS H OR K FUSES
 41
0.899988
  7
M_STANDARD
 11
-21.469992
 21
-11.279412
 31
0.0
100
AcDbText
 73
     2
  0
TEXT
  5
365
100
AcDbEntity
  8
TEXT1
100
AcDbText
 10
-21.469992
 20
-12.039412
 30
0.0
 40
0.32
  1
100,000 AMPERES WHEN USED WITH OR PROTECTED BY CLASS R FUSES
 41
0.899986
  7
M_STANDARD
 11
-21.469992
 21
-11.879412
 31
0.0
100
AcDbText
 73
     2
  0
TEXT
  5
366
100
AcDbEntity
  8
TEXT1
100
AcDbText
 10
-22.46956
 20
-14.418649
 30
0.0
 40
0.32
  1
FOR CORNER GROUNDED DELTA SYSTEMS ONLY.
 41
0.915754
  7
M_STANDARD
 11
-22.46956
 21
-14.258649
 31
0.0
100
AcDbText
 73
     2
  0
TEXT
  5
367
100
AcDbEntity
  8
TEXT1
100
AcDbText
 10
-22.46956
 20
-15.018649
 30
0.0
 40
0.32
  1
LUGS SUITABLE FOR 60°C OR 75°C CONDUCTORS.
 41
0.914604
  7
M_STANDARD
 11
-22.46956
 21
-14.858649
 31
0.0
100
AcDbText
 73
     2
  0
TEXT
  5
368
100
AcDbEntity
  8
TEXT1
100
AcDbText
 10
-22.46956
 20
-13.818649
 30
0.0
 40
0.32
  1
USE OUTER SWITCHING POLES
 41
0.899918
  7
M_STANDARD
 11
-22.46956
 21
-13.658649
 31
0.0
100
AcDbText
 73
     2
  0
TEXT
  5
369
100
AcDbEntity
  8
TEXT1
100
AcDbText
 10
-22.469992
 20
-8.439412
 30
0.0
 40
0.32
  1
FINISH - GRAY BAKED ENAMEL ELECTRODEPOSITED OVER CLEANED PHOSPHATIZED STEEL
 41
0.899991
  7
M_STANDARD
 11
-22.469992
 21
-8.279412
 31
0.0
100
AcDbText
 73
     2
  0
TEXT
  5
36A
100
AcDbEntity
  8
TEXT1
100
AcDbText
 10
33.232841
 20
11.219983
 30
0.0
 40
0.32
  1
KNOCKOUTS
 41
0.899335
  7
M_STANDARD
 72
     1
 11
34.486771
 21
11.379983
 31
0.0
100
AcDbText
 73
     2
  0
TEXT
  5
36B
100
AcDbEntity
  8
TEXT1
100
AcDbText
 10
32.729381
 20
14.672035
 30
0.0
 40
0.32
  1
TERMINAL LUGS
 41
0.899689
  7
M_STANDARD
 72
     1
 11
34.401945
 21
14.832035
 31
0.0
100
AcDbText
 73
     2
  0
LINE
  5
36C
100
AcDbEntity
  8
0
100
AcDbLine
 10
28.922101
 20
10.885846
 30
0.0
 11
40.335816
 21
10.885846
 31
0.0
  0
LINE
  5
36D
100
AcDbEntity
  8
0
100
AcDbLine
 10
28.922101
 20
14.332035
 30
0.0
 11
40.335816
 21
14.332035
 31
0.0
  0
LINE
  5
36E
100
AcDbEntity
  8
0
100
AcDbLine
 10
28.922101
 20
7.205846
 30
0.0
 11
40.335816
 21
7.205846
 31
0.0
  0
LWPOLYLINE
  5
36F
100
AcDbEntity
  8
0
100
AcDbPolyline
 90
        4
 70
   129
 43
0.0
 10
28.922101
 20
6.405846
 10
40.335816
 20
6.405846
 10
40.335816
 20
11.885846
 10
28.922101
 20
11.885846
  0
LINE
  5
370
100
AcDbEntity
  8
0
100
AcDbLine
 10
28.922101
 20
8.005846
 30
0.0
 11
40.335816
 21
8.005846
 31
0.0
  0
LINE
  5
371
100
AcDbEntity
  8
0
100
AcDbLine
 10
28.922101
 20
8.805846
 30
0.0
 11
40.335816
 21
8.805846
 31
0.0
  0
LINE
  5
372
100
AcDbEntity
  8
0
100
AcDbLine
 10
28.922101
 20
9.605846
 30
0.0
 11
40.335816
 21
9.605846
 31
0.0
  0
TEXT
  5
373
100
AcDbEntity
  8
TEXT1
100
AcDbText
 10
37.29789
 20
10.385846
 30
0.0
 40
0.32
  1
DIAMETER
 41
0.899151
  7
M_STANDARD
 72
     1
 11
38.291237
 21
10.545846
 31
0.0
100
AcDbText
 73
     2
  0
TEXT
  5
374
100
AcDbEntity
  8
TEXT1
100
AcDbText
 10
34.91063
 20
9.745846
 30
0.0
 40
0.32
  1
MM
 41
0.882523
  7
M_STANDARD
 72
     1
 11
35.17959
 21
9.905846
 31
0.0
100
AcDbText
 73
     2
  0
TEXT
  5
375
100
AcDbEntity
  8
TEXT1
100
AcDbText
 10
39.074622
 20
9.745846
 30
0.0
 40
0.32
  1
MM
 41
0.882523
  7
M_STANDARD
 72
     1
 11
39.343582
 21
9.905846
 31
0.0
100
AcDbText
 73
     2
  0
TEXT
  5
376
100
AcDbEntity
  8
TEXT1
100
AcDbText
 10
32.79604
 20
9.745846
 30
0.0
 40
0.32
  1
IN
 41
0.976187
  7
M_STANDARD
 72
     1
 11
32.959668
 21
9.905846
 31
0.0
100
AcDbText
 73
     2
  0
TEXT
  5
377
100
AcDbEntity
  8
TEXT1
100
AcDbText
 10
37.120386
 20
9.745846
 30
0.0
 40
0.32
  1
IN
 41
0.976187
  7
M_STANDARD
 72
     1
 11
37.284014
 21
9.905846
 31
0.0
100
AcDbText
 73
     2
  0
TEXT
  5
378
100
AcDbEntity
  8
TEXT1
100
AcDbText
 10
32.667403
 20
10.398899
 30
0.0
 40
0.32
  1
CONDUIT SIZE
 41
0.899633
  7
M_STANDARD
 72
     1
 11
34.134233
 21
10.558899
 31
0.0
100
AcDbText
 73
     2
  0
TEXT
  5
379
100
AcDbEntity
  8
TEXT1
100
AcDbText
 10
36.984629
 20
9.045846
 30
0.0
 40
0.32
  1
.88
 41
0.89305
  7
M_STANDARD
 72
     1
 11
37.284014
 21
9.205846
 31
0.0
100
AcDbText
 73
     2
  0
TEXT
  5
37A
100
AcDbEntity
  8
TEXT1
100
AcDbText
 10
36.874275
 20
6.645846
 30
0.0
 40
0.32
  1
1.75
 41
0.896304
  7
M_STANDARD
 72
     1
 11
37.284014
 21
6.805846
 31
0.0
100
AcDbText
 73
     2
  0
TEXT
  5
37B
100
AcDbEntity
  8
TEXT1
100
AcDbText
 10
36.874275
 20
7.445846
 30
0.0
 40
0.32
  1
1.38
 41
0.896304
  7
M_STANDARD
 72
     1
 11
37.284014
 21
7.605846
 31
0.0
100
AcDbText
 73
     2
  0
TEXT
  5
37C
100
AcDbEntity
  8
TEXT1
100
AcDbText
 10
36.901591
 20
8.245846
 30
0.0
 40
0.32
  1
1.13
 41
0.896304
  7
M_STANDARD
 72
     1
 11
37.284014
 21
8.405846
 31
0.0
100
AcDbText
 73
     2
  0
TEXT
  5
37D
100
AcDbEntity
  8
TEXT1
100
AcDbText
 10
39.114966
 20
9.045846
 30
0.0
 40
0.32
  1
22
 41
0.882523
  7
M_STANDARD
 72
     1
 11
39.343582
 21
9.205846
 31
0.0
100
AcDbText
 73
     2
  0
TEXT
  5
37E
100
AcDbEntity
  8
TEXT1
100
AcDbText
 10
39.114966
 20
6.645846
 30
0.0
 40
0.32
  1
45
 41
0.882523
  7
M_STANDARD
 72
     1
 11
39.343582
 21
6.805846
 31
0.0
100
AcDbText
 73
     2
  0
TEXT
  5
37F
100
AcDbEntity
  8
TEXT1
100
AcDbText
 10
39.114966
 20
7.445846
 30
0.0
 40
0.32
  1
35
 41
0.882523
  7
M_STANDARD
 72
     1
 11
39.343582
 21
7.605846
 31
0.0
100
AcDbText
 73
     2
  0
TEXT
  5
380
100
AcDbEntity
  8
TEXT1
100
AcDbText
 10
39.12169
 20
8.245846
 30
0.0
 40
0.32
  1
29
 41
0.882523
  7
M_STANDARD
 72
     1
 11
39.343582
 21
8.405846
 31
0.0
100
AcDbText
 73
     2
  0
TEXT
  5
381
100
AcDbEntity
  8
TEXT1
100
AcDbText
 10
34.97787
 20
9.045846
 30
0.0
 40
0.32
  1
13
 41
0.882523
  7
M_STANDARD
 72
     1
 11
35.17959
 21
9.205846
 31
0.0
100
AcDbText
 73
     2
  0
TEXT
  5
382
100
AcDbEntity
  8
TEXT1
100
AcDbText
 10
34.950974
 20
6.645846
 30
0.0
 40
0.32
  1
32
 41
0.882523
  7
M_STANDARD
 72
     1
 11
35.17959
 21
6.805846
 31
0.0
100
AcDbText
 73
     2
  0
TEXT
  5
383
100
AcDbEntity
  8
TEXT1
100
AcDbText
 10
34.950974
 20
7.445846
 30
0.0
 40
0.32
  1
25
 41
0.882523
  7
M_STANDARD
 72
     1
 11
35.17959
 21
7.605846
 31
0.0
100
AcDbText
 73
     2
  0
TEXT
  5
384
100
AcDbEntity
  8
TEXT1
100
AcDbText
 10
34.984594
 20
8.245846
 30
0.0
 40
0.32
  1
19
 41
0.882523
  7
M_STANDARD
 72
     1
 11
35.17959
 21
8.405846
 31
0.0
100
AcDbText
 73
     2
  0
TEXT
  5
385
100
AcDbEntity
  8
TEXT1
100
AcDbText
 10
32.640662
 20
9.045846
 30
0.0
 40
0.32
  1
.50
 41
0.951579
  7
M_STANDARD
 72
     1
 11
32.959668
 21
9.205846
 31
0.0
100
AcDbText
 73
     2
  0
TEXT
  5
386
100
AcDbEntity
  8
TEXT1
100
AcDbText
 10
32.549929
 20
6.645846
 30
0.0
 40
0.32
  1
1.25
 41
0.896304
  7
M_STANDARD
 72
     1
 11
32.959668
 21
6.805846
 31
0.0
100
AcDbText
 73
     2
  0
TEXT
  5
387
100
AcDbEntity
  8
TEXT1
100
AcDbText
 10
35.24183
 20
12.972035
 30
0.0
 40
0.32
  1
14 AWG
 41
0.898447
  7
M_STANDARD
 72
     1
 11
36.035886
 21
13.132035
 31
0.0
100
AcDbText
 73
     2
  0
TEXT
  5
388
100
AcDbEntity
  8
TEXT1
100
AcDbText
 10
31.823797
 20
12.94074
 30
0.0
 40
0.48
  1
#
 41
0.8
  7
M_STANDARD
 72
     1
 11
31.96094
 21
13.18074
 31
0.0
100
AcDbText
 73
     2
  0
TEXT
  5
389
100
AcDbEntity
  8
TEXT1
100
AcDbText
 10
34.722744
 20
12.94074
 30
0.0
 40
0.48
  1
#
 41
0.8
  7
M_STANDARD
 72
     1
 11
34.859887
 21
13.18074
 31
0.0
100
AcDbText
 73
     2
  0
TEXT
  5
38A
100
AcDbEntity
  8
TEXT1
100
AcDbText
 10
37.794695
 20
12.972035
 30
0.0
 40
0.32
  1
CU OR AL
 41
0.899151
  7
M_STANDARD
 72
     1
 11
38.877101
 21
13.132035
 31
0.0
100
AcDbText
 73
     2
  0
TEXT
  5
38B
100
AcDbEntity
  8
TEXT1
100
AcDbText
 10
38.505415
 20
13.772035
 30
0.0
 40
0.32
  1
TYPE
 41
0.896304
  7
M_STANDARD
 72
     1
 11
38.997101
 21
13.932035
 31
0.0
100
AcDbText
 73
     2
  0
TEXT
  5
38C
100
AcDbEntity
  8
TEXT1
100
AcDbText
 10
34.814927
 20
13.772035
 30
0.0
 40
0.32
  1
MIN. WIRE
 41
0.899335
  7
M_STANDARD
 72
     1
 11
35.835886
 21
13.932035
 31
0.0
100
AcDbText
 73
     2
  0
TEXT
  5
38D
100
AcDbEntity
  8
TEXT1
100
AcDbText
 10
31.827238
 20
13.772035
 30
0.0
 40
0.32
  1
MAX. WIRE
 41
0.899335
  7
M_STANDARD
 72
     1
 11
32.930422
 21
13.932035
 31
0.0
100
AcDbText
 73
     2
  0
TEXT
  5
38E
100
AcDbEntity
  8
TEXT1
100
AcDbText
 10
36.674554
 20
14.649623
 30
0.0
 40
0.6
  1
+
 41
0.8
  7
M_STANDARD
 72
     1
 11
36.880269
 21
14.949623
 31
0.0
100
AcDbText
 73
     2
  0
TEXT
  5
38F
100
AcDbEntity
  8
TEXT1
100
AcDbText
 10
-23.102525
 20
-15.080232
 30
0.0
 40
0.6
  1
+
 41
0.8
  7
M_STANDARD
 72
     1
 11
-22.89681
 21
-14.780232
 31
0.0
100
AcDbText
 73
     2
  0
TEXT
  5
390
100
AcDbEntity
  8
TEXT1
100
AcDbText
 10
36.674554
 20
14.499623
 30
0.0
 40
0.6
  1
+
 41
0.8
  7
M_STANDARD
 72
     1
 11
36.880269
 21
14.799623
 31
0.0
100
AcDbText
 73
     2
  0
TEXT
  5
391
100
AcDbEntity
  8
TEXT1
100
AcDbText
 10
-23.102525
 20
-15.230232
 30
0.0
 40
0.6
  1
+
 41
0.8
  7
M_STANDARD
 72
     1
 11
-22.89681
 21
-14.930232
 31
0.0
100
AcDbText
 73
     2
  0
TEXT
  5
392
100
AcDbEntity
  8
TEXT1
100
AcDbText
 10
32.446451
 20
12.972035
 30
0.0
 40
0.32
  1
3 AWG
 41
0.897713
  7
M_STANDARD
 72
     1
 11
33.130422
 21
13.132035
 31
0.0
100
AcDbText
 73
     2
  0
TEXT
  5
393
100
AcDbEntity
  8
TEXT1
100
AcDbText
 10
29.990647
 20
12.98122
 30
0.0
 40
0.32
  1
60
 41
0.976187
  7
M_STANDARD
 72
     1
 11
30.243526
 21
13.14122
 31
0.0
100
AcDbText
 73
     2
  0
TEXT
  5
394
100
AcDbEntity
  8
TEXT1
100
AcDbText
 10
29.288299
 20
13.772035
 30
0.0
 40
0.32
  1
AMPERES
 41
0.898877
  7
M_STANDARD
 72
     1
 11
30.247101
 21
13.932035
 31
0.0
100
AcDbText
 73
     2
  0
TEXT
  5
395
100
AcDbEntity
  8
TEXT1
100
AcDbText
 10
32.530589
 20
7.445846
 30
0.0
 40
0.32
  1
1.00
 41
0.93861
  7
M_STANDARD
 72
     1
 11
32.959668
 21
7.605846
 31
0.0
100
AcDbText
 73
     2
  0
TEXT
  5
396
100
AcDbEntity
  8
TEXT1
100
AcDbText
 10
32.660283
 20
8.245846
 30
0.0
 40
0.32
  1
.75
 41
0.89305
  7
M_STANDARD
 72
     1
 11
32.959668
 21
8.405846
 31
0.0
100
AcDbText
 73
     2
  0
TEXT
  5
397
100
AcDbEntity
  8
TEXT1
100
AcDbText
 10
30.332387
 20
9.050179
 30
0.0
 40
0.32
  1
A
 41
0.8
  7
M_STANDARD
 72
     1
 11
30.429911
 21
9.210179
 31
0.0
100
AcDbText
 73
     2
  0
TEXT
  5
398
100
AcDbEntity
  8
TEXT1
100
AcDbText
 10
30.344578
 20
6.650179
 30
0.0
 40
0.32
  1
D
 41
0.8
  7
M_STANDARD
 72
     1
 11
30.429911
 21
6.810179
 31
0.0
100
AcDbText
 73
     2
  0
TEXT
  5
399
100
AcDbEntity
  8
TEXT1
100
AcDbText
 10
30.338483
 20
7.450179
 30
0.0
 40
0.32
  1
C
 41
0.8
  7
M_STANDARD
 72
     1
 11
30.429911
 21
7.610179
 31
0.0
100
AcDbText
 73
     2
  0
TEXT
  5
39A
100
AcDbEntity
  8
TEXT1
100
AcDbText
 10
30.344578
 20
8.250179
 30
0.0
 40
0.32
  1
B
 41
0.8
  7
M_STANDARD
 72
     1
 11
30.429911
 21
8.410179
 31
0.0
100
AcDbText
 73
     2
  0
TEXT
  5
39B
100
AcDbEntity
  8
TEXT1
100
AcDbText
 10
29.615319
 20
10.050179
 30
0.0
 40
0.32
  1
SYMBOL
 41
0.898447
  7
M_STANDARD
 72
     1
 11
30.429911
 21
10.210179
 31
0.0
100
AcDbText
 73
     2
  0
LINE
  5
39C
100
AcDbEntity
  8
0
100
AcDbLine
 10
31.937721
 20
10.205846
 30
0.0
 11
40.335816
 21
10.205846
 31
0.0
  0
LINE
  5
39D
100
AcDbEntity
  8
0
100
AcDbLine
 10
31.937721
 20
10.885846
 30
0.0
 11
31.937721
 21
6.405846
 31
0.0
  0
LINE
  5
39E
100
AcDbEntity
  8
0
100
AcDbLine
 10
34.112212
 20
10.205846
 30
0.0
 11
34.112212
 21
6.405846
 31
0.0
  0
LINE
  5
39F
100
AcDbEntity
  8
0
100
AcDbLine
 10
36.397034
 20
10.885846
 30
0.0
 11
36.397034
 21
6.405846
 31
0.0
  0
LINE
  5
3A0
100
AcDbEntity
  8
0
100
AcDbLine
 10
38.381458
 20
10.205846
 30
0.0
 11
38.381458
 21
6.405846
 31
0.0
  0
LWPOLYLINE
  5
3A1
100
AcDbEntity
  8
0
100
AcDbPolyline
 90
        4
 70
   129
 43
0.0
 10
28.922101
 20
15.332035
 10
28.922101
 20
12.730211
 10
40.335816
 20
12.732035
 10
40.335816
 20
15.332035
  0
LINE
  5
3A2
100
AcDbEntity
  8
0
100
AcDbLine
 10
28.922101
 20
13.532035
 30
0.0
 11
40.335816
 21
13.532035
 31
0.0
  0
LINE
  5
3A3
100
AcDbEntity
  8
0
100
AcDbLine
 10
31.479882
 20
12.732035
 30
0.0
 11
40.335816
 21
12.732035
 31
0.0
  0
LINE
  5
3A4
100
AcDbEntity
  8
0
100
AcDbLine
 10
31.479882
 20
14.332035
 30
0.0
 11
31.479754
 21
12.73062
 31
0.0
  0
LINE
  5
3A5
100
AcDbEntity
  8
0
100
AcDbLine
 10
37.277775
 20
14.332035
 30
0.0
 11
37.277775
 21
12.732035
 31
0.0
  0
LINE
  5
3A6
100
AcDbEntity
  8
0
100
AcDbLine
 10
34.378828
 20
14.332035
 30
0.0
 11
34.378828
 21
12.732035
 31
0.0
  0
TEXT
  5
3A7
100
AcDbEntity
  8
TEXT1
100
AcDbText
 10
-22.992856
 20
-13.918649
 30
0.0
 40
0.6
  1
*
 41
0.8
  7
M_STANDARD
 72
     1
 11
-22.878571
 21
-13.618649
 31
0.0
100
AcDbText
 73
     2
  0
TEXT
  5
3A8
100
AcDbEntity
  8
TEXT1
100
AcDbText
 10
33.445377
 20
-10.182913
 30
0.0
 40
0.6
  1
*
 41
0.8
  7
M_STANDARD
 72
     1
 11
33.559662
 21
-9.882913
 31
0.0
100
AcDbText
 73
     2
  0
TEXT
  5
3A9
100
AcDbEntity
  8
TEXT1
100
AcDbText
 10
30.549469
 20
18.304899
 30
0.0
 40
0.4
  1
A
 41
0.8
  7
M_STANDARD
 72
     1
 11
30.671374
 21
18.504899
 31
0.0
100
AcDbText
 73
     2
  0
LINE
  5
3AC
100
AcDbEntity
  8
HIDDEN1
100
AcDbLine
 10
32.433715
 20
19.448358
 30
0.0
 11
33.163715
 21
19.448358
 31
0.0
  0
LINE
  5
3AD
100
AcDbEntity
  8
TEXT1
100
AcDbLine
 10
33.021761
 20
19.002296
 30
0.0
 11
33.272307
 21
19.790144
 31
0.0
  0
LINE
  5
3AE
100
AcDbEntity
  8
TEXT1
100
AcDbLine
 10
32.292
 20
19.002296
 30
0.0
 11
32.542546
 21
19.790144
 31
0.0
  0
LINE
  5
3AF
100
AcDbEntity
  8
TEXT1
100
AcDbLine
 10
31.564446
 20
17.198053
 30
0.0
 11
31.564446
 21
18.204433
 31
0.0
  0
LINE
  5
3B0
100
AcDbEntity
  8
TEXT1
100
AcDbLine
 10
35.86358
 20
17.198053
 30
0.0
 11
35.86358
 21
18.204433
 31
0.0
  0
LWPOLYLINE
  5
3B1
100
AcDbEntity
  8
TEXT1
100
AcDbPolyline
 90
        5
 70
   128
 43
0.0
 10
33.023983
 20
17.198053
 10
33.023983
 20
17.620179
 42
-1.002527
 10
33.025192
 20
18.100164
 42
0.983638
 10
33.021761
 20
18.580171
 10
33.021761
 20
19.002296
  0
LWPOLYLINE
  5
3B2
100
AcDbEntity
  8
TEXT1
100
AcDbPolyline
 90
        5
 70
   128
 43
0.0
 10
32.294222
 20
17.198053
 10
32.294222
 20
17.620179
 42
-1.002527
 10
32.295432
 20
18.100164
 42
0.983638
 10
32.292
 20
18.580171
 10
32.292
 20
19.002296
  0
LINE
  5
3B3
100
AcDbEntity
  8
TEXT1
100
AcDbLine
 10
31.564446
 20
20.21227
 30
0.0
 11
31.564446
 21
19.205891
 31
0.0
  0
LINE
  5
3B4
100
AcDbEntity
  8
TEXT1
100
AcDbLine
 10
35.86358
 20
20.21227
 30
0.0
 11
35.86358
 21
19.205891
 31
0.0
  0
LINE
  5
3B5
100
AcDbEntity
  8
TEXT1
100
AcDbLine
 10
33.023983
 20
20.21227
 30
0.0
 11
33.023983
 21
19.790144
 31
0.0
  0
LINE
  5
3B6
100
AcDbEntity
  8
TEXT1
100
AcDbLine
 10
32.294222
 20
20.21227
 30
0.0
 11
32.294222
 21
19.790144
 31
0.0
  0
CIRCLE
  5
3B7
100
AcDbEntity
  8
TEXT1
100
AcDbCircle
 10
31.57397
 20
20.364692
 30
0.0
 40
0.152719
  0
CIRCLE
  5
3B8
100
AcDbEntity
  8
TEXT1
100
AcDbCircle
 10
35.873104
 20
20.364692
 30
0.0
 40
0.152719
  0
CIRCLE
  5
3B9
100
AcDbEntity
  8
TEXT1
100
AcDbCircle
 10
32.303746
 20
20.364692
 30
0.0
 40
0.152719
  0
CIRCLE
  5
3BA
100
AcDbEntity
  8
TEXT1
100
AcDbCircle
 10
33.033506
 20
20.364692
 30
0.0
 40
0.152719
  0
CIRCLE
  5
3BB
100
AcDbEntity
  8
TEXT1
100
AcDbCircle
 10
33.023983
 20
17.045334
 30
0.0
 40
0.152719
  0
CIRCLE
  5
3BC
100
AcDbEntity
  8
TEXT1
100
AcDbCircle
 10
32.294222
 20
17.045334
 30
0.0
 40
0.152719
  0
CIRCLE
  5
3BD
100
AcDbEntity
  8
TEXT1
100
AcDbCircle
 10
31.564446
 20
17.045334
 30
0.0
 40
0.152719
  0
CIRCLE
  5
3BE
100
AcDbEntity
  8
TEXT1
100
AcDbCircle
 10
35.86358
 20
17.045334
 30
0.0
 40
0.152719
  0
TEXT
  5
3BF
100
AcDbEntity
  8
TEXT1
100
AcDbText
 10
34.863842
 20
18.304899
 30
0.0
 40
0.4
  1
B
 41
0.8
  7
M_STANDARD
 72
     1
 11
34.970509
 21
18.504899
 31
0.0
100
AcDbText
 73
     2
  0
LINE
  5
3C0
100
AcDbEntity
  8
HIDDEN1
100
AcDbLine
 10
36.732915
 20
19.448358
 30
0.0
 11
38.192515
 21
19.448358
 31
0.0
  0
LINE
  5
3C1
100
AcDbEntity
  8
TEXT1
100
AcDbLine
 10
37.320895
 20
19.002296
 30
0.0
 11
37.571441
 21
19.790144
 31
0.0
  0
LINE
  5
3C2
100
AcDbEntity
  8
TEXT1
100
AcDbLine
 10
38.050671
 20
19.002296
 30
0.0
 11
38.301217
 21
19.790144
 31
0.0
  0
LINE
  5
3C3
100
AcDbEntity
  8
TEXT1
100
AcDbLine
 10
36.591134
 20
19.002296
 30
0.0
 11
36.841681
 21
19.790144
 31
0.0
  0
LWPOLYLINE
  5
3C4
100
AcDbEntity
  8
TEXT1
100
AcDbPolyline
 90
        5
 70
   128
 43
0.0
 10
37.323117
 20
17.198053
 10
37.323117
 20
17.620179
 42
-1.002527
 10
37.324327
 20
18.100164
 42
0.983638
 10
37.320895
 20
18.580171
 10
37.320895
 20
19.002296
  0
LWPOLYLINE
  5
3C5
100
AcDbEntity
  8
TEXT1
100
AcDbPolyline
 90
        5
 70
   128
 43
0.0
 10
38.052893
 20
17.198053
 10
38.052893
 20
17.620179
 42
-1.002527
 10
38.054103
 20
18.100164
 42
0.983638
 10
38.050671
 20
18.580171
 10
38.050671
 20
19.002296
  0
LWPOLYLINE
  5
3C6
100
AcDbEntity
  8
TEXT1
100
AcDbPolyline
 90
        5
 70
   128
 43
0.0
 10
36.593356
 20
17.198053
 10
36.593356
 20
17.620179
 42
-1.002527
 10
36.594566
 20
18.100164
 42
0.983638
 10
36.591134
 20
18.580171
 10
36.591134
 20
19.002296
  0
LINE
  5
3C7
100
AcDbEntity
  8
TEXT1
100
AcDbLine
 10
37.323117
 20
20.21227
 30
0.0
 11
37.323117
 21
19.790144
 31
0.0
  0
LINE
  5
3C8
100
AcDbEntity
  8
TEXT1
100
AcDbLine
 10
38.052893
 20
20.21227
 30
0.0
 11
38.052893
 21
19.790144
 31
0.0
  0
LINE
  5
3C9
100
AcDbEntity
  8
TEXT1
100
AcDbLine
 10
36.593356
 20
20.21227
 30
0.0
 11
36.593356
 21
19.790144
 31
0.0
  0
CIRCLE
  5
3CA
100
AcDbEntity
  8
TEXT1
100
AcDbCircle
 10
36.60288
 20
20.364692
 30
0.0
 40
0.152719
  0
CIRCLE
  5
3CB
100
AcDbEntity
  8
TEXT1
100
AcDbCircle
 10
37.332641
 20
20.364692
 30
0.0
 40
0.152719
  0
CIRCLE
  5
3CC
100
AcDbEntity
  8
TEXT1
100
AcDbCircle
 10
38.062417
 20
20.364692
 30
0.0
 40
0.152719
  0
CIRCLE
  5
3CD
100
AcDbEntity
  8
TEXT1
100
AcDbCircle
 10
37.323117
 20
17.045334
 30
0.0
 40
0.152719
  0
CIRCLE
  5
3CE
100
AcDbEntity
  8
TEXT1
100
AcDbCircle
 10
38.052893
 20
17.045334
 30
0.0
 40
0.152719
  0
CIRCLE
  5
3CF
100
AcDbEntity
  8
TEXT1
100
AcDbCircle
 10
36.593356
 20
17.045334
 30
0.0
 40
0.152719
  0
TEXT
  5
3D0
100
AcDbEntity
  8
TEXT1
100
AcDbText
 10
32.352752
 20
23.352294
 30
0.0
 40
0.4
  1
WIRING DIAGRAMS
 41
0.899768
  7
M_STANDARD
 72
     1
 11
34.717855
 21
23.552294
 31
0.0
100
AcDbText
 73
     2
  0
TEXT
  5
3D1
100
AcDbEntity
  8
TEXT1
100
AcDbText
 10
33.630703
 20
21.727991
 30
0.0
 40
0.4
  1
FUSIBLE
 41
0.898877
  7
M_STANDARD
 72
     1
 11
34.64943
 21
21.927991
 31
0.0
100
AcDbText
 73
     2
  0
LINE
  5
3D2
100
AcDbEntity
  8
0
100
AcDbLine
 10
28.922101
 20
22.686997
 30
0.0
 11
40.33937
 21
22.686997
 31
0.0
  0
LINE
  5
3D3
100
AcDbEntity
  8
0
100
AcDbLine
 10
28.922101
 20
21.163332
 30
0.0
 11
40.337269
 21
21.163332
 31
0.0
  0
LWPOLYLINE
  5
3D4
100
AcDbEntity
  8
0
100
AcDbPolyline
 90
        4
 70
   129
 43
0.0
 10
28.922101
 20
16.246465
 10
40.335816
 20
16.246465
 10
40.335816
 20
24.564021
 10
28.922101
 20
24.564021
  0
LINE
  5
3D6
100
AcDbEntity
  8
0
100
AcDbLine
 10
31.967062
 20
-6.18833
 30
0.0
 11
40.300396
 21
-6.18833
 31
0.0
  0
LINE
  5
3D7
100
AcDbEntity
  8
0
100
AcDbLine
 10
31.967062
 20
-7.021663
 30
0.0
 11
40.300396
 21
-7.021663
 31
0.0
  0
LINE
  5
3D8
100
AcDbEntity
  8
0
100
AcDbLine
 10
31.967062
 20
-7.854997
 30
0.0
 11
40.300396
 21
-7.854997
 31
0.0
  0
LINE
  5
3D9
100
AcDbEntity
  8
0
100
AcDbLine
 10
20.925395
 20
-5.354997
 30
0.0
 11
40.300396
 21
-5.354997
 31
0.0
  0
LINE
  5
3DA
100
AcDbEntity
  8
0
100
AcDbLine
 10
18.842062
 20
-8.68833
 30
0.0
 11
40.300396
 21
-8.68833
 31
0.0
  0
LINE
  5
3DB
100
AcDbEntity
  8
0
100
AcDbLine
 10
34.050395
 20
-7.854997
 30
0.0
 11
34.050395
 21
-10.73833
 31
0.0
  0
LINE
  5
3DC
100
AcDbEntity
  8
0
100
AcDbLine
 10
38.217062
 20
-7.854997
 30
0.0
 11
38.217062
 21
-10.73833
 31
0.0
  0
LINE
  5
3DD
100
AcDbEntity
  8
0
100
AcDbLine
 10
36.133729
 20
-7.021663
 30
0.0
 11
36.133729
 21
-10.73833
 31
0.0
  0
LINE
  5
3DE
100
AcDbEntity
  8
0
100
AcDbLine
 10
31.967062
 20
-5.354997
 30
0.0
 11
31.967062
 21
-10.73833
 31
0.0
  0
LINE
  5
3DF
100
AcDbEntity
  8
0
100
AcDbLine
 10
29.883729
 20
-5.354997
 30
0.0
 11
29.883729
 21
-10.73833
 31
0.0
  0
LINE
  5
3E0
100
AcDbEntity
  8
0
100
AcDbLine
 10
27.800395
 20
-5.354997
 30
0.0
 11
27.800395
 21
-10.73833
 31
0.0
  0
LINE
  5
3E1
100
AcDbEntity
  8
0
100
AcDbLine
 10
22.592062
 20
-5.354997
 30
0.0
 11
22.592062
 21
-10.73833
 31
0.0
  0
TEXT
  5
3E3
100
AcDbEntity
  8
TEXT1
100
AcDbText
 10
20.066865
 20
-10.144581
 30
0.0
 40
0.312501
  1
D322N
 41
0.897713
  7
M_STANDARD
 11
20.066865
 21
-9.98833
 31
0.0
100
AcDbText
 73
     2
  0
TEXT
  5
3E4
100
AcDbEntity
  8
TEXT1
100
AcDbText
 10
20.066865
 20
-9.369581
 30
0.0
 40
0.312501
  1
D222N
 41
0.897713
  7
M_STANDARD
 11
20.066865
 21
-9.21333
 31
0.0
100
AcDbText
 73
     2
  0
TEXT
  5
3E5
100
AcDbEntity
  8
TEXT1
100
AcDbText
 10
24.30993
 20
-10.144581
 30
0.0
 40
0.312501
  1
240VAC
 41
0.898447
  7
M_STANDARD
 72
     1
 11
25.092062
 21
-9.98833
 31
0.0
100
AcDbText
 73
     2
  0
TEXT
  5
3E6
100
AcDbEntity
  8
TEXT1
100
AcDbText
 10
24.30993
 20
-9.369581
 30
0.0
 40
0.312501
  1
240VAC
 41
0.898447
  7
M_STANDARD
 72
     1
 11
25.092062
 21
-9.21333
 31
0.0
100
AcDbText
 73
     2
  0
TEXT
  5
3E7
100
AcDbEntity
  8
TEXT1
100
AcDbText
 10
30.678443
 20
-10.144581
 30
0.0
 40
0.312501
  1
60
 41
0.976187
  7
M_STANDARD
 72
     1
 11
30.925395
 21
-9.98833
 31
0.0
100
AcDbText
 73
     2
  0
TEXT
  5
3E8
100
AcDbEntity
  8
TEXT1
100
AcDbText
 10
28.758728
 20
-10.144581
 30
0.0
 40
0.312501
  1
B
 41
0.8
  7
M_STANDARD
 72
     1
 11
28.842062
 21
-9.98833
 31
0.0
100
AcDbText
 73
     2
  0
TEXT
  5
3E9
100
AcDbEntity
  8
TEXT1
100
AcDbText
 10
30.678443
 20
-9.369581
 30
0.0
 40
0.312501
  1
60
 41
0.976187
  7
M_STANDARD
 72
     1
 11
30.925395
 21
-9.21333
 31
0.0
100
AcDbText
 73
     2
  0
TEXT
  5
3EA
100
AcDbEntity
  8
TEXT1
100
AcDbText
 10
28.746823
 20
-9.369581
 30
0.0
 40
0.312501
  1
A
 41
0.8
  7
M_STANDARD
 72
     1
 11
28.842062
 21
-9.21333
 31
0.0
100
AcDbText
 73
     2
  0
TEXT
  5
3EB
100
AcDbEntity
  8
TEXT1
100
AcDbText
 10
32.925395
 20
-10.144581
 30
0.0
 40
0.312501
  1
3
 41
0.8
  7
M_STANDARD
 72
     1
 11
33.008729
 21
-9.98833
 31
0.0
100
AcDbText
 73
     2
  0
TEXT
  5
3EC
100
AcDbEntity
  8
TEXT1
100
AcDbText
 10
32.925395
 20
-9.369581
 30
0.0
 40
0.312501
  1
3
 41
0.8
  7
M_STANDARD
 72
     1
 11
33.008729
 21
-9.21333
 31
0.0
100
AcDbText
 73
     2
  0
TEXT
  5
3ED
100
AcDbEntity
  8
TEXT1
100
AcDbText
 10
34.543148
 20
-10.144581
 30
0.0
 40
0.312501
  1
7.50
 41
0.93861
  7
M_STANDARD
 72
     1
 11
34.990107
 21
-9.98833
 31
0.0
100
AcDbText
 73
     2
  0
TEXT
  5
3EE
100
AcDbEntity
  8
TEXT1
100
AcDbText
 10
34.528973
 20
-9.369581
 30
0.0
 40
0.312501
  1
7.50
 41
0.93861
  7
M_STANDARD
 72
     1
 11
34.975931
 21
-9.21333
 31
0.0
100
AcDbText
 73
     2
  0
TEXT
  5
3EF
100
AcDbEntity
  8
TEXT1
100
AcDbText
 10
32.698967
 20
-8.427914
 30
0.0
 40
0.312501
  1
1
 41
0.8
  7
M_STANDARD
 72
     1
 11
32.728729
 21
-8.271663
 31
0.0
100
AcDbText
 73
     2
  0
TEXT
  5
3F0
100
AcDbEntity
  8
TEXT1
100
AcDbText
 10
33.10454
 20
-8.471663
 30
0.0
 40
0.4
  1
Ø
 41
0.8
  7
M_STANDARD
 72
     1
 11
33.226445
 21
-8.271663
 31
0.0
100
AcDbText
 73
     2
  0
TEXT
  5
3F1
100
AcDbEntity
  8
TEXT1
100
AcDbText
 10
36.865633
 20
-8.427914
 30
0.0
 40
0.312501
  1
1
 41
0.8
  7
M_STANDARD
 72
     1
 11
36.895395
 21
-8.271663
 31
0.0
100
AcDbText
 73
     2
  0
TEXT
  5
3F2
100
AcDbEntity
  8
TEXT1
100
AcDbText
 10
37.271207
 20
-8.471663
 30
0.0
 40
0.4
  1
Ø
 41
0.8
  7
M_STANDARD
 72
     1
 11
37.393112
 21
-8.271663
 31
0.0
100
AcDbText
 73
     2
  0
TEXT
  5
3F3
100
AcDbEntity
  8
TEXT1
100
AcDbText
 10
34.620002
 20
-8.427914
 30
0.0
 40
0.312501
  1
3
 41
0.8
  7
M_STANDARD
 72
     1
 11
34.703336
 21
-8.271663
 31
0.0
100
AcDbText
 73
     2
  0
TEXT
  5
3F4
100
AcDbEntity
  8
TEXT1
100
AcDbText
 10
35.079148
 20
-8.471663
 30
0.0
 40
0.4
  1
Ø
 41
0.8
  7
M_STANDARD
 72
     1
 11
35.201052
 21
-8.271663
 31
0.0
100
AcDbText
 73
     2
  0
TEXT
  5
3F5
100
AcDbEntity
  8
TEXT1
100
AcDbText
 10
38.786669
 20
-8.427914
 30
0.0
 40
0.312501
  1
3
 41
0.8
  7
M_STANDARD
 72
     1
 11
38.870003
 21
-8.271663
 31
0.0
100
AcDbText
 73
     2
  0
TEXT
  5
3F6
100
AcDbEntity
  8
TEXT1
100
AcDbText
 10
39.245815
 20
-8.471663
 30
0.0
 40
0.4
  1
Ø
 41
0.8
  7
M_STANDARD
 72
     1
 11
39.367719
 21
-8.271663
 31
0.0
100
AcDbText
 73
     2
  0
TEXT
  5
3F7
100
AcDbEntity
  8
TEXT1
100
AcDbText
 10
19.800794
 20
-6.917497
 30
0.0
 40
0.312501
  1
CATALOG
 41
0.898877
  7
M_STANDARD
 72
     1
 11
20.717062
 21
-6.761247
 31
0.0
100
AcDbText
 73
     2
  0
TEXT
  5
3F8
100
AcDbEntity
  8
TEXT1
100
AcDbText
 10
19.901506
 20
-7.438331
 30
0.0
 40
0.312501
  1
NUMBER
 41
0.898447
  7
M_STANDARD
 72
     1
 11
20.717062
 21
-7.28208
 31
0.0
100
AcDbText
 73
     2
  0
TEXT
  5
3F9
100
AcDbEntity
  8
TEXT1
100
AcDbText
 10
23.190763
 20
-7.177914
 30
0.0
 40
0.312501
  1
VOLTAGE RATINGS
 41
0.899768
  7
M_STANDARD
 72
     1
 11
25.092062
 21
-7.021664
 31
0.0
100
AcDbText
 73
     2
  0
TEXT
  5
3FA
100
AcDbEntity
  8
TEXT1
100
AcDbText
 10
30.216797
 20
-7.417497
 30
0.0
 40
0.312501
  1
RATING
 41
0.898447
  7
M_STANDARD
 72
     1
 11
30.925395
 21
-7.261247
 31
0.0
100
AcDbText
 73
     2
  0
TEXT
  5
3FB
100
AcDbEntity
  8
TEXT1
100
AcDbText
 10
28.265933
 20
-7.417497
 30
0.0
 40
0.312501
  1
DIAG.
 41
1.046373
  7
M_STANDARD
 72
     1
 11
28.842062
 21
-7.261247
 31
0.0
100
AcDbText
 73
     2
  0
TEXT
  5
3FC
100
AcDbEntity
  8
TEXT1
100
AcDbText
 10
33.554192
 20
-7.594581
 30
0.0
 40
0.312501
  1
STD.
 41
1.093272
  7
M_STANDARD
 72
     1
 11
34.050395
 21
-7.43833
 31
0.0
100
AcDbText
 73
     2
  0
TEXT
  5
3FD
100
AcDbEntity
  8
TEXT1
100
AcDbText
 10
36.957496
 20
-10.144581
 30
0.0
 40
0.312501
  1
10
 41
0.976187
  7
M_STANDARD
 72
     1
 11
37.175395
 21
-9.98833
 31
0.0
100
AcDbText
 73
     2
  0
TEXT
  5
3FE
100
AcDbEntity
  8
TEXT1
100
AcDbText
 10
36.957496
 20
-9.369581
 30
0.0
 40
0.312501
  1
10
 41
0.976187
  7
M_STANDARD
 72
     1
 11
37.175395
 21
-9.21333
 31
0.0
100
AcDbText
 73
     2
  0
TEXT
  5
3FF
100
AcDbEntity
  8
TEXT1
100
AcDbText
 10
38.959781
 20
-10.144581
 30
0.0
 40
0.312501
  1
15
 41
0.882523
  7
M_STANDARD
 72
     1
 11
39.156773
 21
-9.98833
 31
0.0
100
AcDbText
 73
     2
  0
TEXT
  5
400
100
AcDbEntity
  8
TEXT1
100
AcDbText
 10
38.945606
 20
-9.369581
 30
0.0
 40
0.312501
  1
15
 41
0.882523
  7
M_STANDARD
 72
     1
 11
39.142598
 21
-9.21333
 31
0.0
100
AcDbText
 73
     2
  0
TEXT
  5
401
100
AcDbEntity
  8
TEXT1
100
AcDbText
 10
37.663918
 20
-7.594581
 30
0.0
 40
0.312501
  1
MAX.
 41
1.093272
  7
M_STANDARD
 72
     1
 11
38.217062
 21
-7.43833
 31
0.0
100
AcDbText
 73
     2
  0
TEXT
  5
402
100
AcDbEntity
  8
TEXT1
100
AcDbText
 10
35.351597
 20
-6.761247
 30
0.0
 40
0.312501
  1
240VAC
 41
0.898447
  7
M_STANDARD
 72
     1
 11
36.133729
 21
-6.604997
 31
0.0
100
AcDbText
 73
     2
  0
TEXT
  5
403
100
AcDbEntity
  8
TEXT1
100
AcDbText
 10
33.75022
 20
-5.927914
 30
0.0
 40
0.312501
  1
HORSEPOWER RATINGS
 41
0.89984
  7
M_STANDARD
 72
     1
 11
36.133729
 21
-5.771663
 31
0.0
100
AcDbText
 73
     2
  0
TEXT
  5
404
100
AcDbEntity
  8
TEXT1
100
AcDbText
 10
36.968771
 20
-4.686681
 30
0.0
 40
0.32
  1
MILLIMETERS
 41
0.899561
  7
M_STANDARD
 11
36.968771
 21
-4.526681
 31
0.0
100
AcDbText
 73
     2
  0
TEXT
  5
405
100
AcDbEntity
  8
TEXT1
100
AcDbText
 10
36.995411
 20
-4.126681
 30
0.0
 40
0.4
  1
INCHES
 41
0.925574
  7
M_STANDARD
 11
36.995411
 21
-3.926681
 31
0.0
100
AcDbText
 73
     2
  0
TEXT
  5
406
100
AcDbEntity
  8
TEXT1
100
AcDbText
 10
32.283952
 20
-4.337097
 30
0.0
 40
0.32
  1
DUAL DIMENSIONS:
 41
0.939768
  7
M_STANDARD
 11
32.283952
 21
-4.177097
 31
0.0
100
AcDbText
 73
     2
  0
TEXT
  5
407
100
AcDbEntity
  8
TEXT1
100
AcDbText
 10
30.094789
 20
-6.918224
 30
0.0
 40
0.32
  1
AMPERE
 41
0.898447
  7
M_STANDARD
 72
     1
 11
30.916226
 21
-6.758224
 31
0.0
100
AcDbText
 73
     2
  0
TEXT
  5
408
100
AcDbEntity
  8
TEXT1
100
AcDbText
 10
28.162052
 20
-6.918224
 30
0.0
 40
0.32
  1
WIRING
 41
0.898447
  7
M_STANDARD
 72
     1
 11
28.832892
 21
-6.758224
 31
0.0
100
AcDbText
 73
     2
  0
TEXT
  5
409
100
AcDbEntity
  8
TEXT1
100
AcDbText
 10
16.396238
 20
-0.908706
 30
0.0
 40
0.4
  1
NEMA TYPE 1
 41
0.928549
  7
M_STANDARD
 72
     1
 11
18.23565
 21
-0.708706
 31
0.0
100
AcDbText
 73
     2
  0
TEXT
  5
40A
100
AcDbEntity
  8
DIM
100
AcDbText
 10
6.063911
 20
17.879825
 30
0.0
 40
0.4
  1
(3 HOLES)
 41
0.935252
  7
M_STANDARD
 72
     1
 11
7.489057
 21
18.079825
 31
0.0
100
AcDbText
 73
     2
  0
HATCH
  5
40C
100
AcDbEntity
  8
TEXT1
100
AcDbHatch
 10
0.0
 20
0.0
 30
0.0
210
0.0
220
0.0
230
1.0
  2
_U
 70
     0
 71
     0
 91
        1
 92
        0
 93
        1
 72
     2
 10
-22.852149
 20
-14.218649
 40
0.15
 50
0.0
 51
359.999994
 73
     1
 97
        0
 75
     0
 76
     0
 52
45.0
 41
0.0006
 77
     0
 78
     1
 53
45.0
 43
-25.499485
 44
-17.036322
 45
-0.000424264068712
 46
0.0004242640687119
 79
     0
 98
        1
 10
-25.499485
 20
-17.036322
  0
HATCH
  5
40D
100
AcDbEntity
  8
TEXT1
100
AcDbHatch
 10
0.0
 20
0.0
 30
0.0
210
0.0
220
0.0
230
1.0
  2
_U
 70
     0
 71
     0
 91
        1
 92
        0
 93
        1
 72
     2
 10
39.781588
 20
-9.188152
 40
0.15
 50
0.0
 51
359.999994
 73
     1
 97
        0
 75
     0
 76
     0
 52
45.0
 41
0.0006
 77
     0
 78
     1
 53
45.0
 43
-25.499485
 44
-17.036322
 45
-0.000424264068712
 46
0.0004242640687119
 79
     0
 98
        1
 10
-25.499485
 20
-17.036322
  0
HATCH
  5
40E
100
AcDbEntity
  8
TEXT1
100
AcDbHatch
 10
0.0
 20
0.0
 30
0.0
210
0.0
220
0.0
230
1.0
  2
_U
 70
     0
 71
     0
 91
        1
 92
        0
 93
        1
 72
     2
 10
35.821936
 20
-9.188152
 40
0.15
 50
0.0
 51
359.999994
 73
     1
 97
        0
 75
     0
 76
     0
 52
45.0
 41
0.0006
 77
     0
 78
     1
 53
45.0
 43
-25.499485
 44
-17.036322
 45
-0.000424264068712
 46
0.0004242640687119
 79
     0
 98
        1
 10
-25.499485
 20
-17.036322
  0
CIRCLE
  5
40F
100
AcDbEntity
  8
TEXT1
100
AcDbCircle
 10
-22.852149
 20
-14.218649
 30
0.0
 40
0.15
  0
CIRCLE
  5
410
100
AcDbEntity
  8
TEXT1
100
AcDbCircle
 10
39.781588
 20
-9.188152
 30
0.0
 40
0.15
  0
CIRCLE
  5
411
100
AcDbEntity
  8
TEXT1
100
AcDbCircle
 10
35.821936
 20
-9.188152
 30
0.0
 40
0.15
  0
LWPOLYLINE
  5
412
100
AcDbEntity
  8
HIDDEN1
100
AcDbPolyline
 90
        4
 70
   128
 43
0.0
 10
-1.373734
 20
18.793507
 10
-1.373734
 20
18.293507
 10
-0.753734
 20
18.293507
 10
-0.753734
 20
18.793507
  0
LWPOLYLINE
  5
413
100
AcDbEntity
  8
HIDDEN1
100
AcDbPolyline
 90
        4
 70
   128
 43
0.0
 10
0.506266
 20
18.793507
 10
0.506266
 20
18.293507
 10
1.126266
 20
18.293507
 10
1.126266
 20
18.793507
  0
LWPOLYLINE
  5
414
100
AcDbEntity
  8
HIDDEN1
100
AcDbPolyline
 90
        4
 70
   128
 43
0.0
 10
-2.633734
 20
18.793507
 10
-2.633734
 20
18.293507
 10
-3.253734
 20
18.293507
 10
-3.253734
 20
18.793507
  0
LINE
  5
415
100
AcDbEntity
  8
HIDDEN1
100
AcDbLine
 10
-1.126234
 20
18.793507
 30
0.0
 11
-1.001234
 21
18.793507
 31
0.0
  0
LINE
  5
416
100
AcDbEntity
  8
HIDDEN1
100
AcDbLine
 10
0.753766
 20
18.793507
 30
0.0
 11
0.878766
 21
18.793507
 31
0.0
  0
LINE
  5
417
100
AcDbEntity
  8
OBJECT1
100
AcDbLine
 10
-2.881234
 20
18.793507
 30
0.0
 11
-3.006234
 21
18.793507
 31
0.0
  0
LINE
  5
418
100
AcDbEntity
  8
HIDDEN1
100
AcDbLine
 10
-1.063734
 20
18.731007
 30
0.0
 11
-1.063734
 21
18.856007
 31
0.0
  0
LINE
  5
419
100
AcDbEntity
  8
HIDDEN1
100
AcDbLine
 10
0.816266
 20
18.731007
 30
0.0
 11
0.816266
 21
18.856007
 31
0.0
  0
LINE
  5
41A
100
AcDbEntity
  8
HIDDEN1
100
AcDbLine
 10
-2.943734
 20
18.731007
 30
0.0
 11
-2.943734
 21
18.856007
 31
0.0
  0
LWPOLYLINE
  5
41B
100
AcDbEntity
  8
HIDDEN1
100
AcDbPolyline
 90
        3
 70
   128
 43
0.0
 10
-0.753734
 20
18.793507
 42
0.414214
 10
-1.063734
 20
19.103507
 42
0.414214
 10
-1.373734
 20
18.793507
  0
LWPOLYLINE
  5
41C
100
AcDbEntity
  8
HIDDEN1
100
AcDbPolyline
 90
        3
 70
   128
 43
0.0
 10
1.126266
 20
18.793507
 42
0.414214
 10
0.816266
 20
19.103507
 42
0.414214
 10
0.506266
 20
18.793507
  0
LWPOLYLINE
  5
41D
100
AcDbEntity
  8
HIDDEN1
100
AcDbPolyline
 90
        3
 70
   128
 43
0.0
 10
-3.253734
 20
18.793507
 42
-0.414214
 10
-2.943734
 20
19.103507
 42
-0.414214
 10
-2.633734
 20
18.793507
  0
LWPOLYLINE
  5
41E
100
AcDbEntity
  8
HIDDEN1
100
AcDbPolyline
 90
        3
 70
   128
 43
0.0
 10
-1.213734
 20
18.793507
 42
-0.414214
 10
-1.063734
 20
18.943507
 42
-0.414214
 10
-0.913734
 20
18.793507
  0
LWPOLYLINE
  5
41F
100
AcDbEntity
  8
HIDDEN1
100
AcDbPolyline
 90
        3
 70
   128
 43
0.0
 10
0.666266
 20
18.793507
 42
-0.414214
 10
0.816266
 20
18.943507
 42
-0.414214
 10
0.966266
 20
18.793507
  0
LWPOLYLINE
  5
420
100
AcDbEntity
  8
HIDDEN1
100
AcDbPolyline
 90
        3
 70
   128
 43
0.0
 10
-2.793734
 20
18.793507
 42
0.414214
 10
-2.943734
 20
18.943507
 42
0.414214
 10
-3.093734
 20
18.793507
  0
LINE
  5
421
100
AcDbEntity
  8
HIDDEN1
100
AcDbLine
 10
-1.213734
 20
18.793507
 30
0.0
 11
-1.213734
 21
18.293507
 31
0.0
  0
LINE
  5
422
100
AcDbEntity
  8
HIDDEN1
100
AcDbLine
 10
0.666266
 20
18.793507
 30
0.0
 11
0.666266
 21
18.293507
 31
0.0
  0
LINE
  5
423
100
AcDbEntity
  8
HIDDEN1
100
AcDbLine
 10
-2.793734
 20
18.793507
 30
0.0
 11
-2.793734
 21
18.293507
 31
0.0
  0
LINE
  5
424
100
AcDbEntity
  8
HIDDEN1
100
AcDbLine
 10
-0.913734
 20
18.293507
 30
0.0
 11
-0.913734
 21
18.793507
 31
0.0
  0
LINE
  5
425
100
AcDbEntity
  8
HIDDEN1
100
AcDbLine
 10
0.966266
 20
18.293507
 30
0.0
 11
0.966266
 21
18.793507
 31
0.0
  0
LINE
  5
426
100
AcDbEntity
  8
HIDDEN1
100
AcDbLine
 10
-3.093734
 20
18.293507
 30
0.0
 11
-3.093734
 21
18.793507
 31
0.0
  0
LINE
  5
427
100
AcDbEntity
  8
OBJECT1
100
AcDbLine
 10
-1.535592
 20
-2.706392
 30
0.0
 11
-1.602251
 21
-2.667907
 31
0.0
  0
LINE
  5
428
100
AcDbEntity
  8
OBJECT1
100
AcDbLine
 10
-0.469092
 20
-2.706392
 30
0.0
 11
-0.402434
 21
-2.667907
 31
0.0
  0
LINE
  5
429
100
AcDbEntity
  8
OBJECT1
100
AcDbLine
 10
-0.586926
 20
-2.891235
 30
0.0
 11
-0.520267
 21
-2.852749
 31
0.0
  0
LINE
  5
42A
100
AcDbEntity
  8
OBJECT1
100
AcDbLine
 10
-3.007926
 20
-2.891235
 30
0.0
 11
-2.941267
 21
-2.852749
 31
0.0
  0
LINE
  5
42B
100
AcDbEntity
  8
OBJECT1
100
AcDbLine
 10
1.003241
 20
-2.891235
 30
0.0
 11
0.936583
 21
-2.852749
 31
0.0
  0
LINE
  5
42C
100
AcDbEntity
  8
HIDDEN1
100
AcDbLine
 10
-1.479152
 20
7.194345
 30
0.0
 11
-1.54581
 21
7.232831
 31
0.0
  0
LINE
  5
42D
100
AcDbEntity
  8
OBJECT1
100
AcDbLine
 10
-1.417759
 20
-2.891235
 30
0.0
 11
-1.484417
 21
-2.852749
 31
0.0
  0
LINE
  5
42E
100
AcDbEntity
  8
OBJECT1
100
AcDbLine
 10
-3.838759
 20
-2.891235
 30
0.0
 11
-3.905417
 21
-2.852749
 31
0.0
  0
LINE
  5
42F
100
AcDbEntity
  8
OBJECT1
100
AcDbLine
 10
1.834074
 20
-2.891235
 30
0.0
 11
1.900733
 21
-2.852749
 31
0.0
  0
LINE
  5
430
100
AcDbEntity
  8
HIDDEN1
100
AcDbLine
 10
-0.648319
 20
7.194345
 30
0.0
 11
-0.58166
 21
7.232831
 31
0.0
  0
LINE
  5
431
100
AcDbEntity
  8
OBJECT1
100
AcDbLine
 10
-1.436256
 20
-2.558355
 30
0.0
 11
-1.496269
 21
-2.505943
 31
0.0
  0
LINE
  5
432
100
AcDbEntity
  8
OBJECT1
100
AcDbLine
 10
-0.568428
 20
-2.558355
 30
0.0
 11
-0.508415
 21
-2.505943
 31
0.0
  0
LINE
  5
433
100
AcDbEntity
  8
OBJECT1
100
AcDbLine
 10
-0.664215
 20
-2.776255
 30
0.0
 11
-0.604203
 21
-2.723844
 31
0.0
  0
LINE
  5
434
100
AcDbEntity
  8
OBJECT1
100
AcDbLine
 10
-3.085215
 20
-2.776255
 30
0.0
 11
-3.025203
 21
-2.723844
 31
0.0
  0
LINE
  5
435
100
AcDbEntity
  8
OBJECT1
100
AcDbLine
 10
1.080531
 20
-2.776255
 30
0.0
 11
1.020518
 21
-2.723844
 31
0.0
  0
LINE
  5
436
100
AcDbEntity
  8
HIDDEN1
100
AcDbLine
 10
-1.401862
 20
7.309324
 30
0.0
 11
-1.461875
 21
7.361736
 31
0.0
  0
LINE
  5
437
100
AcDbEntity
  8
OBJECT1
100
AcDbLine
 10
-1.340469
 20
-2.776255
 30
0.0
 11
-1.400482
 21
-2.723844
 31
0.0
  0
LINE
  5
438
100
AcDbEntity
  8
OBJECT1
100
AcDbLine
 10
-3.761469
 20
-2.776255
 30
0.0
 11
-3.821482
 21
-2.723844
 31
0.0
  0
LINE
  5
439
100
AcDbEntity
  8
OBJECT1
100
AcDbLine
 10
1.756785
 20
-2.776255
 30
0.0
 11
1.816797
 21
-2.723844
 31
0.0
  0
LINE
  5
43A
100
AcDbEntity
  8
HIDDEN1
100
AcDbLine
 10
-0.725609
 20
7.309324
 30
0.0
 11
-0.665596
 21
7.361736
 31
0.0
  0
LINE
  5
43B
100
AcDbEntity
  8
OBJECT1
100
AcDbLine
 10
-0.926485
 20
-3.603096
 30
0.0
 11
-0.926485
 21
-3.526774
 31
0.0
  0
LINE
  5
43C
100
AcDbEntity
  8
OBJECT1
100
AcDbLine
 10
-3.347485
 20
-3.603096
 30
0.0
 11
-3.347485
 21
-3.526774
 31
0.0
  0
LINE
  5
43D
100
AcDbEntity
  8
OBJECT1
100
AcDbLine
 10
1.3428
 20
-3.603096
 30
0.0
 11
1.3428
 21
-3.526774
 31
0.0
  0
LINE
  5
43E
100
AcDbEntity
  8
HIDDEN1
100
AcDbLine
 10
-1.139593
 20
6.482484
 30
0.0
 11
-1.139593
 21
6.558806
 31
0.0
  0
LINE
  5
43F
100
AcDbEntity
  8
OBJECT1
100
AcDbLine
 10
-0.926485
 20
-2.870426
 30
0.0
 11
-0.926485
 21
-2.794104
 31
0.0
  0
LINE
  5
440
100
AcDbEntity
  8
OBJECT1
100
AcDbLine
 10
-3.347485
 20
-2.870426
 30
0.0
 11
-3.347485
 21
-2.794104
 31
0.0
  0
LINE
  5
441
100
AcDbEntity
  8
OBJECT1
100
AcDbLine
 10
1.3428
 20
-2.870426
 30
0.0
 11
1.3428
 21
-2.794104
 31
0.0
  0
LINE
  5
442
100
AcDbEntity
  8
HIDDEN1
100
AcDbLine
 10
-1.139593
 20
7.215154
 30
0.0
 11
-1.139593
 21
7.291476
 31
0.0
  0
LINE
  5
443
100
AcDbEntity
  8
OBJECT1
100
AcDbLine
 10
-0.926485
 20
-2.998254
 30
0.0
 11
-0.926485
 21
-2.921933
 31
0.0
  0
LINE
  5
444
100
AcDbEntity
  8
OBJECT1
100
AcDbLine
 10
-3.347485
 20
-2.998254
 30
0.0
 11
-3.347485
 21
-2.921933
 31
0.0
  0
LINE
  5
445
100
AcDbEntity
  8
OBJECT1
100
AcDbLine
 10
1.3428
 20
-2.998254
 30
0.0
 11
1.3428
 21
-2.921933
 31
0.0
  0
LINE
  5
446
100
AcDbEntity
  8
HIDDEN1
100
AcDbLine
 10
-1.139593
 20
7.087325
 30
0.0
 11
-1.139593
 21
7.163647
 31
0.0
  0
LINE
  5
447
100
AcDbEntity
  8
OBJECT1
100
AcDbLine
 10
0.809154
 20
-1.820508
 30
0.0
 11
0.885475
 21
-1.820508
 31
0.0
  0
LINE
  5
448
100
AcDbEntity
  8
OBJECT1
100
AcDbLine
 10
-0.926486
 20
-3.469431
 30
0.0
 11
-0.926486
 21
-3.393109
 31
0.0
  0
LINE
  5
449
100
AcDbEntity
  8
OBJECT1
100
AcDbLine
 10
-3.347486
 20
-3.469431
 30
0.0
 11
-3.347486
 21
-3.393109
 31
0.0
  0
LINE
  5
44A
100
AcDbEntity
  8
OBJECT1
100
AcDbLine
 10
1.342801
 20
-3.469431
 30
0.0
 11
1.342801
 21
-3.393109
 31
0.0
  0
LINE
  5
44B
100
AcDbEntity
  8
HIDDEN1
100
AcDbLine
 10
-1.139592
 20
6.616149
 30
0.0
 11
-1.139592
 21
6.692471
 31
0.0
  0
LINE
  5
44C
100
AcDbEntity
  8
OBJECT1
100
AcDbLine
 10
-1.078202
 20
-3.602404
 30
0.0
 11
-1.078202
 21
-3.526082
 31
0.0
  0
LINE
  5
44D
100
AcDbEntity
  8
OBJECT1
100
AcDbLine
 10
-3.499202
 20
-3.602404
 30
0.0
 11
-3.499202
 21
-3.526082
 31
0.0
  0
LINE
  5
44E
100
AcDbEntity
  8
OBJECT1
100
AcDbLine
 10
1.494518
 20
-3.602404
 30
0.0
 11
1.494518
 21
-3.526082
 31
0.0
  0
LINE
  5
44F
100
AcDbEntity
  8
HIDDEN1
100
AcDbLine
 10
-0.987875
 20
6.483175
 30
0.0
 11
-0.987875
 21
6.559497
 31
0.0
  0
LINE
  5
450
100
AcDbEntity
  8
OBJECT1
100
AcDbLine
 10
-1.078202
 20
-2.869734
 30
0.0
 11
-1.078202
 21
-2.793412
 31
0.0
  0
LINE
  5
451
100
AcDbEntity
  8
OBJECT1
100
AcDbLine
 10
-3.499202
 20
-2.869734
 30
0.0
 11
-3.499202
 21
-2.793412
 31
0.0
  0
LINE
  5
452
100
AcDbEntity
  8
OBJECT1
100
AcDbLine
 10
1.494518
 20
-2.869734
 30
0.0
 11
1.494518
 21
-2.793412
 31
0.0
  0
LINE
  5
453
100
AcDbEntity
  8
HIDDEN1
100
AcDbLine
 10
-0.987875
 20
7.215846
 30
0.0
 11
-0.987875
 21
7.292167
 31
0.0
  0
LINE
  5
454
100
AcDbEntity
  8
OBJECT1
100
AcDbLine
 10
-1.078202
 20
-2.997563
 30
0.0
 11
-1.078202
 21
-2.921241
 31
0.0
  0
LINE
  5
455
100
AcDbEntity
  8
OBJECT1
100
AcDbLine
 10
-3.499202
 20
-2.997563
 30
0.0
 11
-3.499202
 21
-2.921241
 31
0.0
  0
LINE
  5
456
100
AcDbEntity
  8
OBJECT1
100
AcDbLine
 10
1.494518
 20
-2.997563
 30
0.0
 11
1.494518
 21
-2.921241
 31
0.0
  0
LINE
  5
457
100
AcDbEntity
  8
HIDDEN1
100
AcDbLine
 10
-0.987875
 20
7.088017
 30
0.0
 11
-0.987875
 21
7.164339
 31
0.0
  0
LINE
  5
458
100
AcDbEntity
  8
OBJECT1
100
AcDbLine
 10
0.809845
 20
-1.972225
 30
0.0
 11
0.886167
 21
-1.972225
 31
0.0
  0
LINE
  5
459
100
AcDbEntity
  8
OBJECT1
100
AcDbLine
 10
-1.078203
 20
-3.468739
 30
0.0
 11
-1.078203
 21
-3.392417
 31
0.0
  0
LINE
  5
45A
100
AcDbEntity
  8
OBJECT1
100
AcDbLine
 10
-3.499203
 20
-3.468739
 30
0.0
 11
-3.499203
 21
-3.392417
 31
0.0
  0
LINE
  5
45B
100
AcDbEntity
  8
OBJECT1
100
AcDbLine
 10
1.494519
 20
-3.468739
 30
0.0
 11
1.494519
 21
-3.392417
 31
0.0
  0
LINE
  5
45C
100
AcDbEntity
  8
HIDDEN1
100
AcDbLine
 10
-0.987874
 20
6.616841
 30
0.0
 11
-0.987874
 21
6.693163
 31
0.0
  0
LWPOLYLINE
  5
474
100
AcDbEntity
  8
0
100
AcDbPolyline
 90
        4
 70
   129
 43
0.0
 10
18.842062
 20
-5.354997
 10
40.300396
 20
-5.354997
 10
40.300396
 20
-10.73833
 10
18.842062
 20
-10.73833
  0
LWPOLYLINE
  5
475
100
AcDbEntity
  8
OBJECT1
100
AcDbPolyline
 90
        4
 70
   129
 43
0.0
 10
-4.318734
 20
20.513507
 10
2.191266
 20
20.513507
 10
2.191266
 20
5.913507
 10
-4.318734
 20
5.913507
  0
LWPOLYLINE
  5
476
100
AcDbEntity
  8
OBJECT1
100
AcDbPolyline
 90
        8
 70
   129
 43
0.0
 10
-3.334256
 20
17.190329
 10
-3.334256
 20
9.643669
 42
0.414212
 10
-2.074261
 20
8.383669
 10
-0.053212
 20
8.383669
 42
0.414212
 10
1.206788
 20
9.643662
 10
1.206788
 20
17.190326
 42
0.414213
 10
-0.05321
 20
18.450326
 10
-2.074256
 20
18.450326
 42
0.414213
  0
LWPOLYLINE
  5
477
100
AcDbEntity
  8
OBJECT1
100
AcDbPolyline
 90
        8
 70
   129
 43
0.0
 10
0.188964
 20
17.190326
 42
0.414214
 10
-0.053212
 20
17.432502
 10
-2.074256
 20
17.432502
 42
0.414214
 10
-2.316432
 20
17.190326
 10
-2.316432
 20
9.643669
 42
0.414212
 10
-2.074257
 20
9.401493
 10
-0.053212
 20
9.401493
 42
0.414214
 10
0.188965
 20
9.643669
  0
LWPOLYLINE
  5
478
100
AcDbEntity
  8
OBJECT1
100
AcDbPolyline
 90
        4
 70
   129
 43
0.0
 10
-4.257342
 20
-1.036229
 10
2.252658
 20
-1.036229
 10
2.252658
 20
-4.593785
 10
-4.257342
 20
-4.593785
  0
TEXT
  5
479
100
AcDbEntity
  8
DIM
100
AcDbText
 10
9.823146
 20
21.759923
 30
0.0
 40
0.4
  1
.31 DIA
 41
0.898877
  7
M_STANDARD
 11
9.823146
 21
21.959923
 31
0.0
100
AcDbText
 73
     2
  0
TEXT
  5
47A
100
AcDbEntity
  8
DIM
100
AcDbText
 10
8.256168
 20
23.528709
 30
0.0
 40
0.4
  1
.62 DIA
 41
0.898877
  7
M_STANDARD
 11
8.256168
 21
23.728709
 31
0.0
100
AcDbText
 73
     2
  0
TEXT
  5
47B
100
AcDbEntity
  8
DIM
100
AcDbText
 10
10.414624
 20
21.194996
 30
0.0
 40
0.32
  1
8
 41
0.8
  7
M_STANDARD
 11
10.414624
 21
21.354996
 31
0.0
100
AcDbText
 73
     2
  0
TEXT
  5
47C
100
AcDbEntity
  8
DIM
100
AcDbText
 10
8.574612
 20
22.963782
 30
0.0
 40
0.32
  1
16
 41
0.882523
  7
M_STANDARD
 11
8.574612
 21
23.123782
 31
0.0
100
AcDbText
 73
     2
  0
LWPOLYLINE
  5
47D
100
AcDbEntity
  8
DIM
100
AcDbPolyline
 90
        3
 70
   128
 43
0.0
 10
9.689946
 20
21.959923
 10
8.939946
 20
21.959923
 10
7.966895
 20
21.521512
  0
INSERT
  5
47F
100
AcDbEntity
  8
DIM
100
AcDbBlockReference
  2
M_PFN_100
 10
7.966895
 20
21.521512
 30
0.0
 41
4.0
 42
4.0
 43
4.0
 50
204.254093
  0
LWPOLYLINE
  5
480
100
AcDbEntity
  8
DIM
100
AcDbPolyline
 90
        3
 70
   128
 43
0.0
 10
8.122968
 20
23.728709
 10
7.372968
 20
23.728709
 10
7.197201
 20
22.41001
  0
INSERT
  5
482
100
AcDbEntity
  8
DIM
100
AcDbBlockReference
  2
M_PFN_100
 10
7.197201
 20
22.41001
 30
0.0
 41
4.0
 42
4.0
 43
4.0
 50
262.407897
  0
LWPOLYLINE
  5
483
100
AcDbEntity
  8
OBJECT1
100
AcDbPolyline
 90
        4
 70
   128
 43
0.0
 10
6.21781
 20
21.20397
 10
6.21781
 20
19.20397
 10
8.69781
 20
19.20397
 10
8.69781
 20
21.20397
  0
LINE
  5
484
100
AcDbEntity
  8
CENTER1
100
AcDbLine
 10
7.20781
 20
21.20397
 30
0.0
 11
7.70781
 21
21.20397
 31
0.0
  0
LINE
  5
485
100
AcDbEntity
  8
CENTER1
100
AcDbLine
 10
7.45781
 20
20.95397
 30
0.0
 11
7.45781
 21
21.45397
 31
0.0
  0
LWPOLYLINE
  5
486
100
AcDbEntity
  8
OBJECT1
100
AcDbPolyline
 90
        3
 70
   128
 43
0.0
 10
8.69781
 20
21.20397
 42
0.414214
 10
7.45781
 20
22.44397
 42
0.414214
 10
6.21781
 20
21.20397
  0
LWPOLYLINE
  5
487
100
AcDbEntity
  8
OBJECT1
100
AcDbPolyline
 90
        3
 70
   128
 43
0.0
 10
6.85781
 20
21.20397
 42
-0.414214
 10
7.45781
 20
21.80397
 42
-0.414214
 10
8.05781
 20
21.20397
  0
LINE
  5
488
100
AcDbEntity
  8
OBJECT1
100
AcDbLine
 10
6.85781
 20
21.20397
 30
0.0
 11
6.85781
 21
19.20397
 31
0.0
  0
LINE
  5
489
100
AcDbEntity
  8
OBJECT1
100
AcDbLine
 10
8.05781
 20
19.20397
 30
0.0
 11
8.05781
 21
21.20397
 31
0.0
  0
TEXT
  5
49D
100
AcDbEntity
  8
TEXT1
100
AcDbText
 10
31.494614
 20
18.241803
 30
0.0
 40
0.28
  1
N
 41
0.8
  7
M_STANDARD
 72
     1
 11
31.569281
 21
18.381803
 31
0.0
100
AcDbText
 73
     2
  0
TEXT
  5
49E
100
AcDbEntity
  8
TEXT1
100
AcDbText
 10
35.793748
 20
18.241803
 30
0.0
 40
0.28
  1
N
 41
0.8
  7
M_STANDARD
 72
     1
 11
35.868415
 21
18.381803
 31
0.0
100
AcDbText
 73
     2
  0
TEXT
  5
49F
100
AcDbEntity
  8
TEXT1
100
AcDbText
 10
31.473281
 20
18.561803
 30
0.0
 40
0.28
  1
/
 41
0.8
  7
M_STANDARD
 72
     1
 11
31.569281
 21
18.701803
 31
0.0
100
AcDbText
 73
     2
  0
TEXT
  5
4A0
100
AcDbEntity
  8
TEXT1
100
AcDbText
 10
35.772415
 20
18.561803
 30
0.0
 40
0.28
  1
/
 41
0.8
  7
M_STANDARD
 72
     1
 11
35.868415
 21
18.701803
 31
0.0
100
AcDbText
 73
     2
  0
TEXT
  5
4A1
100
AcDbEntity
  8
TEXT1
100
AcDbText
 10
31.494614
 20
18.881803
 30
0.0
 40
0.28
  1
S
 41
0.8
  7
M_STANDARD
 72
     1
 11
31.569281
 21
19.021803
 31
0.0
100
AcDbText
 73
     2
  0
TEXT
  5
4A2
100
AcDbEntity
  8
TEXT1
100
AcDbText
 10
35.793748
 20
18.881803
 30
0.0
 40
0.28
  1
S
 41
0.8
  7
M_STANDARD
 72
     1
 11
35.868415
 21
19.021803
 31
0.0
100
AcDbText
 73
     2
  0
LWPOLYLINE
  5
4A4
100
AcDbEntity
  8
TEXT1
100
AcDbPolyline
 90
        4
 70
   129
 43
0.0
 10
31.759941
 20
18.204433
 10
31.368951
 20
18.204433
 10
31.368951
 20
19.205891
 10
31.759941
 20
19.205891
  0
LWPOLYLINE
  5
4A5
100
AcDbEntity
  8
TEXT1
100
AcDbPolyline
 90
        4
 70
   129
 43
0.0
 10
36.059075
 20
18.204433
 10
35.668085
 20
18.204433
 10
35.668085
 20
19.205891
 10
36.059075
 20
19.205891
  0
TEXT
  5
4A6
100
AcDbEntity
  8
DIM
100
AcDbText
 10
-8.751437
 20
3.292743
 30
0.0
 40
0.4
  1
.31 DIA
 41
0.898877
  7
M_STANDARD
 11
-8.751437
 21
3.492743
 31
0.0
100
AcDbText
 73
     2
  0
TEXT
  5
4A7
100
AcDbEntity
  8
DIM
100
AcDbText
 10
-8.291058
 20
2.656959
 30
0.0
 40
0.32
  1
8
 41
0.8
  7
M_STANDARD
 11
-8.291058
 21
2.816959
 31
0.0
100
AcDbText
 73
     2
  0
TEXT
  5
4A8
100
AcDbEntity
  8
DIM
100
AcDbText
 10
-8.751437
 20
1.947309
 30
0.0
 40
0.4
  1
(2 HOLES)
 41
0.935252
  7
M_STANDARD
 11
-8.751437
 21
2.147309
 31
0.0
100
AcDbText
 73
     2
  0
LWPOLYLINE
  5
4A9
100
AcDbEntity
  8
DIM
100
AcDbPolyline
 90
        3
 70
   128
 43
0.0
 10
-3.092818
 20
7.229932
 10
-5.345777
 20
3.492743
 10
-6.095777
 20
3.492743
  0
INSERT
  5
4AB
100
AcDbEntity
  8
DIM
100
AcDbBlockReference
  2
M_PFN_101
 10
-3.092818
 20
7.229932
 30
0.0
 41
4.0
 42
4.0
 43
4.0
 50
238.91638
  0
TEXT
  5
4AC
100
AcDbEntity
  8
DIM
100
AcDbText
 10
-7.242005
 20
-5.729651
 30
0.0
 40
0.4
  1
.28 DIA KNOCKOUT
 41
0.899796
  7
M_STANDARD
 11
-7.242005
 21
-5.529651
 31
0.0
100
AcDbText
 73
     2
  0
TEXT
  5
4AD
100
AcDbEntity
  8
DIM
100
AcDbText
 10
-6.659871
 20
-6.420216
 30
0.0
 40
0.32
  1
7
 41
0.8
  7
M_STANDARD
 11
-6.659871
 21
-6.260216
 31
0.0
100
AcDbText
 73
     2
  0
LWPOLYLINE
  5
4AE
100
AcDbEntity
  8
DIM
100
AcDbPolyline
 90
        3
 70
   128
 43
0.0
 10
-1.382424
 20
-5.435868
 10
-0.632424
 20
-5.435868
 10
0.086063
 20
-3.910294
  0
INSERT
  5
4B0
100
AcDbEntity
  8
DIM
100
AcDbBlockReference
  2
M_PFN_100
 10
0.086063
 20
-3.910294
 30
0.0
 41
4.0
 42
4.0
 43
4.0
 50
64.78136
  0
LINE
  5
4B1
100
AcDbEntity
  8
HIDDEN1
100
AcDbLine
 10
0.878766
 20
7.553507
 30
0.0
 11
0.753766
 21
7.553507
 31
0.0
  0
LINE
  5
4B2
100
AcDbEntity
  8
HIDDEN1
100
AcDbLine
 10
0.816266
 20
7.491007
 30
0.0
 11
0.816266
 21
7.616007
 31
0.0
  0
CIRCLE
  5
4B3
100
AcDbEntity
  8
HIDDEN1
100
AcDbCircle
 10
0.816266
 20
7.553507
 30
0.0
 40
0.155
  0
CIRCLE
  5
4B4
100
AcDbEntity
  8
HIDDEN1
100
AcDbCircle
 10
0.816266
 20
7.553507
 30
0.0
 40
0.31
  0
LINE
  5
4B5
100
AcDbEntity
  8
HIDDEN1
100
AcDbLine
 10
-3.006234
 20
7.553507
 30
0.0
 11
-2.881234
 21
7.553507
 31
0.0
  0
LINE
  5
4B6
100
AcDbEntity
  8
HIDDEN1
100
AcDbLine
 10
-2.943734
 20
7.491007
 30
0.0
 11
-2.943734
 21
7.616007
 31
0.0
  0
CIRCLE
  5
4B7
100
AcDbEntity
  8
HIDDEN1
100
AcDbCircle
 10
-2.943734
 20
7.553507
 30
0.0
 40
0.155
  0
CIRCLE
  5
4B8
100
AcDbEntity
  8
HIDDEN1
100
AcDbCircle
 10
-2.943734
 20
7.553507
 30
0.0
 40
0.31
  0
LINE
  5
4D1
100
AcDbEntity
  8
DIM
100
AcDbLine
 10
-2.943734
 20
21.943123
 30
0.0
 11
-3.435115
 21
21.943123
 31
0.0
  0
LINE
  5
4D4
100
AcDbEntity
  8
DIM
100
AcDbLine
 10
0.816266
 20
21.943123
 30
0.0
 11
1.307647
 21
21.943123
 31
0.0
  0
TEXT
  5
4D8
100
AcDbEntity
  8
TEXT1
100
AcDbText
 10
-22.467337
 20
-12.643463
 30
0.0
 40
0.32
  1
WHEN MOUNTING THESE SWITCHES, ALLOW 3.00 IN / 76 MM MIN. CLEARANCE 
 41
0.899989
  7
M_STANDARD
 11
-22.467337
 21
-12.483463
 31
0.0
100
AcDbText
 73
     2
  0
TEXT
  5
4D9
100
AcDbEntity
  8
TEXT1
100
AcDbText
 10
-21.467337
 20
-13.243463
 30
0.0
 40
0.32
  1
BETWEEN ENCLOSURES FOR OPENING OF SIDE HINGED DOOR.
 41
0.91198
  7
M_STANDARD
 11
-21.467337
 21
-13.083463
 31
0.0
100
AcDbText
 73
     2
  0
LINE
  5
4DA
100
AcDbEntity
  8
OBJECT1
100
AcDbLine
 10
0.146383
 20
-3.624253
 30
0.0
 11
0.146383
 21
-3.711876
 31
0.0
  0
LINE
  5
4DB
100
AcDbEntity
  8
OBJECT1
100
AcDbLine
 10
0.208883
 20
-3.624253
 30
0.0
 11
0.208883
 21
-3.711876
 31
0.0
  0
LWPOLYLINE
  5
4DC
100
AcDbEntity
  8
OBJECT1
100
AcDbPolyline
 90
        3
 70
   128
 43
0.0
 10
0.037633
 20
-3.804393
 42
0.414214
 10
0.177633
 20
-3.944393
 42
0.414214
 10
0.317633
 20
-3.804393
  0
LWPOLYLINE
  5
4DD
100
AcDbEntity
  8
OBJECT1
100
AcDbPolyline
 90
        5
 70
   128
 43
0.0
 10
0.208883
 20
-3.664393
 42
-0.087418
 10
0.252149
 20
-3.68241
 42
-0.085703
 10
0.287095
 20
-3.714347
 42
-0.083558
 10
0.309777
 20
-3.756598
 42
-0.081925
 10
0.317633
 20
-3.804393
  0
LWPOLYLINE
  5
4DE
100
AcDbEntity
  8
OBJECT1
100
AcDbPolyline
 90
        5
 70
   128
 43
0.0
 10
0.037633
 20
-3.804393
 42
-0.081924
 10
0.045489
 20
-3.756598
 42
-0.083557
 10
0.068171
 20
-3.714347
 42
-0.085702
 10
0.103117
 20
-3.68241
 42
-0.087418
 10
0.146383
 20
-3.664393
  0
LWPOLYLINE
  5
4DF
100
AcDbEntity
  8
DIM
100
AcDbPolyline
 90
        3
 70
   128
 43
0.0
 10
1.715486
 20
-3.492411
 10
2.516075
 20
-5.408774
 10
3.266075
 20
-5.408774
  0
INSERT
  5
4E1
100
AcDbEntity
  8
DIM
100
AcDbBlockReference
  2
M_PFN_101
 10
1.715486
 20
-3.492411
 30
0.0
 41
4.0
 42
4.0
 43
4.0
 50
292.673449
  0
LWPOLYLINE
  5
4E2
100
AcDbEntity
  8
DIM
100
AcDbPolyline
 90
        3
 70
   128
 43
0.0
 10
0.803021
 20
-2.046925
 10
3.561326
 20
-2.794343
 10
4.311326
 20
-2.794343
  0
INSERT
  5
4E4
100
AcDbEntity
  8
DIM
100
AcDbBlockReference
  2
M_PFN_101
 10
0.803021
 20
-2.046925
 30
0.0
 41
4.0
 42
4.0
 43
4.0
 50
344.838625
  0
TEXT
  5
4E5
100
AcDbEntity
  8
DIM
100
AcDbText
 10
4.444526
 20
-2.994343
 30
0.0
 40
0.4
  1
A
 41
0.8
  7
M_STANDARD
 11
4.444526
 21
-2.794343
 31
0.0
100
AcDbText
 73
     2
  0
TEXT
  5
4E6
100
AcDbEntity
  8
DIM
100
AcDbText
 10
4.444526
 20
-3.670127
 30
0.0
 40
0.4
  1
KNOCKOUTS
 41
0.899335
  7
M_STANDARD
 11
4.444526
 21
-3.470127
 31
0.0
100
AcDbText
 73
     2
  0
ARC
  5
4E7
100
AcDbEntity
  8
OBJECT1
100
AcDbCircle
 10
-1.002344
 20
-3.200826
 30
0.0
 40
0.37125
100
AcDbArc
 50
281.790521
 51
78.209479
  0
ARC
  5
4E8
100
AcDbEntity
  8
OBJECT1
100
AcDbCircle
 10
-3.423344
 20
-3.200826
 30
0.0
 40
0.37125
100
AcDbArc
 50
281.790521
 51
78.209479
  0
ARC
  5
4E9
100
AcDbEntity
  8
OBJECT1
100
AcDbCircle
 10
1.418659
 20
-3.200826
 30
0.0
 40
0.37125
100
AcDbArc
 50
101.790521
 51
258.209479
  0
ARC
  5
4EA
100
AcDbEntity
  8
HIDDEN1
100
AcDbCircle
 10
-1.063734
 20
6.884754
 30
0.0
 40
0.37125
100
AcDbArc
 50
101.790521
 51
258.209479
  0
ARC
  5
4EB
100
AcDbEntity
  8
OBJECT1
100
AcDbCircle
 10
-3.423344
 20
-3.200826
 30
0.0
 40
0.2475
100
AcDbArc
 50
287.848458
 51
72.151542
  0
ARC
  5
4EC
100
AcDbEntity
  8
OBJECT1
100
AcDbCircle
 10
1.418659
 20
-3.200826
 30
0.0
 40
0.2475
100
AcDbArc
 50
107.848458
 51
252.151542
  0
ARC
  5
4ED
100
AcDbEntity
  8
HIDDEN1
100
AcDbCircle
 10
-1.063734
 20
6.884754
 30
0.0
 40
0.2475
100
AcDbArc
 50
107.848458
 51
252.151542
  0
ARC
  5
4EE
100
AcDbEntity
  8
OBJECT1
100
AcDbCircle
 10
0.605332
 20
-1.896562
 30
0.0
 40
0.24875
100
AcDbArc
 50
17.803132
 51
179.954902
  0
ARC
  5
4EF
100
AcDbEntity
  8
OBJECT1
100
AcDbCircle
 10
-1.002344
 20
-3.200826
 30
0.0
 40
0.2475
100
AcDbArc
 50
287.848458
 51
72.151542
  0
ARC
  5
4F0
100
AcDbEntity
  8
OBJECT1
100
AcDbCircle
 10
-3.423344
 20
-3.200826
 30
0.0
 40
0.2475
100
AcDbArc
 50
107.848299
 51
252.151384
  0
ARC
  5
4F1
100
AcDbEntity
  8
OBJECT1
100
AcDbCircle
 10
1.418659
 20
-3.200826
 30
0.0
 40
0.2475
100
AcDbArc
 50
287.848616
 51
72.151701
  0
ARC
  5
4F2
100
AcDbEntity
  8
HIDDEN1
100
AcDbCircle
 10
-1.063734
 20
6.884754
 30
0.0
 40
0.2475
100
AcDbArc
 50
287.848616
 51
72.151701
  0
ARC
  5
4F3
100
AcDbEntity
  8
OBJECT1
100
AcDbCircle
 10
0.605332
 20
-1.896171
 30
0.0
 40
0.24875
100
AcDbArc
 50
180.045098
 51
342.197026
  0
ARC
  5
4F4
100
AcDbEntity
  8
OBJECT1
100
AcDbCircle
 10
-1.002344
 20
-3.200826
 30
0.0
 40
0.2475
100
AcDbArc
 50
107.848299
 51
252.151384
  0
ARC
  5
4F5
100
AcDbEntity
  8
OBJECT1
100
AcDbCircle
 10
-1.002344
 20
-3.200826
 30
0.0
 40
0.37125
100
AcDbArc
 50
101.790362
 51
258.20932
  0
ARC
  5
4F6
100
AcDbEntity
  8
OBJECT1
100
AcDbCircle
 10
-3.423344
 20
-3.200826
 30
0.0
 40
0.37125
100
AcDbArc
 50
101.790362
 51
258.20932
  0
ARC
  5
4F7
100
AcDbEntity
  8
OBJECT1
100
AcDbCircle
 10
1.418659
 20
-3.200826
 30
0.0
 40
0.37125
100
AcDbArc
 50
281.79068
 51
78.209638
  0
ARC
  5
4F8
100
AcDbEntity
  8
HIDDEN1
100
AcDbCircle
 10
-1.063734
 20
6.884754
 30
0.0
 40
0.37125
100
AcDbArc
 50
281.79068
 51
78.209638
  0
ARC
  5
4F9
100
AcDbEntity
  8
OBJECT1
100
AcDbCircle
 10
-1.002344
 20
-3.080926
 30
0.0
 40
0.495
100
AcDbArc
 50
155.033413
 51
261.184684
  0
ARC
  5
4FA
100
AcDbEntity
  8
OBJECT1
100
AcDbCircle
 10
-3.423344
 20
-3.080926
 30
0.0
 40
0.495
100
AcDbArc
 50
155.033413
 51
261.184684
  0
ARC
  5
4FB
100
AcDbEntity
  8
OBJECT1
100
AcDbCircle
 10
1.418659
 20
-3.080926
 30
0.0
 40
0.495
100
AcDbArc
 50
278.815316
 51
24.966587
  0
ARC
  5
4FC
100
AcDbEntity
  8
HIDDEN1
100
AcDbCircle
 10
-1.063734
 20
7.004653
 30
0.0
 40
0.495
100
AcDbArc
 50
278.815316
 51
24.966587
  0
ARC
  5
4FD
100
AcDbEntity
  8
OBJECT1
100
AcDbCircle
 10
-1.002341
 20
-3.080926
 30
0.0
 40
0.495
100
AcDbArc
 50
278.815316
 51
24.966587
  0
ARC
  5
4FE
100
AcDbEntity
  8
OBJECT1
100
AcDbCircle
 10
-3.423341
 20
-3.080926
 30
0.0
 40
0.495
100
AcDbArc
 50
278.815316
 51
24.966587
  0
ARC
  5
4FF
100
AcDbEntity
  8
OBJECT1
100
AcDbCircle
 10
1.418656
 20
-3.080926
 30
0.0
 40
0.495
100
AcDbArc
 50
155.033413
 51
261.184684
  0
ARC
  5
500
100
AcDbEntity
  8
HIDDEN1
100
AcDbCircle
 10
-1.063737
 20
7.004653
 30
0.0
 40
0.495
100
AcDbArc
 50
155.033413
 51
261.184684
  0
ARC
  5
501
100
AcDbEntity
  8
OBJECT1
100
AcDbCircle
 10
-3.423344
 20
-3.080926
 30
0.0
 40
0.495
100
AcDbArc
 50
41.948938
 51
138.050903
  0
ARC
  5
502
100
AcDbEntity
  8
OBJECT1
100
AcDbCircle
 10
1.418659
 20
-3.080926
 30
0.0
 40
0.495
100
AcDbArc
 50
41.949097
 51
138.051062
  0
ARC
  5
503
100
AcDbEntity
  8
HIDDEN1
100
AcDbCircle
 10
-1.063734
 20
7.004653
 30
0.0
 40
0.495
100
AcDbArc
 50
41.949097
 51
138.051062
  0
ARC
  5
504
100
AcDbEntity
  8
OBJECT1
100
AcDbCircle
 10
-1.002344
 20
-3.080926
 30
0.0
 40
0.495
100
AcDbArc
 50
41.948938
 51
138.050903
  0
ARC
  5
505
100
AcDbEntity
  8
OBJECT1
100
AcDbCircle
 10
-1.002356
 20
-2.950989
 30
0.0
 40
0.624986
100
AcDbArc
 50
155.029398
 51
179.99423
  0
ARC
  5
506
100
AcDbEntity
  8
OBJECT1
100
AcDbCircle
 10
-1.002317
 20
-2.950915
 30
0.0
 40
0.624989
100
AcDbArc
 50
90.002351
 51
138.054315
  0
ARC
  5
507
100
AcDbEntity
  8
OBJECT1
100
AcDbCircle
 10
-1.002342
 20
-2.950926
 30
0.0
 40
0.625
100
AcDbArc
 50
0.0
 51
24.966237
  0
LWPOLYLINE
  5
508
100
AcDbEntity
  8
OBJECT1
100
AcDbPolyline
 90
        3
 70
   128
 43
0.0
 10
-0.926485
 20
-3.575926
 42
0.18433
 10
-0.534374
 20
-3.368671
 42
0.182197
 10
-0.377342
 20
-2.950926
  0
ARC
  5
509
100
AcDbEntity
  8
OBJECT1
100
AcDbCircle
 10
-1.002342
 20
-2.950926
 30
0.0
 40
0.625
100
AcDbArc
 50
180.0
 51
263.028466
  0
ARC
  5
50A
100
AcDbEntity
  8
OBJECT1
100
AcDbCircle
 10
-1.002342
 20
-2.950926
 30
0.0
 40
0.625
100
AcDbArc
 50
41.949064
 51
90.0
  0
LWPOLYLINE
  5
50B
100
AcDbEntity
  8
OBJECT1
100
AcDbPolyline
 90
        4
 70
   129
 43
0.0
 10
2.470158
 20
-1.036229
 10
-4.474842
 20
-1.036229
 10
-4.474842
 20
-0.330524
 10
2.470158
 20
-0.330524
  0
LWPOLYLINE
  5
50C
100
AcDbEntity
  8
OBJECT1
100
AcDbPolyline
 90
        4
 70
   128
 43
0.0
 10
-3.272864
 20
-0.330524
 10
-2.25504
 20
1.14822
 10
0.250356
 20
1.14822
 10
1.26818
 20
-0.330524
  0
LWPOLYLINE
  5
50D
100
AcDbEntity
  8
OBJECT1
100
AcDbPolyline
 90
       22
 70
   128
 43
0.0
 10
2.948852
 20
-1.161689
 10
2.948852
 20
-1.843946
 10
2.252658
 20
-2.301886
 10
2.252658
 20
-1.619628
 10
2.948852
 20
-1.161689
 10
2.252658
 20
-1.161689
 10
2.948852
 20
-1.161689
 10
2.948852
 20
-0.326326
 10
3.180546
 20
-0.326326
 10
3.131266
 20
1.589563
 10
2.710213
 20
1.589563
 10
2.571856
 20
0.712377
 10
2.660932
 20
-0.326326
 10
2.948852
 20
-0.326326
 10
2.661123
 20
-0.318925
 10
2.68765
 20
0.712377
 10
3.153829
 20
0.712377
 10
2.687958
 20
0.72436
 10
2.710213
 20
1.589563
 10
3.131266
 20
1.589563
 10
3.269623
 20
0.712377
 10
3.180546
 20
-0.326326
  0
LWPOLYLINE
  5
50E
100
AcDbEntity
  8
OBJECT1
100
AcDbPolyline
 90
        4
 70
   128
 43
0.0
 10
-2.14095
 20
-4.593785
 10
-2.411025
 20
-4.84578
 10
-2.842876
 20
-4.84578
 10
-3.11295
 20
-4.593785
  0
LWPOLYLINE
  5
50F
100
AcDbEntity
  8
OBJECT1
100
AcDbPolyline
 90
        4
 70
   128
 43
0.0
 10
1.23105
 20
-4.593785
 10
0.960975
 20
-4.84578
 10
0.529124
 20
-4.84578
 10
0.25905
 20
-4.593785
  0
LWPOLYLINE
  5
510
100
AcDbEntity
  8
OBJECT1
100
AcDbPolyline
 90
       24
 70
   128
 43
0.0
 10
2.948852
 20
14.013507
 10
2.191266
 20
14.975957
 10
2.191266
 20
18.318352
 10
2.948852
 20
18.318352
 10
2.948852
 20
17.296582
 10
2.191266
 20
17.296582
 10
2.948852
 20
17.296582
 10
2.948852
 20
12.366162
 10
3.180546
 20
12.366162
 10
3.269623
 20
11.332672
 10
3.131266
 20
10.299379
 10
3.180546
 20
12.366162
 10
2.660932
 20
12.366162
 10
2.685575
 20
11.332672
 10
3.155904
 20
11.332672
 10
2.685575
 20
11.332672
 10
2.710213
 20
10.299379
 10
3.131266
 20
10.299379
 10
2.710213
 20
10.299379
 10
2.571856
 20
11.332672
 10
2.660932
 20
12.366162
 10
2.191266
 20
12.366162
 10
2.191266
 20
11.550515
 10
2.590632
 20
11.550515
  0
LWPOLYLINE
  5
511
100
AcDbEntity
  8
OBJECT1
100
AcDbPolyline
 90
        4
 70
   128
 43
0.0
 10
17.228224
 20
18.29908
 10
17.228224
 20
20.793507
 10
16.52252
 20
20.793507
 10
16.52252
 20
18.29908
  0
LWPOLYLINE
  5
512
100
AcDbEntity
  8
OBJECT1
100
AcDbPolyline
 90
        4
 70
   128
 43
0.0
 10
16.52252
 20
11.46012
 10
16.52252
 20
5.913507
 10
17.228224
 20
5.913507
 10
17.228224
 20
11.420527
  0
LWPOLYLINE
  5
513
100
AcDbEntity
  8
OBJECT1
100
AcDbPolyline
 90
        4
 70
   128
 43
0.0
 10
17.228224
 20
20.714776
 10
19.913781
 20
20.714776
 10
19.913781
 20
6.237313
 10
17.228224
 20
6.237313
  0
ARC
  5
514
100
AcDbEntity
  8
OBJECT1
100
AcDbCircle
 10
18.824545
 20
19.23505
 30
0.0
 40
0.495
100
AcDbArc
 50
131.948938
 51
228.050903
  0
ARC
  5
515
100
AcDbEntity
  8
OBJECT1
100
AcDbCircle
 10
18.824545
 20
7.71704
 30
0.0
 40
0.495
100
AcDbArc
 50
131.949097
 51
228.051062
  0
ARC
  5
516
100
AcDbEntity
  8
OBJECT1
100
AcDbCircle
 10
18.824545
 20
19.235053
 30
0.0
 40
0.495
100
AcDbArc
 50
8.815316
 51
114.966587
  0
ARC
  5
517
100
AcDbEntity
  8
OBJECT1
100
AcDbCircle
 10
18.824545
 20
7.717037
 30
0.0
 40
0.495
100
AcDbArc
 50
245.033413
 51
351.184684
  0
ARC
  5
518
100
AcDbEntity
  8
OBJECT1
100
AcDbCircle
 10
18.824545
 20
19.23505
 30
0.0
 40
0.495
100
AcDbArc
 50
245.033413
 51
351.184684
  0
ARC
  5
519
100
AcDbEntity
  8
OBJECT1
100
AcDbCircle
 10
18.824545
 20
7.71704
 30
0.0
 40
0.495
100
AcDbArc
 50
8.815316
 51
114.966587
  0
ARC
  5
51A
100
AcDbEntity
  8
OBJECT1
100
AcDbCircle
 10
18.944445
 20
19.23505
 30
0.0
 40
0.37125
100
AcDbArc
 50
191.790362
 51
348.20932
  0
ARC
  5
51B
100
AcDbEntity
  8
OBJECT1
100
AcDbCircle
 10
18.944445
 20
7.71704
 30
0.0
 40
0.37125
100
AcDbArc
 50
11.79068
 51
168.209638
  0
ARC
  5
51C
100
AcDbEntity
  8
OBJECT1
100
AcDbCircle
 10
18.944445
 20
19.23505
 30
0.0
 40
0.2475
100
AcDbArc
 50
197.848299
 51
342.151384
  0
ARC
  5
51D
100
AcDbEntity
  8
OBJECT1
100
AcDbCircle
 10
18.944445
 20
7.71704
 30
0.0
 40
0.2475
100
AcDbArc
 50
17.848616
 51
162.151701
  0
ARC
  5
51E
100
AcDbEntity
  8
OBJECT1
100
AcDbCircle
 10
18.944445
 20
19.23505
 30
0.0
 40
0.2475
100
AcDbArc
 50
17.848458
 51
162.151542
  0
ARC
  5
51F
100
AcDbEntity
  8
OBJECT1
100
AcDbCircle
 10
18.944445
 20
7.71704
 30
0.0
 40
0.2475
100
AcDbArc
 50
197.848458
 51
342.151542
  0
ARC
  5
520
100
AcDbEntity
  8
OBJECT1
100
AcDbCircle
 10
18.944445
 20
19.23505
 30
0.0
 40
0.37125
100
AcDbArc
 50
11.790521
 51
168.209479
  0
ARC
  5
521
100
AcDbEntity
  8
OBJECT1
100
AcDbCircle
 10
18.944445
 20
7.71704
 30
0.0
 40
0.37125
100
AcDbArc
 50
191.790521
 51
348.209479
  0
LWPOLYLINE
  5
522
100
AcDbEntity
  8
OBJECT1
100
AcDbPolyline
 90
       45
 70
   128
 43
0.0
 10
16.939506
 20
11.847911
 42
0.060289
 10
16.960277
 20
11.864757
 42
0.054966
 10
16.977395
 20
11.886953
 42
0.046825
 10
16.990696
 20
11.914285
 42
0.038513
 10
17.000052
 20
11.946491
 42
0.031398
 10
17.005372
 20
11.983261
 42
0.025785
 10
17.006605
 20
12.024239
 42
0.021507
 10
17.00374
 20
12.069032
 42
0.018285
 10
16.996804
 20
12.117208
 42
0.029902
 10
16.971024
 20
12.221825
 42
0.024302
 10
16.930256
 20
12.33407
 42
0.04117
 10
16.810541
 20
12.564063
 42
0.04117
 10
16.655884
 20
12.772173
 42
0.024302
 10
16.572696
 20
12.857851
 42
0.029902
 10
16.489829
 20
12.926716
 42
0.018285
 10
16.449514
 20
12.953988
 42
0.021507
 10
16.410466
 20
12.97612
 42
0.025785
 10
16.37306
 20
12.9929
 42
0.031398
 10
16.337658
 20
13.004165
 42
0.038513
 10
16.304598
 20
13.009808
 42
0.046825
 10
16.274201
 20
13.009773
 42
0.054966
 10
16.246759
 20
13.004062
 42
0.060289
 10
16.222536
 20
12.992729
 42
0.060289
 10
16.201765
 20
12.975884
 42
0.054966
 10
16.184647
 20
12.953688
 42
0.046825
 10
16.171346
 20
12.926355
 42
0.038513
 10
16.161991
 20
12.894149
 42
0.031398
 10
16.156671
 20
12.85738
 42
0.025785
 10
16.155437
 20
12.816402
 42
0.021507
 10
16.158303
 20
12.771609
 42
0.018285
 10
16.165239
 20
12.723433
 42
0.029902
 10
16.191019
 20
12.618816
 42
0.024302
 10
16.231786
 20
12.506571
 42
0.04117
 10
16.351501
 20
12.276578
 42
0.04117
 10
16.506159
 20
12.068468
 42
0.024302
 10
16.589346
 20
11.98279
 42
0.029902
 10
16.672214
 20
11.913925
 42
0.018285
 10
16.712528
 20
11.886653
 42
0.021507
 10
16.751577
 20
11.864521
 42
0.025785
 10
16.788982
 20
11.847741
 42
0.031398
 10
16.824385
 20
11.836476
 42
0.038513
 10
16.857444
 20
11.830833
 42
0.046825
 10
16.887841
 20
11.830867
 42
0.054966
 10
16.915283
 20
11.836578
 42
0.060289
 10
16.939506
 20
11.847911
  0
LINE
  5
523
100
AcDbEntity
  8
OBJECT1
100
AcDbLine
 10
19.212358
 20
19.15919
 30
0.0
 11
19.136036
 21
19.15919
 31
0.0
  0
LINE
  5
524
100
AcDbEntity
  8
OBJECT1
100
AcDbLine
 10
19.212358
 20
7.792899
 30
0.0
 11
19.136036
 21
7.792899
 31
0.0
  0
LINE
  5
525
100
AcDbEntity
  8
OBJECT1
100
AcDbLine
 10
18.741182
 20
19.159191
 30
0.0
 11
18.66486
 21
19.159191
 31
0.0
  0
LINE
  5
526
100
AcDbEntity
  8
OBJECT1
100
AcDbLine
 10
18.741182
 20
7.792898
 30
0.0
 11
18.66486
 21
7.792898
 31
0.0
  0
LINE
  5
527
100
AcDbEntity
  8
OBJECT1
100
AcDbLine
 10
18.613353
 20
19.159191
 30
0.0
 11
18.537031
 21
19.159191
 31
0.0
  0
LINE
  5
528
100
AcDbEntity
  8
OBJECT1
100
AcDbLine
 10
18.613353
 20
7.792898
 30
0.0
 11
18.537031
 21
7.792898
 31
0.0
  0
LINE
  5
529
100
AcDbEntity
  8
OBJECT1
100
AcDbLine
 10
19.346023
 20
19.159191
 30
0.0
 11
19.269701
 21
19.159191
 31
0.0
  0
LINE
  5
52A
100
AcDbEntity
  8
OBJECT1
100
AcDbLine
 10
19.346023
 20
7.792898
 30
0.0
 11
19.269701
 21
7.792898
 31
0.0
  0
LINE
  5
52B
100
AcDbEntity
  8
OBJECT1
100
AcDbLine
 10
19.213049
 20
19.310908
 30
0.0
 11
19.136727
 21
19.310908
 31
0.0
  0
LINE
  5
52C
100
AcDbEntity
  8
OBJECT1
100
AcDbLine
 10
19.213049
 20
7.641182
 30
0.0
 11
19.136727
 21
7.641182
 31
0.0
  0
LINE
  5
52D
100
AcDbEntity
  8
OBJECT1
100
AcDbLine
 10
18.741873
 20
19.310909
 30
0.0
 11
18.665551
 21
19.310909
 31
0.0
  0
LINE
  5
52E
100
AcDbEntity
  8
OBJECT1
100
AcDbLine
 10
18.741873
 20
7.641181
 30
0.0
 11
18.665551
 21
7.641181
 31
0.0
  0
LINE
  5
52F
100
AcDbEntity
  8
OBJECT1
100
AcDbLine
 10
18.614044
 20
19.310909
 30
0.0
 11
18.537722
 21
19.310909
 31
0.0
  0
LINE
  5
530
100
AcDbEntity
  8
OBJECT1
100
AcDbLine
 10
18.614044
 20
7.641181
 30
0.0
 11
18.537722
 21
7.641181
 31
0.0
  0
LINE
  5
531
100
AcDbEntity
  8
OBJECT1
100
AcDbLine
 10
19.346714
 20
19.310909
 30
0.0
 11
19.270392
 21
19.310909
 31
0.0
  0
LINE
  5
532
100
AcDbEntity
  8
OBJECT1
100
AcDbLine
 10
19.346714
 20
7.641181
 30
0.0
 11
19.270392
 21
7.641181
 31
0.0
  0
LINE
  5
533
100
AcDbEntity
  8
OBJECT1
100
AcDbLine
 10
18.519874
 20
18.896925
 30
0.0
 11
18.467463
 21
18.836912
 31
0.0
  0
LINE
  5
534
100
AcDbEntity
  8
OBJECT1
100
AcDbLine
 10
18.519874
 20
8.055165
 30
0.0
 11
18.467463
 21
8.115178
 31
0.0
  0
LINE
  5
535
100
AcDbEntity
  8
OBJECT1
100
AcDbLine
 10
18.519874
 20
19.573178
 30
0.0
 11
18.467463
 21
19.633191
 31
0.0
  0
LINE
  5
536
100
AcDbEntity
  8
OBJECT1
100
AcDbLine
 10
18.519874
 20
7.378911
 30
0.0
 11
18.467463
 21
7.318899
 31
0.0
  0
LINE
  5
537
100
AcDbEntity
  8
OBJECT1
100
AcDbLine
 10
18.634853
 20
18.819635
 30
0.0
 11
18.596368
 21
18.752976
 31
0.0
  0
LINE
  5
538
100
AcDbEntity
  8
OBJECT1
100
AcDbLine
 10
18.634853
 20
8.132455
 30
0.0
 11
18.596368
 21
8.199113
 31
0.0
  0
LINE
  5
539
100
AcDbEntity
  8
OBJECT1
100
AcDbLine
 10
18.634853
 20
19.650468
 30
0.0
 11
18.596368
 21
19.717126
 31
0.0
  0
LINE
  5
53A
100
AcDbEntity
  8
OBJECT1
100
AcDbLine
 10
18.634853
 20
7.301622
 30
0.0
 11
18.596368
 21
7.234963
 31
0.0
  0
LINE
  5
53B
100
AcDbEntity
  8
OBJECT1
100
AcDbLine
 10
17.983748
 20
15.333941
 30
0.0
 11
17.406248
 21
14.590361
 31
0.0
  0
LINE
  5
53C
100
AcDbEntity
  8
OBJECT1
100
AcDbLine
 10
18.750322
 20
14.576759
 30
0.0
 11
17.58348
 21
13.074351
 31
0.0
  0
LWPOLYLINE
  5
53D
100
AcDbEntity
  8
OBJECT1
100
AcDbPolyline
 90
        4
 70
   128
 43
0.0
 10
19.913781
 20
7.749507
 10
20.165777
 20
7.479433
 10
20.165777
 20
7.04758
 10
19.913781
 20
6.777507
  0
LWPOLYLINE
  5
53E
100
AcDbEntity
  8
OBJECT1
100
AcDbPolyline
 90
        4
 70
   128
 43
0.0
 10
19.913781
 20
20.154507
 10
20.165777
 20
19.884433
 10
20.165777
 20
19.45258
 10
19.913781
 20
19.182507
  0
CIRCLE
  5
53F
100
AcDbEntity
  8
OBJECT1
100
AcDbCircle
 10
18.582574
 20
15.320358
 30
0.0
 40
0.145186
  0
LINE
  5
540
100
AcDbEntity
  8
OBJECT1
100
AcDbLine
 10
15.595264
 20
12.091931
 30
0.0
 11
16.359507
 21
11.498383
 31
0.0
  0
ARC
  5
541
100
AcDbEntity
  8
OBJECT1
100
AcDbCircle
 10
15.657959
 20
12.172656
 30
0.0
 40
0.102211
100
AcDbArc
 50
142.165239
 51
232.165159
  0
LINE
  5
542
100
AcDbEntity
  8
OBJECT1
100
AcDbLine
 10
15.815621
 20
12.542296
 30
0.0
 11
15.577234
 21
12.235351
 31
0.0
  0
LINE
  5
543
100
AcDbEntity
  8
OBJECT1
100
AcDbLine
 10
15.420864
 20
10.2898
 30
0.0
 11
16.403556
 21
11.555099
 31
0.0
  0
ARC
  5
544
100
AcDbEntity
  8
OBJECT1
100
AcDbCircle
 10
15.340139
 20
10.352496
 30
0.0
 40
0.102211
100
AcDbArc
 50
232.165159
 51
322.16508
  0
LINE
  5
545
100
AcDbEntity
  8
OBJECT1
100
AcDbLine
 10
14.654257
 20
10.755767
 30
0.0
 11
15.277443
 21
10.27177
 31
0.0
  0
ARC
  5
546
100
AcDbEntity
  8
OBJECT1
100
AcDbCircle
 10
14.716952
 20
10.836493
 30
0.0
 40
0.102211
100
AcDbArc
 50
142.165239
 51
232.165159
  0
LINE
  5
547
100
AcDbEntity
  8
OBJECT1
100
AcDbLine
 10
15.57487
 20
12.10777
 30
0.0
 11
14.636227
 21
10.899187
 31
0.0
  0
LINE
  5
548
100
AcDbEntity
  8
OBJECT1
100
AcDbLine
 10
19.727137
 20
14.027142
 30
0.0
 11
19.727137
 21
16.428828
 31
0.0
  0
LINE
  5
549
100
AcDbEntity
  8
OBJECT1
100
AcDbLine
 10
18.207354
 20
11.420527
 30
0.0
 11
19.727137
 21
14.027142
 31
0.0
  0
LINE
  5
54A
100
AcDbEntity
  8
OBJECT1
100
AcDbLine
 10
16.689109
 20
11.420527
 30
0.0
 11
18.21528
 21
11.420527
 31
0.0
  0
ARC
  5
54B
100
AcDbEntity
  8
OBJECT1
100
AcDbCircle
 10
16.689109
 20
11.790773
 30
0.0
 40
0.370247
100
AcDbArc
 50
211.972152
 51
269.999762
  0
LWPOLYLINE
  5
54C
100
AcDbEntity
  8
OBJECT1
100
AcDbPolyline
 90
        3
 70
   128
 43
0.0
 10
16.232258
 20
18.110951
 42
0.1521
 10
15.284821
 20
14.82277
 42
0.153363
 10
16.375016
 20
11.594742
  0
ARC
  5
54D
100
AcDbEntity
  8
OBJECT1
100
AcDbCircle
 10
16.554618
 20
17.928833
 30
0.0
 40
0.370247
100
AcDbArc
 50
89.999921
 51
150.53793
  0
LINE
  5
54E
100
AcDbEntity
  8
OBJECT1
100
AcDbLine
 10
17.616286
 20
18.29908
 30
0.0
 11
16.554618
 21
18.29908
 31
0.0
  0
LINE
  5
54F
100
AcDbEntity
  8
OBJECT1
100
AcDbLine
 10
19.727137
 20
16.428828
 30
0.0
 11
17.611762
 21
18.29908
 31
0.0
  0
ARC
  5
550
100
AcDbEntity
  8
OBJECT1
100
AcDbCircle
 10
18.414259
 20
15.359843
 30
0.0
 40
0.43129
100
AcDbArc
 50
133.075704
 51
233.63227
  0
LINE
  5
551
100
AcDbEntity
  8
OBJECT1
100
AcDbLine
 10
18.860259
 20
16.367292
 30
0.0
 11
18.119703
 21
15.674879
 31
0.0
  0
LINE
  5
552
100
AcDbEntity
  8
OBJECT1
100
AcDbLine
 10
17.288626
 20
17.756809
 30
0.0
 11
18.860259
 21
16.367292
 31
0.0
  0
ARC
  5
553
100
AcDbEntity
  8
OBJECT1
100
AcDbCircle
 10
17.193402
 20
17.649104
 30
0.0
 40
0.143764
100
AcDbArc
 50
48.519311
 51
186.667841
  0
LINE
  5
554
100
AcDbEntity
  8
OBJECT1
100
AcDbLine
 10
17.69012
 20
12.162169
 30
0.0
 11
17.050611
 21
17.632411
 31
0.0
  0
ARC
  5
555
100
AcDbEntity
  8
OBJECT1
100
AcDbCircle
 10
17.832911
 20
12.178863
 30
0.0
 40
0.143764
100
AcDbArc
 50
186.667841
 51
329.755436
  0
LINE
  5
556
100
AcDbEntity
  8
OBJECT1
100
AcDbLine
 10
19.203042
 20
14.243382
 30
0.0
 11
17.957106
 21
12.10645
 31
0.0
  0
LINE
  5
557
100
AcDbEntity
  8
OBJECT1
100
AcDbLine
 10
18.158521
 20
15.012555
 30
0.0
 11
19.203042
 21
14.243382
 31
0.0
  0
LWPOLYLINE
  5
558
100
AcDbEntity
  8
OBJECT1
100
AcDbPolyline
 90
        3
 70
   128
 43
0.0
 10
16.52252
 20
19.325326
 10
15.295777
 20
18.307502
 10
15.295777
 20
11.748414
  0
LWPOLYLINE
  5
559
100
AcDbEntity
  8
OBJECT1
100
AcDbPolyline
 90
        3
 70
   128
 43
0.0
 10
15.295777
 20
10.260413
 10
15.295777
 20
9.401493
 10
16.52252
 20
8.383669
  0
LWPOLYLINE
  5
5DB
100
AcDbEntity
  8
DIM
100
AcDbPolyline
 90
        3
 70
   128
 43
0.0
 10
20.165777
 20
6.8901
 10
20.165777
 20
4.583946
 10
20.165777
 20
4.426465
  0
INSERT
  5
5DC
100
AcDbEntity
  8
OBJECT1
100
AcDbBlockReference
  2
M_PFN_2
 10
20.165777
 20
7.04758
 30
0.0
 41
4.0
 42
4.0
 43
4.0
 50
270.0
  0
LWPOLYLINE
  5
5DD
100
AcDbEntity
  8
DIM
100
AcDbPolyline
 90
        3
 70
   128
 43
0.0
 10
15.295777
 20
9.244012
 10
15.295777
 20
4.583946
 10
15.295777
 20
4.426465
  0
INSERT
  5
5DE
100
AcDbEntity
  8
OBJECT1
100
AcDbBlockReference
  2
M_PFN_2
 10
15.295777
 20
9.401493
 30
0.0
 41
4.0
 42
4.0
 43
4.0
 50
270.0
  0
TEXT
  5
5DF
100
AcDbEntity
  8
DIM
100
AcDbText
 10
17.070777
 20
4.383946
 30
0.0
 40
0.4
  1
4.87
 41
0.896304
  7
M_STANDARD
 11
17.070777
 21
4.583946
 31
0.0
100
AcDbText
 73
     2
  0
TEXT
  5
5E0
100
AcDbEntity
  8
DIM
100
AcDbText
 10
17.383763
 20
3.824186
 30
0.0
 40
0.32
  1
124
 41
0.89305
  7
M_STANDARD
 72
     1
 11
17.730777
 21
4.144186
 31
0.0
100
AcDbText
 73
     3
  0
LINE
  5
5E1
100
AcDbEntity
  8
DIM
100
AcDbLine
 10
15.295777
 20
4.583946
 30
0.0
 11
16.937577
 21
4.583946
 31
0.0
  0
LINE
  5
5E2
100
AcDbEntity
  8
DIM
100
AcDbLine
 10
18.523977
 20
4.583946
 30
0.0
 11
20.165777
 21
4.583946
 31
0.0
  0
INSERT
  5
5E3
100
AcDbEntity
  8
DIM
100
AcDbBlockReference
  2
M_PFN_101
 10
15.295777
 20
4.583946
 30
0.0
 41
4.0
 42
4.0
 43
4.0
  0
INSERT
  5
5E4
100
AcDbEntity
  8
DIM
100
AcDbBlockReference
  2
M_PFN_100
 10
20.165777
 20
4.583946
 30
0.0
 41
4.0
 42
4.0
 43
4.0
  0
LWPOLYLINE
  5
5E5
100
AcDbEntity
  8
DIM
100
AcDbPolyline
 90
        3
 70
   128
 43
0.0
 10
0.816266
 20
6.910026
 10
0.816266
 20
4.583946
 10
0.816266
 20
4.426465
  0
INSERT
  5
5E6
100
AcDbEntity
  8
OBJECT1
100
AcDbBlockReference
  2
M_PFN_2
 10
0.816266
 20
7.067507
 30
0.0
 41
4.0
 42
4.0
 43
4.0
 50
270.0
  0
LWPOLYLINE
  5
5E7
100
AcDbEntity
  8
DIM
100
AcDbPolyline
 90
        3
 70
   128
 43
0.0
 10
-2.943734
 20
6.910026
 10
-2.943734
 20
4.583946
 10
-2.943734
 20
4.426465
  0
INSERT
  5
5E8
100
AcDbEntity
  8
OBJECT1
100
AcDbBlockReference
  2
M_PFN_2
 10
-2.943734
 20
7.067507
 30
0.0
 41
4.0
 42
4.0
 43
4.0
 50
270.0
  0
TEXT
  5
5E9
100
AcDbEntity
  8
DIM
100
AcDbText
 10
-1.846442
 20
4.383946
 30
0.0
 40
0.4
  1
3.76
 41
0.896304
  7
M_STANDARD
 11
-1.846442
 21
4.583946
 31
0.0
100
AcDbText
 73
     2
  0
TEXT
  5
5EA
100
AcDbEntity
  8
DIM
100
AcDbText
 10
-1.66954
 20
3.824186
 30
0.0
 40
0.32
  1
 96
 41
0.89305
  7
M_STANDARD
 72
     1
 11
-1.186442
 21
4.144186
 31
0.0
100
AcDbText
 73
     3
  0
LINE
  5
5EB
100
AcDbEntity
  8
DIM
100
AcDbLine
 10
-2.943734
 20
4.583946
 30
0.0
 11
-1.979642
 21
4.583946
 31
0.0
  0
LINE
  5
5EC
100
AcDbEntity
  8
DIM
100
AcDbLine
 10
-0.393242
 20
4.583946
 30
0.0
 11
0.816266
 21
4.583946
 31
0.0
  0
INSERT
  5
5ED
100
AcDbEntity
  8
DIM
100
AcDbBlockReference
  2
M_PFN_101
 10
-2.943734
 20
4.583946
 30
0.0
 41
4.0
 42
4.0
 43
4.0
  0
INSERT
  5
5EE
100
AcDbEntity
  8
DIM
100
AcDbBlockReference
  2
M_PFN_100
 10
0.816266
 20
4.583946
 30
0.0
 41
4.0
 42
4.0
 43
4.0
  0
LWPOLYLINE
  5
5EF
100
AcDbEntity
  8
DIM
100
AcDbPolyline
 90
        3
 70
   128
 43
0.0
 10
3.131266
 20
10.141898
 10
3.131266
 20
2.756898
 10
3.131266
 20
2.599417
  0
INSERT
  5
5F0
100
AcDbEntity
  8
OBJECT1
100
AcDbBlockReference
  2
M_PFN_2
 10
3.131266
 20
10.299379
 30
0.0
 41
4.0
 42
4.0
 43
4.0
 50
270.0
  0
LWPOLYLINE
  5
5F1
100
AcDbEntity
  8
DIM
100
AcDbPolyline
 90
        3
 70
   128
 43
0.0
 10
-4.318734
 20
5.756026
 10
-4.318734
 20
2.756898
 10
-4.318734
 20
2.599417
  0
INSERT
  5
5F2
100
AcDbEntity
  8
OBJECT1
100
AcDbBlockReference
  2
M_PFN_2
 10
-4.318734
 20
5.913507
 30
0.0
 41
4.0
 42
4.0
 43
4.0
 50
270.0
  0
TEXT
  5
5F3
100
AcDbEntity
  8
DIM
100
AcDbText
 10
-1.274019
 20
2.556898
 30
0.0
 40
0.4
  1
7.45
 41
0.896304
  7
M_STANDARD
 11
-1.274019
 21
2.756898
 31
0.0
100
AcDbText
 73
     2
  0
TEXT
  5
5F4
100
AcDbEntity
  8
DIM
100
AcDbText
 10
-0.947425
 20
1.997138
 30
0.0
 40
0.32
  1
189
 41
0.89305
  7
M_STANDARD
 72
     1
 11
-0.614019
 21
2.317138
 31
0.0
100
AcDbText
 73
     3
  0
LINE
  5
5F5
100
AcDbEntity
  8
DIM
100
AcDbLine
 10
-4.318734
 20
2.756898
 30
0.0
 11
-1.407219
 21
2.756898
 31
0.0
  0
LINE
  5
5F6
100
AcDbEntity
  8
DIM
100
AcDbLine
 10
0.179181
 20
2.756898
 30
0.0
 11
3.131266
 21
2.756898
 31
0.0
  0
INSERT
  5
5F7
100
AcDbEntity
  8
DIM
100
AcDbBlockReference
  2
M_PFN_101
 10
-4.318734
 20
2.756898
 30
0.0
 41
4.0
 42
4.0
 43
4.0
  0
INSERT
  5
5F8
100
AcDbEntity
  8
DIM
100
AcDbBlockReference
  2
M_PFN_100
 10
3.131266
 20
2.756898
 30
0.0
 41
4.0
 42
4.0
 43
4.0
  0
LWPOLYLINE
  5
5F9
100
AcDbEntity
  8
DIM
100
AcDbPolyline
 90
        3
 70
   128
 43
0.0
 10
-4.476214
 20
20.513507
 10
-9.52199
 20
20.513507
 10
-9.67947
 20
20.513507
  0
INSERT
  5
5FA
100
AcDbEntity
  8
OBJECT1
100
AcDbBlockReference
  2
M_PFN_2
 10
-4.318734
 20
20.513507
 30
0.0
 41
4.0
 42
4.0
 43
4.0
 50
180.0
  0
LWPOLYLINE
  5
5FB
100
AcDbEntity
  8
DIM
100
AcDbPolyline
 90
        3
 70
   128
 43
0.0
 10
-4.476214
 20
5.913507
 10
-9.52199
 20
5.913507
 10
-9.67947
 20
5.913507
  0
INSERT
  5
5FC
100
AcDbEntity
  8
OBJECT1
100
AcDbBlockReference
  2
M_PFN_2
 10
-4.318734
 20
5.913507
 30
0.0
 41
4.0
 42
4.0
 43
4.0
 50
180.0
  0
TEXT
  5
5FD
100
AcDbEntity
  8
DIM
100
AcDbText
 10
-10.36199
 20
13.151049
 30
0.0
 40
0.4
  1
14.60
 41
0.930783
  7
M_STANDARD
 11
-10.36199
 21
13.351049
 31
0.0
100
AcDbText
 73
     2
  0
TEXT
  5
5FE
100
AcDbEntity
  8
DIM
100
AcDbText
 10
-9.871099
 20
12.591289
 30
0.0
 40
0.32
  1
371
 41
1.018234
  7
M_STANDARD
 72
     1
 11
-9.52199
 21
12.911289
 31
0.0
100
AcDbText
 73
     3
  0
LINE
  5
5FF
100
AcDbEntity
  8
DIM
100
AcDbLine
 10
-9.52199
 20
5.913507
 30
0.0
 11
-9.52199
 21
12.351449
 31
0.0
  0
LINE
  5
600
100
AcDbEntity
  8
DIM
100
AcDbLine
 10
-9.52199
 20
13.684249
 30
0.0
 11
-9.52199
 21
20.513507
 31
0.0
  0
INSERT
  5
601
100
AcDbEntity
  8
DIM
100
AcDbBlockReference
  2
M_PFN_101
 10
-9.52199
 20
5.913507
 30
0.0
 41
4.0
 42
4.0
 43
4.0
 50
90.0
  0
INSERT
  5
602
100
AcDbEntity
  8
DIM
100
AcDbBlockReference
  2
M_PFN_100
 10
-9.52199
 20
20.513507
 30
0.0
 41
4.0
 42
4.0
 43
4.0
 50
90.0
  0
LWPOLYLINE
  5
603
100
AcDbEntity
  8
DIM
100
AcDbPolyline
 90
        3
 70
   128
 43
0.0
 10
-3.411214
 20
7.553507
 10
-6.53452
 20
7.553507
 10
-6.692
 20
7.553507
  0
INSERT
  5
604
100
AcDbEntity
  8
OBJECT1
100
AcDbBlockReference
  2
M_PFN_2
 10
-3.253734
 20
7.553507
 30
0.0
 41
4.0
 42
4.0
 43
4.0
 50
180.0
  0
LWPOLYLINE
  5
605
100
AcDbEntity
  8
DIM
100
AcDbPolyline
 90
        3
 70
   128
 43
0.0
 10
-1.531214
 20
18.793507
 10
-6.53452
 20
18.793507
 10
-6.692
 20
18.793507
  0
INSERT
  5
606
100
AcDbEntity
  8
OBJECT1
100
AcDbBlockReference
  2
M_PFN_2
 10
-1.373734
 20
18.793507
 30
0.0
 41
4.0
 42
4.0
 43
4.0
 50
180.0
  0
TEXT
  5
607
100
AcDbEntity
  8
DIM
100
AcDbText
 10
-7.37452
 20
13.242967
 30
0.0
 40
0.4
  1
11.24
 41
0.897713
  7
M_STANDARD
 11
-7.37452
 21
13.442967
 31
0.0
100
AcDbText
 73
     2
  0
TEXT
  5
608
100
AcDbEntity
  8
DIM
100
AcDbText
 10
-6.901946
 20
12.683207
 30
0.0
 40
0.32
  1
285
 41
0.89305
  7
M_STANDARD
 72
     1
 11
-6.53452
 21
13.003207
 31
0.0
100
AcDbText
 73
     3
  0
LINE
  5
609
100
AcDbEntity
  8
DIM
100
AcDbLine
 10
-6.53452
 20
18.793507
 30
0.0
 11
-6.53452
 21
13.776167
 31
0.0
  0
LINE
  5
60A
100
AcDbEntity
  8
DIM
100
AcDbLine
 10
-6.53452
 20
12.443367
 30
0.0
 11
-6.53452
 21
7.553507
 31
0.0
  0
INSERT
  5
60B
100
AcDbEntity
  8
DIM
100
AcDbBlockReference
  2
M_PFN_101
 10
-6.53452
 20
18.793507
 30
0.0
 41
4.0
 42
4.0
 43
4.0
 50
270.0
  0
INSERT
  5
60C
100
AcDbEntity
  8
DIM
100
AcDbBlockReference
  2
M_PFN_100
 10
-6.53452
 20
7.553507
 30
0.0
 41
4.0
 42
4.0
 43
4.0
 50
270.0
  0
LWPOLYLINE
  5
60D
100
AcDbEntity
  8
DIM
100
AcDbPolyline
 90
        3
 70
   128
 43
0.0
 10
-4.041136
 20
7.553507
 10
-6.65452
 20
7.553507
 10
-6.812
 20
7.553507
  0
INSERT
  5
60E
100
AcDbEntity
  8
OBJECT1
100
AcDbBlockReference
  2
M_PFN_4
 10
-3.253734
 20
7.553507
 30
0.0
 41
4.0
 42
4.0
 43
4.0
 50
180.0
  0
LWPOLYLINE
  5
60F
100
AcDbEntity
  8
DIM
100
AcDbPolyline
 90
        3
 70
   128
 43
0.0
 10
-5.226136
 20
5.913507
 10
-6.53452
 20
5.913507
 10
-6.692
 20
5.913507
  0
INSERT
  5
610
100
AcDbEntity
  8
OBJECT1
100
AcDbBlockReference
  2
M_PFN_4
 10
-4.438734
 20
5.913507
 30
0.0
 41
4.0
 42
4.0
 43
4.0
 50
180.0
  0
TEXT
  5
611
100
AcDbEntity
  8
DIM
100
AcDbText
 10
-8.26331
 20
5.162326
 30
0.0
 40
0.4
  1
1.64
 41
0.896304
  7
M_STANDARD
 11
-8.26331
 21
5.362326
 31
0.0
100
AcDbText
 73
     2
  0
TEXT
  5
612
100
AcDbEntity
  8
DIM
100
AcDbText
 10
-8.093212
 20
4.602566
 30
0.0
 40
0.32
  1
 42
 41
0.89305
  7
M_STANDARD
 72
     1
 11
-7.60331
 21
4.922566
 31
0.0
100
AcDbText
 73
     3
  0
LWPOLYLINE
  5
613
100
AcDbEntity
  8
DIM
100
AcDbPolyline
 90
        3
 70
   128
 43
0.0
 10
-6.81011
 20
5.362326
 10
-6.53452
 20
5.362326
 10
-6.53452
 20
5.913507
  0
LINE
  5
614
100
AcDbEntity
  8
DIM
100
AcDbLine
 10
-6.53452
 20
7.553507
 30
0.0
 11
-6.53452
 21
8.104688
 31
0.0
  0
INSERT
  5
615
100
AcDbEntity
  8
DIM
100
AcDbBlockReference
  2
M_PFN_100
 10
-6.53452
 20
5.913507
 30
0.0
 41
4.0
 42
4.0
 43
4.0
 50
90.0
  0
INSERT
  5
616
100
AcDbEntity
  8
DIM
100
AcDbBlockReference
  2
M_PFN_101
 10
-6.53452
 20
7.553507
 30
0.0
 41
4.0
 42
4.0
 43
4.0
 50
90.0
  0
LWPOLYLINE
  5
617
100
AcDbEntity
  8
DIM
100
AcDbPolyline
 90
        3
 70
   128
 43
0.0
 10
-1.063734
 20
19.260987
 10
-1.063734
 20
21.943123
 10
-1.063734
 20
22.100603
  0
INSERT
  5
618
100
AcDbEntity
  8
OBJECT1
100
AcDbBlockReference
  2
M_PFN_2
 10
-1.063734
 20
19.103507
 30
0.0
 41
4.0
 42
4.0
 43
4.0
 50
90.0
  0
LWPOLYLINE
  5
619
100
AcDbEntity
  8
DIM
100
AcDbPolyline
 90
        3
 70
   128
 43
0.0
 10
-2.943734
 20
19.260987
 10
-2.943734
 20
21.943123
 10
-2.943734
 20
22.100603
  0
INSERT
  5
61A
100
AcDbEntity
  8
HIDDEN1
100
AcDbBlockReference
  2
M_PFN_2
 10
-2.943734
 20
19.103507
 30
0.0
 41
4.0
 42
4.0
 43
4.0
 50
90.0
  0
TEXT
  5
61B
100
AcDbEntity
  8
DIM
100
AcDbText
 10
-2.66626
 20
21.743123
 30
0.0
 40
0.4
  1
1.88
 41
0.896304
  7
M_STANDARD
 11
-2.66626
 21
21.943123
 31
0.0
100
AcDbText
 73
     2
  0
TEXT
  5
61C
100
AcDbEntity
  8
DIM
100
AcDbText
 10
-2.234875
 20
21.183363
 30
0.0
 40
0.32
  1
48
 41
0.882523
  7
M_STANDARD
 72
     1
 11
-2.00626
 21
21.503363
 31
0.0
100
AcDbText
 73
     3
  0
LWPOLYLINE
  5
61D
100
AcDbEntity
  8
DIM
100
AcDbPolyline
 90
        3
 70
   128
 43
0.0
 10
2.191266
 20
20.670987
 10
2.191266
 20
23.432707
 10
2.191266
 20
23.590187
  0
INSERT
  5
61E
100
AcDbEntity
  8
OBJECT1
100
AcDbBlockReference
  2
M_PFN_2
 10
2.191266
 20
20.513507
 30
0.0
 41
4.0
 42
4.0
 43
4.0
 50
90.0
  0
LWPOLYLINE
  5
61F
100
AcDbEntity
  8
DIM
100
AcDbPolyline
 90
        3
 70
   128
 43
0.0
 10
-4.318734
 20
20.670987
 10
-4.318734
 20
23.432707
 10
-4.318734
 20
23.590187
  0
INSERT
  5
620
100
AcDbEntity
  8
OBJECT1
100
AcDbBlockReference
  2
M_PFN_2
 10
-4.318734
 20
20.513507
 30
0.0
 41
4.0
 42
4.0
 43
4.0
 50
90.0
  0
TEXT
  5
621
100
AcDbEntity
  8
DIM
100
AcDbText
 10
-1.723734
 20
23.232707
 30
0.0
 40
0.4
  1
6.51
 41
0.985087
  7
M_STANDARD
 11
-1.723734
 21
23.432707
 31
0.0
100
AcDbText
 73
     2
  0
TEXT
  5
622
100
AcDbEntity
  8
DIM
100
AcDbText
 10
-1.403944
 20
22.672947
 30
0.0
 40
0.32
  1
165
 41
0.89305
  7
M_STANDARD
 72
     1
 11
-1.063734
 21
22.992947
 31
0.0
100
AcDbText
 73
     3
  0
LINE
  5
623
100
AcDbEntity
  8
DIM
100
AcDbLine
 10
-4.318734
 20
23.432707
 30
0.0
 11
-1.856934
 21
23.432707
 31
0.0
  0
LINE
  5
624
100
AcDbEntity
  8
DIM
100
AcDbLine
 10
-0.270534
 20
23.432707
 30
0.0
 11
2.191266
 21
23.432707
 31
0.0
  0
INSERT
  5
625
100
AcDbEntity
  8
DIM
100
AcDbBlockReference
  2
M_PFN_101
 10
-4.318734
 20
23.432707
 30
0.0
 41
4.0
 42
4.0
 43
4.0
  0
INSERT
  5
626
100
AcDbEntity
  8
DIM
100
AcDbBlockReference
  2
M_PFN_100
 10
2.191266
 20
23.432707
 30
0.0
 41
4.0
 42
4.0
 43
4.0
  0
SOLID
  5
627
100
AcDbEntity
  8
DIM
100
AcDbTrace
 10
-3.219325
 20
22.008181
 30
0.0
 11
-3.219325
 21
21.878065
 31
0.0
 12
-2.943734
 22
21.943123
 32
0.0
 13
-2.943734
 23
21.943123
 33
0.0
  0
SOLID
  5
628
100
AcDbEntity
  8
DIM
100
AcDbTrace
 10
1.091857
 20
21.878065
 30
0.0
 11
1.091857
 21
22.008181
 31
0.0
 12
0.816266
 22
21.943123
 32
0.0
 13
0.816266
 23
21.943123
 33
0.0
  0
LWPOLYLINE
  5
629
100
AcDbEntity
  8
DIM
100
AcDbPolyline
 90
        3
 70
   128
 43
0.0
 10
-1.063734
 20
19.260987
 10
-1.063734
 20
21.943123
 10
-1.063734
 20
22.100603
  0
INSERT
  5
62A
100
AcDbEntity
  8
OBJECT1
100
AcDbBlockReference
  2
M_PFN_2
 10
-1.063734
 20
19.103507
 30
0.0
 41
4.0
 42
4.0
 43
4.0
 50
90.0
  0
LWPOLYLINE
  5
62B
100
AcDbEntity
  8
DIM
100
AcDbPolyline
 90
        3
 70
   128
 43
0.0
 10
0.816266
 20
19.260987
 10
0.816266
 20
21.943123
 10
0.816266
 20
22.100603
  0
INSERT
  5
62C
100
AcDbEntity
  8
OBJECT1
100
AcDbBlockReference
  2
M_PFN_2
 10
0.816266
 20
19.103507
 30
0.0
 41
4.0
 42
4.0
 43
4.0
 50
90.0
  0
TEXT
  5
62D
100
AcDbEntity
  8
DIM
100
AcDbText
 10
-0.817718
 20
21.743123
 30
0.0
 40
0.4
  1
1.88
 41
0.896304
  7
M_STANDARD
 11
-0.817718
 21
21.943123
 31
0.0
100
AcDbText
 73
     2
  0
TEXT
  5
62E
100
AcDbEntity
  8
DIM
100
AcDbText
 10
-0.386333
 20
21.183363
 30
0.0
 40
0.32
  1
48
 41
0.882523
  7
M_STANDARD
 72
     1
 11
-0.157718
 21
21.503363
 31
0.0
100
AcDbText
 73
     3
  0
LWPOLYLINE
  5
62F
100
AcDbEntity
  8
DIM
100
AcDbPolyline
 90
        3
 70
   128
 43
0.0
 10
7.05033
 20
21.20397
 10
4.765746
 20
21.20397
 10
4.608266
 20
21.20397
  0
INSERT
  5
630
100
AcDbEntity
  8
OBJECT1
100
AcDbBlockReference
  2
M_PFN_2
 10
7.20781
 20
21.20397
 30
0.0
 41
4.0
 42
4.0
 43
4.0
 50
180.0
  0
LWPOLYLINE
  5
631
100
AcDbEntity
  8
DIM
100
AcDbPolyline
 90
        3
 70
   128
 43
0.0
 10
6.06033
 20
19.20397
 10
4.765746
 20
19.20397
 10
4.608266
 20
19.20397
  0
INSERT
  5
632
100
AcDbEntity
  8
OBJECT1
100
AcDbBlockReference
  2
M_PFN_2
 10
6.21781
 20
19.20397
 30
0.0
 41
4.0
 42
4.0
 43
4.0
 50
180.0
  0
TEXT
  5
633
100
AcDbEntity
  8
DIM
100
AcDbText
 10
4.097246
 20
20.346164
 30
0.0
 40
0.4
  1
.50
 41
0.951579
  7
M_STANDARD
 11
4.097246
 21
20.546164
 31
0.0
100
AcDbText
 73
     2
  0
TEXT
  5
634
100
AcDbEntity
  8
DIM
100
AcDbText
 10
4.404056
 20
19.786403
 30
0.0
 40
0.32
  1
13
 41
0.882523
  7
M_STANDARD
 72
     1
 11
4.605776
 21
20.106403
 31
0.0
100
AcDbText
 73
     3
  0
LINE
  5
635
100
AcDbEntity
  8
DIM
100
AcDbLine
 10
4.765746
 20
18.652789
 30
0.0
 11
4.765746
 21
19.20397
 31
0.0
  0
LINE
  5
636
100
AcDbEntity
  8
DIM
100
AcDbLine
 10
4.765746
 20
21.20397
 30
0.0
 11
4.765746
 21
21.755151
 31
0.0
  0
INSERT
  5
637
100
AcDbEntity
  8
DIM
100
AcDbBlockReference
  2
M_PFN_100
 10
4.765746
 20
19.20397
 30
0.0
 41
4.0
 42
4.0
 43
4.0
 50
90.0
  0
INSERT
  5
638
100
AcDbEntity
  8
DIM
100
AcDbBlockReference
  2
M_PFN_101
 10
4.765746
 20
21.20397
 30
0.0
 41
4.0
 42
4.0
 43
4.0
 50
90.0
  0
LWPOLYLINE
  5
669
102
{ACAD_REACTORS
330
66A
102
}
100
AcDbEntity
  8
0
 62
     0
100
AcDbPolyline
 90
        6
 70
     1
 43
0.0
 10
41.300512
 20
26.211277
 10
41.300393
 20
-11.73833
 10
7.710351
 20
-11.73833
 10
7.710351
 20
-15.38633
 10
-24.299492
 20
-15.386331
 10
-24.299492
 20
26.211277
  0
VIEWPORT
  5
66A
102
{ACAD_XDICTIONARY
360
707
102
}
100
AcDbEntity
  8
0
 62
     0
100
AcDbViewport
 10
8.50051
 20
5.412473
 30
0.0
 40
65.600004
 41
41.597608
 69
     0
1001
ACAD
1000
MVIEW
1002
{
1070
    16
1010
0.0
1020
0.0
1030
0.0
1010
0.0
1020
0.0
1030
1.0
1040
0.0
1040
166.390432
1040
-5.428951
1040
7.910123
1040
50.0
1040
0.0
1040
0.0
1070
     0
1070
   100
1070
     1
1070
     0
1070
     0
1070
     0
1070
     0
1070
     0
1040
0.0
1040
0.0
1040
0.0
1040
0.19685
1040
0.19685
1040
0.19685
1040
0.19685
1070
     0
1002
{
1002
}
1002
}
  0
VIEWPORT
  5
63D
102
{ACAD_XDICTIONARY
360
703
102
}
100
AcDbEntity
 67
     1
  8
0
 62
     0
100
AcDbViewport
 10
8.21875
 20
5.21875
 30
0.0
 40
18.876534
 41
11.102039
 68
     1
 69
     1
1001
ACAD
1000
MVIEW
1002
{
1070
    16
1010
0.0
1020
0.0
1030
0.0
1010
0.0
1020
0.0
1030
1.0
1040
0.0
1040
11.102039
1040
8.21875
1040
5.21875
1040
50.0
1040
0.0
1040
0.0
1070
     0
1070
   100
1070
     1
1070
     1
1070
     0
1070
     0
1070
     0
1070
     0
1040
0.0
1040
0.0
1040
0.0
1040
0.5
1040
0.5
1040
0.5
1040
0.5
1070
     0
1002
{
1002
}
1002
}
  0
LWPOLYLINE
  5
651
100
AcDbEntity
 67
     1
  8
BORDER
100
AcDbPolyline
 90
        4
 70
   129
 43
0.0
 10
0.0
 20
0.177386
 10
16.400001
 20
0.177386
 10
16.400001
 20
10.576788
 10
0.0
 20
10.576788
  0
LWPOLYLINE
  5
652
100
AcDbEntity
 67
     1
  8
BORDER
100
AcDbPolyline
 90
        3
 70
   128
 43
0.0
 10
8.002461
 20
0.177386
 10
8.002461
 20
1.089386
 10
16.399971
 20
1.089386
  0
INSERT
  5
653
100
AcDbEntity
 67
     1
  8
BORDER
100
AcDbBlockReference
  2
M_PIC_H94
 10
14.380532
 20
0.917239
 30
0.0
 41
0.21
 42
0.21
 43
0.21
1001
MED_PRIMTYPE
1000
SUP
  0
LINE
  5
654
100
AcDbEntity
 67
     1
  8
BORDER
100
AcDbLine
 10
12.201216
 20
0.472959
 30
0.0
 11
16.399971
 21
0.472959
 31
0.0
  0
TEXT
  5
655
100
AcDbEntity
 67
     1
  8
BORDER
100
AcDbText
 10
8.940494
 20
0.805044
 30
0.0
 40
0.1
  1
GENERAL DUTY SAFETY SWITCHES
 41
0.899935
  7
M_STANDARD
 72
     1
 11
10.101838
 21
0.855044
 31
0.0
100
AcDbText
 73
     2
  0
TEXT
  5
656
100
AcDbEntity
 67
     1
  8
BORDER
100
AcDbText
 10
8.756174
 20
0.389802
 30
0.0
 40
0.08
  1
ENCLOSURE - NEMA TYPE 1 GENERAL PURPOSE
 41
0.899967
  7
M_STANDARD
 72
     1
 11
10.101838
 21
0.429802
 31
0.0
100
AcDbText
 73
     2
  0
TEXT
  5
657
100
AcDbEntity
 67
     1
  8
BORDER
100
AcDbText
 10
9.548223
 20
0.671248
 30
0.0
 40
0.08
  1
VISIBLE BLADE TYPE
 41
0.89984
  7
M_STANDARD
 72
     1
 11
10.101838
 21
0.711248
 31
0.0
100
AcDbText
 73
     2
  0
TEXT
  5
658
100
AcDbEntity
 67
     1
  8
BORDER
100
AcDbText
 10
9.795208
 20
0.535525
 30
0.0
 40
0.08
  1
60 AMPERE
 41
0.899335
  7
M_STANDARD
 72
     1
 11
10.101838
 21
0.575525
 31
0.0
100
AcDbText
 73
     2
  0
LINE
  5
659
100
AcDbEntity
 67
     1
  8
BORDER
100
AcDbLine
 10
12.201216
 20
1.089386
 30
0.0
 11
12.201216
 21
0.177386
 31
0.0
  0
TEXT
  5
65A
100
AcDbEntity
 67
     1
  8
BORDER
100
AcDbText
 10
12.747724
 20
0.273927
 30
0.0
 40
0.12
  1
1859
 41
0.951202
  7
M_STANDARD
 11
12.747724
 21
0.333927
 31
0.0
100
AcDbText
 73
     2
  0
TEXT
  5
65B
100
AcDbEntity
 67
     1
  8
BORDER
100
AcDbText
 10
12.368977
 20
0.343543
 30
0.0
 40
0.07
  1
DWG.
 41
1.093272
  7
M_STANDARD
 11
12.368977
 21
0.378543
 31
0.0
100
AcDbText
 73
     2
  0
TEXT
  5
65C
100
AcDbEntity
 67
     1
  8
BORDER
100
AcDbText
 10
12.368977
 20
0.238543
 30
0.0
 40
0.07
  1
NO.
 41
1.183673
  7
M_STANDARD
 11
12.368977
 21
0.273543
 31
0.0
100
AcDbText
 73
     2
  0
TEXT
  5
65D
100
AcDbEntity
 67
     1
  8
BORDER
100
AcDbText
 10
15.516485
 20
0.026667
 30
0.0
 40
0.08
  1
REF DWG #1859
 41
0.899689
  7
M_STANDARD
 72
     2
 11
16.373331
 21
0.066667
 31
0.0
100
AcDbText
 73
     2
  0
TEXT
  5
65E
100
AcDbEntity
 67
     1
  8
BORDER
100
AcDbText
 10
16.362506
 20
0.174796
 30
0.0
 40
0.001
  1
1859
 41
1.375826
  7
M_STANDARD
 11
16.362506
 21
0.175296
 31
0.0
100
AcDbText
 73
     2
  0
TEXT
  5
65F
100
AcDbEntity
 67
     1
  8
BORDER
100
AcDbText
 10
0.02664
 20
0.026667
 30
0.0
 40
0.08
  1
JUNE 2000
 41
0.916942
  7
M_STANDARD
 11
0.02664
 21
0.066667
 31
0.0
100
AcDbText
 73
     2
  0
LWPOLYLINE
  5
660
102
{ACAD_REACTORS
330
662
102
}
100
AcDbEntity
 67
     1
  8
0
 62
     0
100
AcDbPolyline
 90
        6
 70
     1
 43
0.0
 10
16.400001
 20
10.576788
 10
16.399971
 20
1.089386
 10
8.002461
 20
1.089386
 10
8.002461
 20
0.177386
 10
0.0
 20
0.177386
 10
0.0
 20
10.576788
  0
VIEWPORT
  5
662
102
{ACAD_XDICTIONARY
360
705
102
}
100
AcDbEntity
 67
     1
  8
0
 62
     0
100
AcDbViewport
 10
8.2
 20
5.377087
 30
0.0
 40
16.400001
 41
10.399402
 68
     2
 69
     2
1001
ACAD
1000
MVIEW
1002
{
1070
    16
1010
0.0
1020
0.0
1030
0.0
1010
0.0
1020
0.0
1030
1.0
1040
0.0
1040
41.597608
1040
8.50051
1040
5.412473
1040
50.0
1040
0.0
1040
0.0
1070
     0
1070
   100
1070
     1
1070
     0
1070
     0
1070
     0
1070
     0
1070
     0
1040
0.0
1040
0.0
1040
0.0
1040
0.19685
1040
0.19685
1040
0.19685
1040
0.19685
1070
     0
1002
{
1002
}
1002
}
  0
ENDSEC
  0
SECTION
  2
OBJECTS
  0
DICTIONARY
  5
19
100
AcDbDictionary
  3
ACAD_GROUP
350
1A
  3
ACAD_LAYOUT
350
597
  3
ACAD_MLINESTYLE
350
1B
  3
ACAD_PLOTSETTINGS
350
598
  3
ACAD_PLOTSTYLENAME
350
595
  3
ACDBHEADERROUNDTRIPXREC
350
6DB
  0
DICTIONARY
  5
6FF
100
AcDbDictionary
280
     1
  3
ACAD_XREC_ROUNDTRIP
360
700
  0
DICTIONARY
  5
6D9
100
AcDbDictionary
280
     1
  3
ACAD_XREC_ROUNDTRIP
360
6DA
  0
DICTIONARY
  5
6FD
100
AcDbDictionary
280
     1
  3
ACAD_XREC_ROUNDTRIP
360
6FE
  0
DICTIONARY
  5
6C3
100
AcDbDictionary
280
     1
  3
ACAD_LAYOUTSELFREF
360
6FB
  0
DICTIONARY
  5
6C5
100
AcDbDictionary
280
     1
  3
ACAD_LAYOUTSELFREF
360
6FC
  0
DICTIONARY
  5
707
100
AcDbDictionary
280
     1
  3
ACAD_XREC_ROUNDTRIP
360
708
  0
DICTIONARY
  5
703
100
AcDbDictionary
280
     1
  3
ACAD_XREC_ROUNDTRIP
360
704
  0
DICTIONARY
  5
705
100
AcDbDictionary
280
     1
  3
ACAD_XREC_ROUNDTRIP
360
706
  0
DICTIONARY
  5
1A
102
{ACAD_REACTORS
330
19
102
}
100
AcDbDictionary
  0
DICTIONARY
  5
597
102
{ACAD_XDICTIONARY
360
701
102
}
102
{ACAD_REACTORS
330
19
102
}
100
AcDbDictionary
  3
LAYOUT1
350
59A
  3
MODEL
350
599
  0
DICTIONARY
  5
1B
102
{ACAD_REACTORS
330
19
102
}
100
AcDbDictionary
  3
STANDARD
350
1C
  0
DICTIONARY
  5
598
102
{ACAD_REACTORS
330
19
102
}
100
AcDbDictionary
  0
ACAD_PROXY_OBJECT
  5
595
102
{ACAD_REACTORS
330
19
102
}
100
AcDbProxyObject
 90
      499
 91
      515
 93
       86
310
405010041939BDC9B585B2
350
596
340
596
 94
        0
  0
DICTIONARY
  5
6DB
102
{ACAD_REACTORS
330
19
102
}
100
AcDbDictionary
  3
CEPSNTYPE
350
6E5
  3
FINGERPRINTGUID
350
6E6
  3
HYPERLINKBASE
350
6DE
  3
INSUNITS
350
6E4
  3
LAYOUTDICT
350
6E0
  3
LWETCUNION
350
6E3
  3
PLOTSETDICT
350
6E1
  3
PLOTSTYLNAMDICT
350
6E2
  3
PSVPSCALE
350
6E8
  3
PUCSBASE
350
6EB
  3
PUCSORGBACK
350
6F1
  3
PUCSORGBOTTOM
350
6ED
  3
PUCSORGFRONT
350
6F0
  3
PUCSORGLEFT
350
6EE
  3
PUCSORGRIGHT
350
6EF
  3
PUCSORGTOP
350
6EC
  3
PUCSORTHOREF
350
6E9
  3
PUCSORTHOVIEW
350
6EA
  3
STYLESHEET
350
6DF
  3
TSTACKALIGN
350
6DC
  3
TSTACKSIZE
350
6DD
  3
UCSBASE
350
6F4
  3
UCSORGBACK
350
6FA
  3
UCSORGBOTTOM
350
6F6
  3
UCSORGFRONT
350
6F9
  3
UCSORGLEFT
350
6F7
  3
UCSORGRIGHT
350
6F8
  3
UCSORGTOP
350
6F5
  3
UCSORTHOREF
350
6F2
  3
UCSORTHOVIEW
350
6F3
  3
VERSIONGUID
350
6E7
  0
XRECORD
  5
700
102
{ACAD_REACTORS
330
6FF
102
}
100
AcDbXrecord
102
UCS
 74
     0
 71
     1
 10
0.0
 20
0.0
 30
0.0
 10
1.0
 20
0.0
 30
0.0
 10
0.0
 20
1.0
 30
0.0
146
0.0
 79
     0
102
VIEW
281
     0
  0
XRECORD
  5
6DA
102
{ACAD_REACTORS
330
6D9
102
}
100
AcDbXrecord
102
EXTNAMES
  1
*ACTIVE
  2
*Active
102
UCS
 74
     0
 71
     1
 10
0.0
 20
0.0
 30
0.0
 10
1.0
 20
0.0
 30
0.0
 10
0.0
 20
1.0
 30
0.0
146
0.0
 79
     0
102
VIEW
281
     0
  0
XRECORD
  5
6FE
102
{ACAD_REACTORS
330
6FD
102
}
100
AcDbXrecord
102
ACADR14ROUNDTRIP
1000
DSTYLE
1002
{
1070
   289
 70
     0
1002
}
  0
XRECORD
  5
6FB
102
{ACAD_REACTORS
330
6C3
102
}
100
AcDbXrecord
340
A
  0
XRECORD
  5
6FC
102
{ACAD_REACTORS
330
6C5
102
}
100
AcDbXrecord
340
B
  0
XRECORD
  5
708
102
{ACAD_REACTORS
330
707
102
}
100
AcDbXrecord
102
UCS
 74
     0
 71
     1
 10
0.0
 20
0.0
 30
0.0
 10
1.0
 20
0.0
 30
0.0
 10
0.0
 20
1.0
 30
0.0
146
0.0
 79
     0
102
VIEW
281
     0
102
NONRECTVIEWCLIP
330
669
102
NEWVIEWCONTROL
280
     4
  0
XRECORD
  5
704
102
{ACAD_REACTORS
330
703
102
}
100
AcDbXrecord
102
UCS
 74
     0
 71
     1
 10
0.0
 20
0.0
 30
0.0
 10
1.0
 20
0.0
 30
0.0
 10
0.0
 20
1.0
 30
0.0
146
0.0
 79
     0
102
VIEW
281
     0
102
NEWVIEWCONTROL
280
     4
  0
XRECORD
  5
706
102
{ACAD_REACTORS
330
705
102
}
100
AcDbXrecord
102
UCS
 74
     0
 71
     1
 10
0.0
 20
0.0
 30
0.0
 10
1.0
 20
0.0
 30
0.0
 10
0.0
 20
1.0
 30
0.0
146
0.0
 79
     0
102
VIEW
281
     0
102
NONRECTVIEWCLIP
330
660
102
NEWVIEWCONTROL
280
     4
  0
DICTIONARY
  5
701
100
AcDbDictionary
280
     1
  3
ACAD_XREC_ROUNDTRIP
360
702
  0
ACAD_PROXY_OBJECT
  5
59A
102
{ACAD_REACTORS
330
597
102
}
100
AcDbProxyObject
 90
      499
 91
      517
 93
     1524
310
91C5C5C4D4E56415030325C4850204C617365724A657420355369204D582C0080000002033931C40000000380D24C71000000000038931C40000000000C24C7100000000606676714000000030333F1E90106557365723432A901416AA5439B5BDB9BD8DA1C9BDB594B98DD1891069074C61796F75743140501AB83BFDFEFF
310
7FF46FE7F3F9FCFFFFF46FC0000000002E0C1010A8543E3FDBC9502A6A6A000000202E3E18AF8000080AC5F36633E843989576666630400C8B44F09409C95020
330
B
330
63D
340
0
340
0
 94
        0
  0
ACAD_PROXY_OBJECT
  5
599
102
{ACAD_REACTORS
330
597
102
}
100
AcDbProxyObject
 90
      499
 91
      517
 93
      660
310
91C5C5C4D4E56415030325C4850204C617365724A657420355369204D582C01AAAAAAAAA5A69054D6F64656C901A800000000000000000000000000000000000000000000A1000000000000008902A6A6AAAA0
330
A
330
0
340
0
340
0
 94
        0
  0
MLINESTYLE
  5
1C
102
{ACAD_REACTORS
330
1B
102
}
100
AcDbMlineStyle
  2
STANDARD
 70
     0
  3

 62
     0
 51
90.0
 52
90.0
 71
     2
 49
0.5
 62
   256
  6
BYLAYER
 49
-0.5
 62
   256
  6
BYLAYER
  0
ACAD_PROXY_OBJECT
  5
596
102
{ACAD_REACTORS
330
595
102
}
100
AcDbProxyObject
 90
      499
 91
      516
 93
        0
 94
        0
  0
XRECORD
  5
6E5
102
{ACAD_REACTORS
330
6DB
102
}
100
AcDbXrecord
 90
        0
  0
XRECORD
  5
6E6
102
{ACAD_REACTORS
330
6DB
102
}
100
AcDbXrecord
  1
{89609DC4-4D2D-11D4-B10A-000629A2B5F4}
  0
XRECORD
  5
6DE
102
{ACAD_REACTORS
330
6DB
102
}
100
AcDbXrecord
  1

  0
XRECORD
  5
6E4
102
{ACAD_REACTORS
330
6DB
102
}
100
AcDbXrecord
 90
        0
  0
XRECORD
  5
6E0
102
{ACAD_REACTORS
330
6DB
102
}
100
AcDbXrecord
340
597
  0
XRECORD
  5
6E3
102
{ACAD_REACTORS
330
6DB
102
}
100
AcDbXrecord
 90
    10781
  0
XRECORD
  5
6E1
102
{ACAD_REACTORS
330
6DB
102
}
100
AcDbXrecord
340
598
  0
XRECORD
  5
6E2
102
{ACAD_REACTORS
330
6DB
102
}
100
AcDbXrecord
340
595
  0
XRECORD
  5
6E8
102
{ACAD_REACTORS
330
6DB
102
}
100
AcDbXrecord
 40
0.25
  0
XRECORD
  5
6EB
102
{ACAD_REACTORS
330
6DB
102
}
100
AcDbXrecord
340
0
  0
XRECORD
  5
6F1
102
{ACAD_REACTORS
330
6DB
102
}
100
AcDbXrecord
 10
0.0
 20
0.0
 30
0.0
  0
XRECORD
  5
6ED
102
{ACAD_REACTORS
330
6DB
102
}
100
AcDbXrecord
 10
0.0
 20
0.0
 30
0.0
  0
XRECORD
  5
6F0
102
{ACAD_REACTORS
330
6DB
102
}
100
AcDbXrecord
 10
0.0
 20
0.0
 30
0.0
  0
XRECORD
  5
6EE
102
{ACAD_REACTORS
330
6DB
102
}
100
AcDbXrecord
 10
0.0
 20
0.0
 30
0.0
  0
XRECORD
  5
6EF
102
{ACAD_REACTORS
330
6DB
102
}
100
AcDbXrecord
 10
0.0
 20
0.0
 30
0.0
  0
XRECORD
  5
6EC
102
{ACAD_REACTORS
330
6DB
102
}
100
AcDbXrecord
 10
0.0
 20
0.0
 30
0.0
  0
XRECORD
  5
6E9
102
{ACAD_REACTORS
330
6DB
102
}
100
AcDbXrecord
340
0
  0
XRECORD
  5
6EA
102
{ACAD_REACTORS
330
6DB
102
}
100
AcDbXrecord
 70
     0
  0
XRECORD
  5
6DF
102
{ACAD_REACTORS
330
6DB
102
}
100
AcDbXrecord
  1

  0
XRECORD
  5
6DC
102
{ACAD_REACTORS
330
6DB
102
}
100
AcDbXrecord
 90
        1
  0
XRECORD
  5
6DD
102
{ACAD_REACTORS
330
6DB
102
}
100
AcDbXrecord
 90
       70
  0
XRECORD
  5
6F4
102
{ACAD_REACTORS
330
6DB
102
}
100
AcDbXrecord
340
0
  0
XRECORD
  5
6FA
102
{ACAD_REACTORS
330
6DB
102
}
100
AcDbXrecord
 10
0.0
 20
0.0
 30
0.0
  0
XRECORD
  5
6F6
102
{ACAD_REACTORS
330
6DB
102
}
100
AcDbXrecord
 10
0.0
 20
0.0
 30
0.0
  0
XRECORD
  5
6F9
102
{ACAD_REACTORS
330
6DB
102
}
100
AcDbXrecord
 10
0.0
 20
0.0
 30
0.0
  0
XRECORD
  5
6F7
102
{ACAD_REACTORS
330
6DB
102
}
100
AcDbXrecord
 10
0.0
 20
0.0
 30
0.0
  0
XRECORD
  5
6F8
102
{ACAD_REACTORS
330
6DB
102
}
100
AcDbXrecord
 10
0.0
 20
0.0
 30
0.0
  0
XRECORD
  5
6F5
102
{ACAD_REACTORS
330
6DB
102
}
100
AcDbXrecord
 10
0.0
 20
0.0
 30
0.0
  0
XRECORD
  5
6F2
102
{ACAD_REACTORS
330
6DB
102
}
100
AcDbXrecord
340
0
  0
XRECORD
  5
6F3
102
{ACAD_REACTORS
330
6DB
102
}
100
AcDbXrecord
 70
     0
  0
XRECORD
  5
6E7
102
{ACAD_REACTORS
330
6DB
102
}
100
AcDbXrecord
  1
{390694FC-4DAF-11D4-B10A-000629A2B5F4}
  0
XRECORD
  5
702
102
{ACAD_REACTORS
330
701
102
}
100
AcDbXrecord
102
EXTNAMES
  1
LAYOUT1
  2
Layout1
  1
MODEL
  2
Model
  0
ENDSEC
  0
EOF
