0
SECTION
2
ENTITIES
0
CIRCLE
8
0
10
-374.789106627892
20
860.862833244623
30
0.0
40
10.0
0
CIRCLE
8
0
10
-337.217862788815
20
830.848900721673
30
0.0
40
13.4
0
LINE
8
0
10
-297.793128464799
20
894.560847630124
30
0.0
11
-297.793128464799
21
794.560847630124
31
0.0
0
LINE
8
0
10
-397.793128464799
20
894.560847630124
30
0.0
11
-297.793128464799
21
894.560847630124
31
0.0
0
LINE
8
0
10
-397.793128464799
20
794.560847630124
30
0.0
11
-397.793128464799
21
894.560847630124
31
0.0
0
LINE
8
0
10
-297.793128464799
20
794.560847630124
30
0.0
11
-397.793128464799
21
794.560847630124
31
0.0
0
LINE
8
0
10
-317.823621037658
20
871.055444973781
30
0.0
11
-315.599371710391
21
876.584369342515
31
0.0
0
LINE
8
0
10
-317.823621037658
20
865.113643143535
30
0.0
11
-317.823621037658
21
871.055444973781
31
0.0
0
LINE
8
0
10
-321.889945054518
20
871.055444973781
30
0.0
11
-317.823621037658
21
865.113643143535
31
0.0
0
LINE
8
0
10
-329.189945054518
20
871.055444973781
30
0.0
11
-321.889945054518
21
871.055444973781
31
0.0
0
LINE
8
0
10
-334.072960139069
20
867.687327563512
30
0.0
11
-329.189945054518
21
871.055444973781
31
0.0
0
LINE
8
0
10
-329.189945054518
20
860.608050504091
30
0.0
11
-334.072960139069
21
867.687327563512
31
0.0
0
LINE
8
0
10
-324.250914547945
20
864.014805214243
30
0.0
11
-329.189945054518
21
860.608050504091
31
0.0
0
LINE
8
0
10
-320.060349863075
20
857.939425981138
30
0.0
11
-324.250914547945
21
864.014805214243
31
0.0
0
LINE
8
0
10
-311.252412126354
20
864.014805214243
30
0.0
11
-320.060349863075
21
857.939425981138
31
0.0
0
LINE
8
0
10
-315.599371710391
20
876.584369342515
30
0.0
11
-311.252412126354
21
864.014805214243
31
0.0
0
ENDSEC
0
EOF
