0
SECTION
2
ENTITIES
0
CIRCLE
8
0
10
7.0
20
56.0
30
0.0
40
1.4
0
CIRCLE
8
0
10
7.0
20
36.0
30
0.0
40
1.4
0
CIRCLE
8
0
10
25.0
20
24.0
30
0.0
40
2.0
0
CIRCLE
8
0
10
48.0
20
24.0
30
0.0
40
2.0
0
CIRCLE
8
0
10
62.5
20
4.5
30
0.0
40
1.4
0
CIRCLE
8
0
10
62.5
20
12.0
30
0.0
40
1.4
0
CIRCLE
8
0
10
10.5
20
4.5
30
0.0
40
1.4
0
CIRCLE
8
0
10
10.5
20
12.0
30
0.0
40
1.4
0
CIRCLE
8
0
10
23.5
20
7.0
30
0.0
40
3.0
0
CIRCLE
8
0
10
49.5
20
7.0
30
0.0
40
3.0
0
CIRCLE
8
0
10
66.0
20
56.0
30
0.0
40
1.4
0
CIRCLE
8
0
10
4.5
20
65.0
30
0.0
40
1.5
0
CIRCLE
8
0
10
68.5
20
65.0
30
0.0
40
1.5
0
CIRCLE
8
0
10
66.0
20
36.0
30
0.0
40
1.4
0
ARC
8
0
10
129.4942141936
20
100.741382373327
30
0.0
40
125.91345
50
196.490523002222
51
210.942238814344
0
ARC
8
0
10
-56.503857225476
20
100.787256193959
30
0.0
40
125.9453125
50
329.04211758421
51
343.492002807646
0
ARC
8
0
10
36.5
20
51.75
30
0.0
40
21.75
50
226.397181027296
51
313.602818972704
0
LINE
8
0
10
0.0
20
70.0
30
0.0
11
0.012367188308
21
66.249688472549
31
0.0
0
LINE
8
0
10
67.517625465563
20
1.727634546891
30
0.0
11
67.427050983125
21
1.190983005625
31
0.0
0
LINE
8
0
10
67.5
20
2.0
30
0.0
11
67.517625465563
21
1.727634546891
31
0.0
0
LINE
8
0
10
67.555307867434
20
19.316522999142
30
0.0
11
67.5
21
18.0
31
0.0
0
LINE
8
0
10
67.732660773832
20
20.289200326153
30
0.0
11
67.660737386828
21
19.967396782066
31
0.0
0
LINE
8
0
10
68.145560287288
20
21.540521931201
30
0.0
11
67.732660773832
21
20.289200326153
31
0.0
0
LINE
8
0
10
73.0
20
35.0
30
0.0
11
72.914137525667
21
33.688136788255
31
0.0
0
LINE
8
0
10
69.861762375939
20
69.823196824064
30
0.0
11
70.999448893326
21
69.306950830652
31
0.0
0
LINE
8
0
10
72.628276340114
20
67.445433748608
30
0.0
11
72.988933450746
21
66.249287024285
31
0.0
0
LINE
8
0
10
0.0
20
35.0
30
0.0
11
0.085862474333
21
33.688136788255
31
0.0
0
LINE
8
0
10
0.085862474333
20
33.688136788255
30
0.0
11
0.134877600522
21
33.362908780991
31
0.0
0
LINE
8
0
10
0.134877600522
20
33.362908780991
30
0.0
11
0.194819995418
21
33.039516374466
31
0.0
0
LINE
8
0
10
0.347202138826
20
32.399704007474
30
0.0
11
0.779279981673
21
31.158065497863
31
0.0
0
LINE
8
0
10
5.268297696129
20
20.289421217702
30
0.0
11
4.854731648816
21
21.54062260119
31
0.0
0
LINE
8
0
10
64.621723659886
20
67.445433748608
30
0.0
11
65.30307943352
21
68.49261799567
31
0.0
0
LINE
8
0
10
64.261066549254
20
66.249287024285
30
0.0
11
64.621723659886
21
67.445433748608
31
0.0
0
LINE
8
0
10
64.25
20
65.0
30
0.0
11
64.261066549254
21
66.249287024285
31
0.0
0
LINE
8
0
10
0.0
20
65.0
30
0.0
11
0.0
21
35.0
31
0.0
0
LINE
8
0
10
0.012367188308
20
66.249688472549
30
0.0
11
0.0
21
65.0
31
0.0
0
LINE
8
0
10
0.374159602322
20
67.445924433776
30
0.0
11
0.012367188308
21
66.249688472549
31
0.0
0
LINE
8
0
10
2.004602175969
20
69.307160248441
30
0.0
11
1.056432639467
21
68.493005007827
31
0.0
0
LINE
8
0
10
3.142811479225
20
69.823255014692
30
0.0
11
2.004602175969
21
69.307160248441
31
0.0
0
LINE
8
0
10
4.38
20
70.0
30
0.0
11
3.142811479225
21
69.823255014692
31
0.0
0
LINE
8
0
10
5.617188520775
20
69.823255014692
30
0.0
11
4.38
21
70.0
31
0.0
0
LINE
8
0
10
7.703567360533
20
68.493005007827
30
0.0
11
6.755397824031
21
69.307160248441
31
0.0
0
LINE
8
0
10
6.755397824031
20
69.307160248441
30
0.0
11
5.617188520775
21
69.823255014692
31
0.0
0
LINE
8
0
10
8.385840397678
20
67.445924433776
30
0.0
11
7.703567360533
21
68.493005007827
31
0.0
0
LINE
8
0
10
8.76
20
65.0
30
0.0
11
8.747632811692
21
66.24968847255
31
0.0
0
LINE
8
0
10
8.747632811692
20
66.24968847255
30
0.0
11
8.385840397678
21
67.445924433776
31
0.0
0
LINE
8
0
10
66.250551106674
20
69.306950830652
30
0.0
11
67.388237624061
21
69.823196824064
31
0.0
0
LINE
8
0
10
65.30307943352
20
68.49261799567
30
0.0
11
66.250551106674
21
69.306950830652
31
0.0
0
LINE
8
0
10
5.506017156619
20
18.329714683605
30
0.0
11
5.5
21
18.0
31
0.0
0
LINE
8
0
10
5.5
20
18.0
30
0.0
11
5.5
21
2.0
31
0.0
0
LINE
8
0
10
5.533506558436
20
1.466802057349
30
0.0
11
5.5
21
2.0
31
0.0
0
LINE
8
0
10
5.607405408883
20
1.209375232186
30
0.0
11
5.533506558436
21
1.466802057349
31
0.0
0
LINE
8
0
10
5.71760977947
20
0.965275647765
30
0.0
11
5.607405408883
21
1.209375232186
31
0.0
0
LINE
8
0
10
5.861821688198
20
0.73959326965
30
0.0
11
5.71760977947
21
0.965275647765
31
0.0
0
LINE
8
0
10
6.037034027739
20
0.537034027739
30
0.0
11
5.861821688198
21
0.73959326965
31
0.0
0
LINE
8
0
10
6.23959326965
20
0.361821688198
30
0.0
11
6.037034027739
21
0.537034027739
31
0.0
0
LINE
8
0
10
6.465275647765
20
0.21760977947
30
0.0
11
6.23959326965
21
0.361821688198
31
0.0
0
LINE
8
0
10
6.709375232186
20
0.107405408883
30
0.0
11
6.465275647765
21
0.21760977947
31
0.0
0
LINE
8
0
10
6.966802057349
20
0.033506558436
30
0.0
11
6.709375232186
21
0.107405408883
31
0.0
0
LINE
8
0
10
7.5
20
0.0
30
0.0
11
6.966802057349
21
0.033506558436
31
0.0
0
LINE
8
0
10
7.5
20
0.0
30
0.0
11
28.5
21
0.0
31
0.0
0
LINE
8
0
10
28.5
20
0.0
30
0.0
11
29.100659479612
21
0.032503336745
31
0.0
0
LINE
8
0
10
29.100659479612
20
0.032503336745
30
0.0
11
29.395564938032
21
0.093486383299
31
0.0
0
LINE
8
0
10
29.395564938032
20
0.093486383299
30
0.0
11
29.682917703918
21
0.183578277005
31
0.0
0
LINE
8
0
10
29.682917703918
20
0.183578277005
30
0.0
11
29.959852213731
21
0.301880595866
31
0.0
0
LINE
8
0
10
29.959852213731
20
0.301880595866
30
0.0
11
30.22360679775
21
0.4472135955
31
0.0
0
LINE
8
0
10
30.22360679775
20
0.4472135955
30
0.0
11
30.471551220221
21
0.618127973886
31
0.0
0
LINE
8
0
10
30.471551220221
20
0.618127973886
30
0.0
11
30.70121290882
21
0.812919324216
31
0.0
0
LINE
8
0
10
30.70121290882
20
0.812919324216
30
0.0
11
30.910301611847
21
1.029645131723
31
0.0
0
LINE
8
0
10
30.910301611847
20
1.029645131723
30
0.0
11
31.096732237268
21
1.266144144995
31
0.0
0
LINE
8
0
10
31.096732237268
20
1.266144144995
30
0.0
11
31.394427191
21
1.788854382
31
0.0
0
LINE
8
0
10
31.394427191
20
1.788854382
30
0.0
11
32.605572809
21
4.211145618
31
0.0
0
LINE
8
0
10
32.605572809
20
4.211145618
30
0.0
11
32.904000630684
21
4.733169303701
31
0.0
0
LINE
8
0
10
32.904000630684
20
4.733169303701
30
0.0
11
33.090626148644
21
4.969362735132
31
0.0
0
LINE
8
0
10
33.090626148644
20
4.969362735132
30
0.0
11
33.299807990592
21
5.185833005616
31
0.0
0
LINE
8
0
10
33.299807990592
20
5.185833005616
30
0.0
11
33.529473667489
21
5.380435415313
31
0.0
0
LINE
8
0
10
33.529473667489
20
5.380435415313
30
0.0
11
33.777347744747
21
5.551241922297
31
0.0
0
LINE
8
0
10
33.777347744747
20
5.551241922297
30
0.0
11
34.040974386315
21
5.696560244817
31
0.0
0
LINE
8
0
10
34.040974386315
20
5.696560244817
30
0.0
11
34.31774168611
21
5.814950627739
31
0.0
0
LINE
8
0
10
34.31774168611
20
5.814950627739
30
0.0
11
34.604907545725
21
5.90524010706
31
0.0
0
LINE
8
0
10
34.604907545725
20
5.90524010706
30
0.0
11
34.89962684203
21
5.966534131153
31
0.0
0
LINE
8
0
10
34.89962684203
20
5.966534131153
30
0.0
11
35.5
21
6.0
31
0.0
0
LINE
8
0
10
38.100659479612
20
5.967496663255
30
0.0
11
35.5
21
6.0
31
0.0
0
LINE
8
0
10
38.100659479612
20
5.967496663255
30
0.0
11
38.395564938032
21
5.906513616701
31
0.0
0
LINE
8
0
10
38.395564938032
20
5.906513616701
30
0.0
11
38.682917703918
21
5.816421722995
31
0.0
0
LINE
8
0
10
38.682917703918
20
5.816421722995
30
0.0
11
38.959852213731
21
5.698119404134
31
0.0
0
LINE
8
0
10
38.959852213731
20
5.698119404134
30
0.0
11
39.22360679775
21
5.5527864045
31
0.0
0
LINE
8
0
10
39.22360679775
20
5.5527864045
30
0.0
11
39.471551220221
21
5.381872026114
31
0.0
0
LINE
8
0
10
39.471551220221
20
5.381872026114
30
0.0
11
39.70121290882
21
5.187080675784
31
0.0
0
LINE
8
0
10
39.70121290882
20
5.187080675784
30
0.0
11
39.910301611847
21
4.970354868277
31
0.0
0
LINE
8
0
10
39.910301611847
20
4.970354868277
30
0.0
11
40.096732237268
21
4.733855855005
31
0.0
0
LINE
8
0
10
40.096732237268
20
4.733855855005
30
0.0
11
40.394427191
21
4.211145618
31
0.0
0
LINE
8
0
10
40.394427191
20
4.211145618
30
0.0
11
41.605572809
21
1.788854382
31
0.0
0
LINE
8
0
10
41.605572809
20
1.788854382
30
0.0
11
41.903267762732
21
1.266144144995
31
0.0
0
LINE
8
0
10
41.903267762732
20
1.266144144995
30
0.0
11
42.089698388153
21
1.029645131723
31
0.0
0
LINE
8
0
10
42.089698388153
20
1.029645131723
30
0.0
11
42.29878709118
21
0.812919324216
31
0.0
0
LINE
8
0
10
42.29878709118
20
0.812919324216
30
0.0
11
42.528448779779
21
0.618127973886
31
0.0
0
LINE
8
0
10
42.528448779779
20
0.618127973886
30
0.0
11
42.77639320225
21
0.4472135955
31
0.0
0
LINE
8
0
10
42.77639320225
20
0.4472135955
30
0.0
11
43.040147786269
21
0.301880595866
31
0.0
0
LINE
8
0
10
43.040147786269
20
0.301880595866
30
0.0
11
43.317082296082
21
0.183578277005
31
0.0
0
LINE
8
0
10
43.317082296082
20
0.183578277005
30
0.0
11
43.604435061968
21
0.093486383299
31
0.0
0
LINE
8
0
10
43.604435061968
20
0.093486383299
30
0.0
11
43.899340520388
21
0.032503336745
31
0.0
0
LINE
8
0
10
43.899340520388
20
0.032503336745
30
0.0
11
44.5
21
0.0
31
0.0
0
LINE
8
0
10
44.5
20
0.0
30
0.0
11
65.5
21
0.0
31
0.0
0
LINE
8
0
10
65.5
20
0.0
30
0.0
11
65.772365453109
21
-0.017625465563
31
0.0
0
LINE
8
0
10
65.772365453109
20
-0.017625465563
30
0.0
11
66.309016994375
21
0.072949016875
31
0.0
0
LINE
8
0
10
66.309016994375
20
0.072949016875
30
0.0
11
66.560510409351
21
0.178989854796
31
0.0
0
LINE
8
0
10
66.560510409351
20
0.178989854796
30
0.0
11
66.792682916851
21
0.322480355684
31
0.0
0
LINE
8
0
10
66.792682916851
20
0.322480355684
30
0.0
11
67.0
21
0.5
31
0.0
0
LINE
8
0
10
67.0
20
0.5
30
0.0
11
67.177519644316
21
0.707317083149
31
0.0
0
LINE
8
0
10
67.177519644316
20
0.707317083149
30
0.0
11
67.321010145204
21
0.939489590649
31
0.0
0
LINE
8
0
10
67.321010145204
20
0.939489590649
30
0.0
11
67.427050983125
21
1.190983005625
31
0.0
0
LINE
8
0
10
67.5
20
18.0
30
0.0
11
67.5
21
2.0
31
0.0
0
LINE
8
0
10
67.601588940875
20
19.643002028831
30
0.0
11
67.555307867434
21
19.316522999142
31
0.0
0
LINE
8
0
10
67.660737386828
20
19.967396782066
30
0.0
11
67.601588940875
21
19.643002028831
31
0.0
0
LINE
8
0
10
68.279279981673
20
21.841934502137
30
0.0
11
68.145560287288
21
21.540521931201
31
0.0
0
LINE
8
0
10
72.220720018327
20
31.158065497863
30
0.0
11
68.279279981673
21
21.841934502137
31
0.0
0
LINE
8
0
10
72.652797861174
20
32.399704007474
30
0.0
11
72.220720018327
21
31.158065497863
31
0.0
0
LINE
8
0
10
72.734378372917
20
32.718326604613
30
0.0
11
72.652797861174
21
32.399704007474
31
0.0
0
LINE
8
0
10
72.805180004582
20
33.039516374466
30
0.0
11
72.734378372917
21
32.718326604613
31
0.0
0
LINE
8
0
10
72.865122399479
20
33.362908780991
30
0.0
11
72.805180004582
21
33.039516374466
31
0.0
0
LINE
8
0
10
72.914137525667
20
33.688136788255
30
0.0
11
72.865122399479
21
33.362908780991
31
0.0
0
LINE
8
0
10
73.0
20
35.0
30
0.0
11
73.0
21
65.0
31
0.0
0
LINE
8
0
10
0.194819995418
20
33.039516374466
30
0.0
11
0.265621627083
21
32.718326604613
31
0.0
0
LINE
8
0
10
0.265621627083
20
32.718326604613
30
0.0
11
0.347202138826
21
32.399704007474
31
0.0
0
LINE
8
0
10
4.720720018327
20
21.841934502137
30
0.0
11
0.779279981673
21
31.158065497863
31
0.0
0
LINE
8
0
10
4.854731648816
20
21.54062260119
30
0.0
11
4.720720018327
21
21.841934502137
31
0.0
0
LINE
8
0
10
5.268297696129
20
20.289421217702
30
0.0
11
5.34025416266
21
19.967597903315
31
0.0
0
LINE
8
0
10
5.34025416266
20
19.967597903315
30
0.0
11
5.399379846751
21
19.643172053175
31
0.0
0
LINE
8
0
10
5.399379846751
20
19.643172053175
30
0.0
11
5.506017156619
21
18.329714683605
31
0.0
0
LINE
8
0
10
73.0
20
65.0
30
0.0
11
72.988933450746
21
66.249287024285
31
0.0
0
LINE
8
0
10
71.94692056648
20
68.49261799567
30
0.0
11
72.628276340114
21
67.445433748608
31
0.0
0
LINE
8
0
10
70.999448893326
20
69.306950830652
30
0.0
11
71.94692056648
21
68.49261799567
31
0.0
0
LINE
8
0
10
68.625
20
70.0
30
0.0
11
69.861762375939
21
69.823196824064
31
0.0
0
LINE
8
0
10
67.388237624061
20
69.823196824064
30
0.0
11
68.625
21
70.0
31
0.0
0
LINE
8
0
10
1.056432639467
20
68.493005007827
30
0.0
11
0.374159602322
21
67.445924433776
31
0.0
0
ENDSEC
0
EOF
